  0
SECTION
  2
HEADER
  9
$ACADVER
  1
AC1006
  9
$EXTMIN
 10
5.720880
 20
0.568920
  9
$EXTMAX
 10
8.121960
 20
3.142920
  9
$LTSCALE
 40
0.044000
  9
$PDMODE
 70
    35
  9
$PDSIZE
 40
0.035200
  0
ENDSEC
  0
SECTION
  2
TABLES
  0
TABLE
  2
LTYPE
 70
     9
  0
LTYPE
  2
CONTINUOUS
 70
    64
  3
Solid line
 72
    65
 73
     0
 40
0.000000
  0
LTYPE
  2
DASHED
 70
    64
  3
__ __ __ __ __ __ __ __ __ __ __ __ __ __ __
 72
    65
 73
     2
 40
0.000330
 49
0.000220
 49
-0.000110
  0
LTYPE
  2
HIDDEN
 70
    64
  3
 _ _ _ _ _ _ _ _ _ _ _ _ _ _ _ _ _ _ _ _ _ _
 72
    65
 73
     2
 40
0.000165
 49
0.000110
 49
-0.000055
  0
LTYPE
  2
CENTER
 70
    64
  3
____ _ ____ _ ____ _ ____ _ ____ _ ____ _ ____
 72
    65
 73
     4
 40
0.000880
 49
0.000550
 49
-0.000110
 49
0.000110
 49
-0.000110
  0
LTYPE
  2
PHANTOM
 70
    64
  3
_____ _ _ _____ _ _ _____ _ _ _____ _ _ ____
 72
    65
 73
     6
 40
0.001100
 49
0.000550
 49
-0.000110
 49
0.000110
 49
-0.000110
 49
0.000110
 49
-0.000110
  0
LTYPE
  2
DOT
 70
    64
  3
...............................................
 72
    65
 73
     2
 40
0.000110
 49
0.000000
 49
-0.000110
  0
LTYPE
  2
DASHDOT
 70
    64
  3
__ . __ . __ . __ . __ . __ . __ . __ . __ . __
 72
    65
 73
     4
 40
0.000440
 49
0.000220
 49
-0.000110
 49
0.000000
 49
-0.000110
  0
LTYPE
  2
BORDER
 70
    64
  3
__ __ . __ __ . __ __ . __ __ . __ __ . __ __
 72
    65
 73
     6
 40
0.000770
 49
0.000220
 49
-0.000110
 49
0.000220
 49
-0.000110
 49
0.000000
 49
-0.000110
  0
LTYPE
  2
DIVIDE
 70
    64
  3
__ . . __ . . __ . . __ . . __ . . __ . . __
 72
    65
 73
     6
 40
0.000550
 49
0.000220
 49
-0.000110
 49
0.000000
 49
-0.000110
 49
0.000000
 49
-0.000110
  0
LTYPE
  2
DOTDOT
 70
    64
  3
 . .  . .  . .  . .  . .  . . 
 72
    65
 73
     5
 40
0.000242
 49
-0.000110
 49
0.000000
 49
-0.000110
 49
0.000000
 49
-0.000110
  0
ENDTAB
  0
TABLE
  2
STYLE
 70
     2
  0
STYLE
 70
     0
  2
SN0
 40
0.000000
 41
0.000440
 50
0.000000
 71
     0
 42
0.000000
  3
ROMAND
  0
STYLE
 70
    68
  2
SV0
 40
0.000000
 41
0.000440
 50
0.000000
 71
     0
 42
0.000000
  3
ROMAND
  0
ENDTAB
  0
TABLE
  2
LAYER
 70
     3
  0
LAYER
  2
FOREGROUND
 70
    64
 62
     7
  6
CONTINUOUS
  0
LAYER
  2
BACKGROUND
 70
    65
 62
    -7
  6
CONTINUOUS
  0
LAYER
  2
0
 70
    64
 62
     7
  6
CONTINUOUS
  0
ENDTAB
  0
ENDSEC
  0
SECTION
  2
ENTITIES
  0
POLYLINE
  8
FOREGROUND
  6
CONTINUOUS
 66
     1
 40
0.000000
 41
0.000000
  0
VERTEX
  8
FOREGROUND
  6
CONTINUOUS
 10
0.000000
 20
3.711840
  0
VERTEX
  8
FOREGROUND
  6
CONTINUOUS
 10
8.499920
 20
3.711840
  0
VERTEX
  8
FOREGROUND
  6
CONTINUOUS
 10
8.499920
 20
-7.288160
  0
VERTEX
  8
FOREGROUND
  6
CONTINUOUS
 10
0.000000
 20
-7.288160
  0
VERTEX
  8
FOREGROUND
  6
CONTINUOUS
 10
0.000000
 20
3.711840
  0
SEQEND
  8
0
  0
POLYLINE
  8
FOREGROUND
  6
CONTINUOUS
 66
     1
 40
0.000000
 41
0.000000
  0
VERTEX
  8
FOREGROUND
  6
CONTINUOUS
 10
0.000000
 20
3.711840
  0
VERTEX
  8
FOREGROUND
  6
CONTINUOUS
 10
8.499920
 20
3.711840
  0
VERTEX
  8
FOREGROUND
  6
CONTINUOUS
 10
8.499920
 20
-7.288160
  0
VERTEX
  8
FOREGROUND
  6
CONTINUOUS
 10
0.000000
 20
-7.288160
  0
VERTEX
  8
FOREGROUND
  6
CONTINUOUS
 10
0.000000
 20
3.711840
  0
SEQEND
  8
0
  0
POLYLINE
  8
0
  6
CONTINUOUS
 66
     1
 40
0.014080
 41
0.014080
  0
VERTEX
  8
0
  6
CONTINUOUS
 10
6.127880
 20
2.281840
  0
VERTEX
  8
0
  6
CONTINUOUS
 10
6.326760
 20
2.281840
  0
VERTEX
  8
0
  6
CONTINUOUS
 10
6.326760
 20
2.387440
  0
VERTEX
  8
0
  6
CONTINUOUS
 10
6.361520
 20
2.389640
  0
VERTEX
  8
0
  6
CONTINUOUS
 10
6.400240
 20
2.397120
  0
VERTEX
  8
0
  6
CONTINUOUS
 10
6.427080
 20
2.404160
  0
VERTEX
  8
0
  6
CONTINUOUS
 10
6.483400
 20
2.425280
  0
VERTEX
  8
0
  6
CONTINUOUS
 10
6.539720
 20
2.454320
  0
VERTEX
  8
0
  6
CONTINUOUS
 10
6.593840
 20
2.491280
  0
VERTEX
  8
0
  6
CONTINUOUS
 10
6.631240
 20
2.523840
  0
VERTEX
  8
0
  6
CONTINUOUS
 10
6.654120
 20
2.548480
  0
VERTEX
  8
0
  6
CONTINUOUS
 10
6.684480
 20
2.588520
  0
VERTEX
  8
0
  6
CONTINUOUS
 10
6.709120
 20
2.632520
  0
VERTEX
  8
0
  6
CONTINUOUS
 10
6.752240
 20
2.746480
  0
VERTEX
  8
0
  6
CONTINUOUS
 10
6.780400
 20
2.811160
  0
VERTEX
  8
0
  6
CONTINUOUS
 10
6.806360
 20
2.857800
  0
VERTEX
  8
0
  6
CONTINUOUS
 10
6.838920
 20
2.900920
  0
VERTEX
  8
0
  6
CONTINUOUS
 10
6.865320
 20
2.927320
  0
VERTEX
  8
0
  6
CONTINUOUS
 10
6.895680
 20
2.951080
  0
VERTEX
  8
0
  6
CONTINUOUS
 10
6.930880
 20
2.972640
  0
VERTEX
  8
0
  6
CONTINUOUS
 10
6.971360
 20
2.990680
  0
VERTEX
  8
0
  6
CONTINUOUS
 10
7.017560
 20
3.005640
  0
VERTEX
  8
0
  6
CONTINUOUS
 10
7.043080
 20
3.011800
  0
VERTEX
  8
0
  6
CONTINUOUS
 10
7.099840
 20
3.020600
  0
VERTEX
  8
0
  6
CONTINUOUS
 10
7.130640
 20
3.023680
  0
VERTEX
  8
0
  6
CONTINUOUS
 10
7.163200
 20
3.025440
  0
VERTEX
  8
0
  6
CONTINUOUS
 10
7.197960
 20
3.025880
  0
VERTEX
  8
0
  6
CONTINUOUS
 10
7.197960
 20
3.135440
  0
VERTEX
  8
0
  6
CONTINUOUS
 10
6.125240
 20
3.135440
  0
VERTEX
  8
0
  6
CONTINUOUS
 10
6.125240
 20
2.281840
  0
VERTEX
  8
0
  6
CONTINUOUS
 10
6.127880
 20
2.281840
  0
SEQEND
  8
0
  0
SOLID
  8
0
 62
     7
 10
6.336440
 20
1.415920
 11
6.980160
 21
1.038400
 12
6.324120
 22
1.383360
 13
6.967840
 23
1.005400
  0
POLYLINE
  8
0
  6
CONTINUOUS
 66
     1
 40
0.000000
 41
0.000000
  0
VERTEX
  8
0
  6
CONTINUOUS
 10
6.336440
 20
1.415920
  0
VERTEX
  8
0
  6
CONTINUOUS
 10
6.980160
 20
1.038400
  0
VERTEX
  8
0
  6
CONTINUOUS
 10
6.967840
 20
1.005400
  0
VERTEX
  8
0
  6
CONTINUOUS
 10
6.324120
 20
1.383360
  0
VERTEX
  8
0
  6
CONTINUOUS
 10
6.336440
 20
1.415920
  0
SEQEND
  8
0
  0
SOLID
  8
0
 62
    15
 10
6.794480
 20
1.728760
 11
7.438200
 21
1.350800
 12
6.727160
 22
1.726120
 13
7.370880
 23
1.348600
  0
POLYLINE
  8
0
  6
CONTINUOUS
 66
     1
 40
0.000000
 41
0.000000
  0
VERTEX
  8
0
  6
CONTINUOUS
 10
6.794480
 20
1.728760
  0
VERTEX
  8
0
  6
CONTINUOUS
 10
7.438200
 20
1.350800
  0
VERTEX
  8
0
  6
CONTINUOUS
 10
7.370880
 20
1.348600
  0
VERTEX
  8
0
  6
CONTINUOUS
 10
6.727160
 20
1.726120
  0
VERTEX
  8
0
  6
CONTINUOUS
 10
6.794480
 20
1.728760
  0
SEQEND
  8
0
  0
SOLID
  8
0
 62
    15
 10
6.727160
 20
1.726120
 11
7.370880
 21
1.348600
 12
6.666880
 22
1.719520
 13
7.311040
 23
1.341560
  0
POLYLINE
  8
0
  6
CONTINUOUS
 66
     1
 40
0.000000
 41
0.000000
  0
VERTEX
  8
0
  6
CONTINUOUS
 10
6.727160
 20
1.726120
  0
VERTEX
  8
0
  6
CONTINUOUS
 10
7.370880
 20
1.348600
  0
VERTEX
  8
0
  6
CONTINUOUS
 10
7.311040
 20
1.341560
  0
VERTEX
  8
0
  6
CONTINUOUS
 10
6.666880
 20
1.719520
  0
VERTEX
  8
0
  6
CONTINUOUS
 10
6.727160
 20
1.726120
  0
SEQEND
  8
0
  0
SOLID
  8
0
 62
    15
 10
6.666880
 20
1.719520
 11
7.311040
 21
1.341560
 12
6.614080
 22
1.708520
 13
7.257800
 23
1.330560
  0
POLYLINE
  8
0
  6
CONTINUOUS
 66
     1
 40
0.000000
 41
0.000000
  0
VERTEX
  8
0
  6
CONTINUOUS
 10
6.666880
 20
1.719520
  0
VERTEX
  8
0
  6
CONTINUOUS
 10
7.311040
 20
1.341560
  0
VERTEX
  8
0
  6
CONTINUOUS
 10
7.257800
 20
1.330560
  0
VERTEX
  8
0
  6
CONTINUOUS
 10
6.614080
 20
1.708520
  0
VERTEX
  8
0
  6
CONTINUOUS
 10
6.666880
 20
1.719520
  0
SEQEND
  8
0
  0
SOLID
  8
0
 62
    15
 10
6.614080
 20
1.708520
 11
7.257800
 21
1.330560
 12
6.567880
 22
1.693560
 13
7.211600
 23
1.315600
  0
POLYLINE
  8
0
  6
CONTINUOUS
 66
     1
 40
0.000000
 41
0.000000
  0
VERTEX
  8
0
  6
CONTINUOUS
 10
6.614080
 20
1.708520
  0
VERTEX
  8
0
  6
CONTINUOUS
 10
7.257800
 20
1.330560
  0
VERTEX
  8
0
  6
CONTINUOUS
 10
7.211600
 20
1.315600
  0
VERTEX
  8
0
  6
CONTINUOUS
 10
6.567880
 20
1.693560
  0
VERTEX
  8
0
  6
CONTINUOUS
 10
6.614080
 20
1.708520
  0
SEQEND
  8
0
  0
SOLID
  8
0
 62
    15
 10
6.567880
 20
1.693560
 11
7.211600
 21
1.315600
 12
6.526960
 22
1.675520
 13
7.171120
 23
1.297560
  0
POLYLINE
  8
0
  6
CONTINUOUS
 66
     1
 40
0.000000
 41
0.000000
  0
VERTEX
  8
0
  6
CONTINUOUS
 10
6.567880
 20
1.693560
  0
VERTEX
  8
0
  6
CONTINUOUS
 10
7.211600
 20
1.315600
  0
VERTEX
  8
0
  6
CONTINUOUS
 10
7.171120
 20
1.297560
  0
VERTEX
  8
0
  6
CONTINUOUS
 10
6.526960
 20
1.675520
  0
VERTEX
  8
0
  6
CONTINUOUS
 10
6.567880
 20
1.693560
  0
SEQEND
  8
0
  0
SOLID
  8
0
 62
    15
 10
6.526960
 20
1.675520
 11
7.171120
 21
1.297560
 12
6.491760
 22
1.653960
 13
7.135920
 23
1.276000
  0
POLYLINE
  8
0
  6
CONTINUOUS
 66
     1
 40
0.000000
 41
0.000000
  0
VERTEX
  8
0
  6
CONTINUOUS
 10
6.526960
 20
1.675520
  0
VERTEX
  8
0
  6
CONTINUOUS
 10
7.171120
 20
1.297560
  0
VERTEX
  8
0
  6
CONTINUOUS
 10
7.135920
 20
1.276000
  0
VERTEX
  8
0
  6
CONTINUOUS
 10
6.491760
 20
1.653960
  0
VERTEX
  8
0
  6
CONTINUOUS
 10
6.526960
 20
1.675520
  0
SEQEND
  8
0
  0
SOLID
  8
0
 62
    15
 10
6.491760
 20
1.653960
 11
7.135920
 21
1.276000
 12
6.461400
 22
1.629760
 13
7.105120
 23
1.252240
  0
POLYLINE
  8
0
  6
CONTINUOUS
 66
     1
 40
0.000000
 41
0.000000
  0
VERTEX
  8
0
  6
CONTINUOUS
 10
6.491760
 20
1.653960
  0
VERTEX
  8
0
  6
CONTINUOUS
 10
7.135920
 20
1.276000
  0
VERTEX
  8
0
  6
CONTINUOUS
 10
7.105120
 20
1.252240
  0
VERTEX
  8
0
  6
CONTINUOUS
 10
6.461400
 20
1.629760
  0
VERTEX
  8
0
  6
CONTINUOUS
 10
6.491760
 20
1.653960
  0
SEQEND
  8
0
  0
SOLID
  8
0
 62
    15
 10
6.461400
 20
1.629760
 11
7.105120
 21
1.252240
 12
6.435440
 22
1.603360
 13
7.079160
 23
1.225840
  0
POLYLINE
  8
0
  6
CONTINUOUS
 66
     1
 40
0.000000
 41
0.000000
  0
VERTEX
  8
0
  6
CONTINUOUS
 10
6.461400
 20
1.629760
  0
VERTEX
  8
0
  6
CONTINUOUS
 10
7.105120
 20
1.252240
  0
VERTEX
  8
0
  6
CONTINUOUS
 10
7.079160
 20
1.225840
  0
VERTEX
  8
0
  6
CONTINUOUS
 10
6.435440
 20
1.603360
  0
VERTEX
  8
0
  6
CONTINUOUS
 10
6.461400
 20
1.629760
  0
SEQEND
  8
0
  0
SOLID
  8
0
 62
    15
 10
6.435440
 20
1.603360
 11
7.079160
 21
1.225840
 12
6.393640
 22
1.545280
 13
7.037360
 23
1.167320
  0
POLYLINE
  8
0
  6
CONTINUOUS
 66
     1
 40
0.000000
 41
0.000000
  0
VERTEX
  8
0
  6
CONTINUOUS
 10
6.435440
 20
1.603360
  0
VERTEX
  8
0
  6
CONTINUOUS
 10
7.079160
 20
1.225840
  0
VERTEX
  8
0
  6
CONTINUOUS
 10
7.037360
 20
1.167320
  0
VERTEX
  8
0
  6
CONTINUOUS
 10
6.393640
 20
1.545280
  0
VERTEX
  8
0
  6
CONTINUOUS
 10
6.435440
 20
1.603360
  0
SEQEND
  8
0
  0
SOLID
  8
0
 62
     7
 10
6.393640
 20
1.545280
 11
7.037360
 21
1.167320
 12
6.361960
 22
1.481920
 13
7.005680
 23
1.103960
  0
POLYLINE
  8
0
  6
CONTINUOUS
 66
     1
 40
0.000000
 41
0.000000
  0
VERTEX
  8
0
  6
CONTINUOUS
 10
6.393640
 20
1.545280
  0
VERTEX
  8
0
  6
CONTINUOUS
 10
7.037360
 20
1.167320
  0
VERTEX
  8
0
  6
CONTINUOUS
 10
7.005680
 20
1.103960
  0
VERTEX
  8
0
  6
CONTINUOUS
 10
6.361960
 20
1.481920
  0
VERTEX
  8
0
  6
CONTINUOUS
 10
6.393640
 20
1.545280
  0
SEQEND
  8
0
  0
SOLID
  8
0
 62
     7
 10
6.361960
 20
1.481920
 11
7.005680
 21
1.103960
 12
6.336440
 22
1.415920
 13
6.980160
 23
1.038400
  0
POLYLINE
  8
0
  6
CONTINUOUS
 66
     1
 40
0.000000
 41
0.000000
  0
VERTEX
  8
0
  6
CONTINUOUS
 10
6.361960
 20
1.481920
  0
VERTEX
  8
0
  6
CONTINUOUS
 10
7.005680
 20
1.103960
  0
VERTEX
  8
0
  6
CONTINUOUS
 10
6.980160
 20
1.038400
  0
VERTEX
  8
0
  6
CONTINUOUS
 10
6.336440
 20
1.415920
  0
VERTEX
  8
0
  6
CONTINUOUS
 10
6.361960
 20
1.481920
  0
SEQEND
  8
0
  0
SOLID
  8
0
 62
     7
 10
6.794480
 20
1.838320
 11
7.438200
 21
1.460360
 12
6.794480
 22
1.728760
 13
7.438200
 23
1.350800
  0
POLYLINE
  8
0
  6
CONTINUOUS
 66
     1
 40
0.000000
 41
0.000000
  0
VERTEX
  8
0
  6
CONTINUOUS
 10
6.794480
 20
1.838320
  0
VERTEX
  8
0
  6
CONTINUOUS
 10
7.438200
 20
1.460360
  0
VERTEX
  8
0
  6
CONTINUOUS
 10
7.438200
 20
1.350800
  0
VERTEX
  8
0
  6
CONTINUOUS
 10
6.794480
 20
1.728760
  0
VERTEX
  8
0
  6
CONTINUOUS
 10
6.794480
 20
1.838320
  0
SEQEND
  8
0
  0
SOLID
  8
0
 62
     7
 10
6.324120
 20
1.383360
 11
6.967840
 21
1.005400
 12
6.311800
 22
1.351240
 13
6.955520
 23
0.973280
  0
POLYLINE
  8
0
  6
CONTINUOUS
 66
     1
 40
0.000000
 41
0.000000
  0
VERTEX
  8
0
  6
CONTINUOUS
 10
6.324120
 20
1.383360
  0
VERTEX
  8
0
  6
CONTINUOUS
 10
6.967840
 20
1.005400
  0
VERTEX
  8
0
  6
CONTINUOUS
 10
6.955520
 20
0.973280
  0
VERTEX
  8
0
  6
CONTINUOUS
 10
6.311800
 20
1.351240
  0
VERTEX
  8
0
  6
CONTINUOUS
 10
6.324120
 20
1.383360
  0
SEQEND
  8
0
  0
SOLID
  8
0
 62
     7
 10
6.311800
 20
1.351240
 11
6.955520
 21
0.973280
 12
6.280560
 22
1.291400
 13
6.924280
 23
0.913440
  0
POLYLINE
  8
0
  6
CONTINUOUS
 66
     1
 40
0.000000
 41
0.000000
  0
VERTEX
  8
0
  6
CONTINUOUS
 10
6.311800
 20
1.351240
  0
VERTEX
  8
0
  6
CONTINUOUS
 10
6.955520
 20
0.973280
  0
VERTEX
  8
0
  6
CONTINUOUS
 10
6.924280
 20
0.913440
  0
VERTEX
  8
0
  6
CONTINUOUS
 10
6.280560
 20
1.291400
  0
VERTEX
  8
0
  6
CONTINUOUS
 10
6.311800
 20
1.351240
  0
SEQEND
  8
0
  0
SOLID
  8
0
 62
    15
 10
6.280560
 20
1.291400
 11
6.924280
 21
0.913440
 12
6.239200
 22
1.238600
 13
6.882920
 23
0.861080
  0
POLYLINE
  8
0
  6
CONTINUOUS
 66
     1
 40
0.000000
 41
0.000000
  0
VERTEX
  8
0
  6
CONTINUOUS
 10
6.280560
 20
1.291400
  0
VERTEX
  8
0
  6
CONTINUOUS
 10
6.924280
 20
0.913440
  0
VERTEX
  8
0
  6
CONTINUOUS
 10
6.882920
 20
0.861080
  0
VERTEX
  8
0
  6
CONTINUOUS
 10
6.239200
 20
1.238600
  0
VERTEX
  8
0
  6
CONTINUOUS
 10
6.280560
 20
1.291400
  0
SEQEND
  8
0
  0
SOLID
  8
0
 62
    15
 10
6.239200
 20
1.238600
 11
6.882920
 21
0.861080
 12
6.189920
 22
1.194160
 13
6.833640
 23
0.816200
  0
POLYLINE
  8
0
  6
CONTINUOUS
 66
     1
 40
0.000000
 41
0.000000
  0
VERTEX
  8
0
  6
CONTINUOUS
 10
6.239200
 20
1.238600
  0
VERTEX
  8
0
  6
CONTINUOUS
 10
6.882920
 20
0.861080
  0
VERTEX
  8
0
  6
CONTINUOUS
 10
6.833640
 20
0.816200
  0
VERTEX
  8
0
  6
CONTINUOUS
 10
6.189920
 20
1.194160
  0
VERTEX
  8
0
  6
CONTINUOUS
 10
6.239200
 20
1.238600
  0
SEQEND
  8
0
  0
SOLID
  8
0
 62
    15
 10
6.189920
 20
1.194160
 11
6.833640
 21
0.816200
 12
6.136240
 22
1.157200
 13
6.779960
 23
0.779240
  0
POLYLINE
  8
0
  6
CONTINUOUS
 66
     1
 40
0.000000
 41
0.000000
  0
VERTEX
  8
0
  6
CONTINUOUS
 10
6.189920
 20
1.194160
  0
VERTEX
  8
0
  6
CONTINUOUS
 10
6.833640
 20
0.816200
  0
VERTEX
  8
0
  6
CONTINUOUS
 10
6.779960
 20
0.779240
  0
VERTEX
  8
0
  6
CONTINUOUS
 10
6.136240
 20
1.157200
  0
VERTEX
  8
0
  6
CONTINUOUS
 10
6.189920
 20
1.194160
  0
SEQEND
  8
0
  0
SOLID
  8
0
 62
    15
 10
6.136240
 20
1.157200
 11
6.779960
 21
0.779240
 12
6.079480
 22
1.128160
 13
6.723200
 23
0.750200
  0
POLYLINE
  8
0
  6
CONTINUOUS
 66
     1
 40
0.000000
 41
0.000000
  0
VERTEX
  8
0
  6
CONTINUOUS
 10
6.136240
 20
1.157200
  0
VERTEX
  8
0
  6
CONTINUOUS
 10
6.779960
 20
0.779240
  0
VERTEX
  8
0
  6
CONTINUOUS
 10
6.723200
 20
0.750200
  0
VERTEX
  8
0
  6
CONTINUOUS
 10
6.079480
 20
1.128160
  0
VERTEX
  8
0
  6
CONTINUOUS
 10
6.136240
 20
1.157200
  0
SEQEND
  8
0
  0
SOLID
  8
0
 62
    15
 10
6.079480
 20
1.128160
 11
6.723200
 21
0.750200
 12
6.023600
 22
1.107040
 13
6.667320
 23
0.729080
  0
POLYLINE
  8
0
  6
CONTINUOUS
 66
     1
 40
0.000000
 41
0.000000
  0
VERTEX
  8
0
  6
CONTINUOUS
 10
6.079480
 20
1.128160
  0
VERTEX
  8
0
  6
CONTINUOUS
 10
6.723200
 20
0.750200
  0
VERTEX
  8
0
  6
CONTINUOUS
 10
6.667320
 20
0.729080
  0
VERTEX
  8
0
  6
CONTINUOUS
 10
6.023600
 20
1.107040
  0
VERTEX
  8
0
  6
CONTINUOUS
 10
6.079480
 20
1.128160
  0
SEQEND
  8
0
  0
SOLID
  8
0
 62
    15
 10
6.023600
 20
1.107040
 11
6.667320
 21
0.729080
 12
5.970360
 22
1.094280
 13
6.614080
 23
0.716760
  0
POLYLINE
  8
0
  6
CONTINUOUS
 66
     1
 40
0.000000
 41
0.000000
  0
VERTEX
  8
0
  6
CONTINUOUS
 10
6.023600
 20
1.107040
  0
VERTEX
  8
0
  6
CONTINUOUS
 10
6.667320
 20
0.729080
  0
VERTEX
  8
0
  6
CONTINUOUS
 10
6.614080
 20
0.716760
  0
VERTEX
  8
0
  6
CONTINUOUS
 10
5.970360
 20
1.094280
  0
VERTEX
  8
0
  6
CONTINUOUS
 10
6.023600
 20
1.107040
  0
SEQEND
  8
0
  0
SOLID
  8
0
 62
    15
 10
5.970360
 20
1.094280
 11
6.614080
 21
0.716760
 12
5.922840
 22
1.090320
 13
6.566560
 23
0.712360
  0
POLYLINE
  8
0
  6
CONTINUOUS
 66
     1
 40
0.000000
 41
0.000000
  0
VERTEX
  8
0
  6
CONTINUOUS
 10
5.970360
 20
1.094280
  0
VERTEX
  8
0
  6
CONTINUOUS
 10
6.614080
 20
0.716760
  0
VERTEX
  8
0
  6
CONTINUOUS
 10
6.566560
 20
0.712360
  0
VERTEX
  8
0
  6
CONTINUOUS
 10
5.922840
 20
1.090320
  0
VERTEX
  8
0
  6
CONTINUOUS
 10
5.970360
 20
1.094280
  0
SEQEND
  8
0
  0
SOLID
  8
0
 62
     7
 10
5.922840
 20
1.090320
 11
6.566560
 21
0.712360
 12
5.922840
 22
0.984280
 13
6.566560
 23
0.606760
  0
POLYLINE
  8
0
  6
CONTINUOUS
 66
     1
 40
0.000000
 41
0.000000
  0
VERTEX
  8
0
  6
CONTINUOUS
 10
5.922840
 20
1.090320
  0
VERTEX
  8
0
  6
CONTINUOUS
 10
6.566560
 20
0.712360
  0
VERTEX
  8
0
  6
CONTINUOUS
 10
6.566560
 20
0.606760
  0
VERTEX
  8
0
  6
CONTINUOUS
 10
5.922840
 20
0.984280
  0
VERTEX
  8
0
  6
CONTINUOUS
 10
5.922840
 20
1.090320
  0
SEQEND
  8
0
  0
SOLID
  8
0
 62
    15
 10
5.922840
 20
0.984280
 11
6.566560
 21
0.606760
 12
5.723960
 22
0.984280
 13
6.368120
 23
0.606760
  0
POLYLINE
  8
0
  6
CONTINUOUS
 66
     1
 40
0.000000
 41
0.000000
  0
VERTEX
  8
0
  6
CONTINUOUS
 10
5.922840
 20
0.984280
  0
VERTEX
  8
0
  6
CONTINUOUS
 10
6.566560
 20
0.606760
  0
VERTEX
  8
0
  6
CONTINUOUS
 10
6.368120
 20
0.606760
  0
VERTEX
  8
0
  6
CONTINUOUS
 10
5.723960
 20
0.984280
  0
VERTEX
  8
0
  6
CONTINUOUS
 10
5.922840
 20
0.984280
  0
SEQEND
  8
0
  0
SOLID
  8
0
 62
    15
 10
5.723960
 20
0.984280
 11
6.368120
 21
0.606760
 12
5.721760
 22
0.984280
 13
6.365480
 23
0.606760
  0
POLYLINE
  8
0
  6
CONTINUOUS
 66
     1
 40
0.000000
 41
0.000000
  0
VERTEX
  8
0
  6
CONTINUOUS
 10
5.723960
 20
0.984280
  0
VERTEX
  8
0
  6
CONTINUOUS
 10
6.368120
 20
0.606760
  0
VERTEX
  8
0
  6
CONTINUOUS
 10
6.365480
 20
0.606760
  0
VERTEX
  8
0
  6
CONTINUOUS
 10
5.721760
 20
0.984280
  0
VERTEX
  8
0
  6
CONTINUOUS
 10
5.723960
 20
0.984280
  0
SEQEND
  8
0
  0
POLYLINE
  8
0
  6
CONTINUOUS
 66
     1
 40
0.000000
 41
0.000000
  0
VERTEX
  8
0
  6
CONTINUOUS
 10
5.721760
 20
0.984280
  0
VERTEX
  8
0
  6
CONTINUOUS
 10
5.721760
 20
1.838320
  0
VERTEX
  8
0
  6
CONTINUOUS
 10
6.794480
 20
1.838320
  0
VERTEX
  8
0
  6
CONTINUOUS
 10
6.794480
 20
1.728760
  0
VERTEX
  8
0
  6
CONTINUOUS
 10
6.727160
 20
1.726120
  0
VERTEX
  8
0
  6
CONTINUOUS
 10
6.666880
 20
1.719520
  0
VERTEX
  8
0
  6
CONTINUOUS
 10
6.614080
 20
1.708520
  0
VERTEX
  8
0
  6
CONTINUOUS
 10
6.567880
 20
1.693560
  0
VERTEX
  8
0
  6
CONTINUOUS
 10
6.526960
 20
1.675520
  0
VERTEX
  8
0
  6
CONTINUOUS
 10
6.491760
 20
1.653960
  0
VERTEX
  8
0
  6
CONTINUOUS
 10
6.461400
 20
1.629760
  0
VERTEX
  8
0
  6
CONTINUOUS
 10
6.435440
 20
1.603360
  0
VERTEX
  8
0
  6
CONTINUOUS
 10
6.393640
 20
1.545280
  0
VERTEX
  8
0
  6
CONTINUOUS
 10
6.361960
 20
1.481920
  0
VERTEX
  8
0
  6
CONTINUOUS
 10
6.336440
 20
1.415920
  0
VERTEX
  8
0
  6
CONTINUOUS
 10
6.324120
 20
1.383360
  0
VERTEX
  8
0
  6
CONTINUOUS
 10
6.311800
 20
1.351240
  0
VERTEX
  8
0
  6
CONTINUOUS
 10
6.280560
 20
1.291400
  0
VERTEX
  8
0
  6
CONTINUOUS
 10
6.239200
 20
1.238600
  0
VERTEX
  8
0
  6
CONTINUOUS
 10
6.189920
 20
1.194160
  0
VERTEX
  8
0
  6
CONTINUOUS
 10
6.136240
 20
1.157200
  0
VERTEX
  8
0
  6
CONTINUOUS
 10
6.079480
 20
1.128160
  0
VERTEX
  8
0
  6
CONTINUOUS
 10
6.023600
 20
1.107040
  0
VERTEX
  8
0
  6
CONTINUOUS
 10
5.970360
 20
1.094280
  0
VERTEX
  8
0
  6
CONTINUOUS
 10
5.922840
 20
1.090320
  0
VERTEX
  8
0
  6
CONTINUOUS
 10
5.922840
 20
0.984280
  0
VERTEX
  8
0
  6
CONTINUOUS
 10
5.723960
 20
0.984280
  0
VERTEX
  8
0
  6
CONTINUOUS
 10
5.721760
 20
0.984280
  0
SEQEND
  8
0
  0
TEXT
  8
0
 10
7.222600
 20
0.803880
 40
0.138154
  1
BA  458
 41
1.000000
  7
SN0
 71
     0
 72
     5
 11
7.812175
 21
0.803880
  0
TEXT
  8
0
 10
7.020640
 20
0.612480
 40
0.138154
  1
7/8" x 1-1/16"
 41
1.000000
  7
SN0
 71
     0
 72
     5
 11
8.012531
 21
0.612480
  0
ENDSEC
  0
EOF
