  0
SECTION
  2
HEADER
  9
$ACADVER
  1
AC1006
  9
$EXTMIN
 10
3.771680
 20
0.466840
  9
$EXTMAX
 10
6.891720
 20
3.437280
  9
$LTSCALE
 40
0.044000
  9
$PDMODE
 70
    35
  9
$PDSIZE
 40
0.035200
  0
ENDSEC
  0
SECTION
  2
TABLES
  0
TABLE
  2
LTYPE
 70
     9
  0
LTYPE
  2
CONTINUOUS
 70
    64
  3
Solid line
 72
    65
 73
     0
 40
0.000000
  0
LTYPE
  2
DASHED
 70
    64
  3
__ __ __ __ __ __ __ __ __ __ __ __ __ __ __
 72
    65
 73
     2
 40
0.000330
 49
0.000220
 49
-0.000110
  0
LTYPE
  2
HIDDEN
 70
    64
  3
 _ _ _ _ _ _ _ _ _ _ _ _ _ _ _ _ _ _ _ _ _ _
 72
    65
 73
     2
 40
0.000165
 49
0.000110
 49
-0.000055
  0
LTYPE
  2
CENTER
 70
    64
  3
____ _ ____ _ ____ _ ____ _ ____ _ ____ _ ____
 72
    65
 73
     4
 40
0.000880
 49
0.000550
 49
-0.000110
 49
0.000110
 49
-0.000110
  0
LTYPE
  2
PHANTOM
 70
    64
  3
_____ _ _ _____ _ _ _____ _ _ _____ _ _ ____
 72
    65
 73
     6
 40
0.001100
 49
0.000550
 49
-0.000110
 49
0.000110
 49
-0.000110
 49
0.000110
 49
-0.000110
  0
LTYPE
  2
DOT
 70
    64
  3
...............................................
 72
    65
 73
     2
 40
0.000110
 49
0.000000
 49
-0.000110
  0
LTYPE
  2
DASHDOT
 70
    64
  3
__ . __ . __ . __ . __ . __ . __ . __ . __ . __
 72
    65
 73
     4
 40
0.000440
 49
0.000220
 49
-0.000110
 49
0.000000
 49
-0.000110
  0
LTYPE
  2
BORDER
 70
    64
  3
__ __ . __ __ . __ __ . __ __ . __ __ . __ __
 72
    65
 73
     6
 40
0.000770
 49
0.000220
 49
-0.000110
 49
0.000220
 49
-0.000110
 49
0.000000
 49
-0.000110
  0
LTYPE
  2
DIVIDE
 70
    64
  3
__ . . __ . . __ . . __ . . __ . . __ . . __
 72
    65
 73
     6
 40
0.000550
 49
0.000220
 49
-0.000110
 49
0.000000
 49
-0.000110
 49
0.000000
 49
-0.000110
  0
LTYPE
  2
DOTDOT
 70
    64
  3
 . .  . .  . .  . .  . .  . . 
 72
    65
 73
     5
 40
0.000242
 49
-0.000110
 49
0.000000
 49
-0.000110
 49
0.000000
 49
-0.000110
  0
ENDTAB
  0
TABLE
  2
STYLE
 70
     2
  0
STYLE
 70
     0
  2
SN0
 40
0.000000
 41
0.000440
 50
0.000000
 71
     0
 42
0.000000
  3
ROMAND
  0
STYLE
 70
    68
  2
SV0
 40
0.000000
 41
0.000440
 50
0.000000
 71
     0
 42
0.000000
  3
ROMAND
  0
ENDTAB
  0
TABLE
  2
LAYER
 70
     3
  0
LAYER
  2
FOREGROUND
 70
    64
 62
     7
  6
CONTINUOUS
  0
LAYER
  2
BACKGROUND
 70
    65
 62
    -7
  6
CONTINUOUS
  0
LAYER
  2
0
 70
    64
 62
     7
  6
CONTINUOUS
  0
ENDTAB
  0
ENDSEC
  0
SECTION
  2
ENTITIES
  0
POLYLINE
  8
FOREGROUND
  6
CONTINUOUS
 66
     1
 40
0.000000
 41
0.000000
  0
VERTEX
  8
FOREGROUND
  6
CONTINUOUS
 10
0.000000
 20
3.904120
  0
VERTEX
  8
FOREGROUND
  6
CONTINUOUS
 10
8.499920
 20
3.904120
  0
VERTEX
  8
FOREGROUND
  6
CONTINUOUS
 10
8.499920
 20
-7.095880
  0
VERTEX
  8
FOREGROUND
  6
CONTINUOUS
 10
0.000000
 20
-7.095880
  0
VERTEX
  8
FOREGROUND
  6
CONTINUOUS
 10
0.000000
 20
3.904120
  0
SEQEND
  8
0
  0
POLYLINE
  8
FOREGROUND
  6
CONTINUOUS
 66
     1
 40
0.000000
 41
0.000000
  0
VERTEX
  8
FOREGROUND
  6
CONTINUOUS
 10
0.000000
 20
3.904120
  0
VERTEX
  8
FOREGROUND
  6
CONTINUOUS
 10
8.499920
 20
3.904120
  0
VERTEX
  8
FOREGROUND
  6
CONTINUOUS
 10
8.499920
 20
-7.095880
  0
VERTEX
  8
FOREGROUND
  6
CONTINUOUS
 10
0.000000
 20
-7.095880
  0
VERTEX
  8
FOREGROUND
  6
CONTINUOUS
 10
0.000000
 20
3.904120
  0
SEQEND
  8
0
  0
SOLID
  8
0
 62
    15
 10
4.118400
 20
2.167440
 11
4.777080
 21
2.533960
 12
4.169000
 22
2.069760
 13
4.828120
 23
2.436280
  0
POLYLINE
  8
0
  6
CONTINUOUS
 66
     1
 40
0.000000
 41
0.000000
  0
VERTEX
  8
0
  6
CONTINUOUS
 10
4.118400
 20
2.167440
  0
VERTEX
  8
0
  6
CONTINUOUS
 10
4.777080
 20
2.533960
  0
VERTEX
  8
0
  6
CONTINUOUS
 10
4.828120
 20
2.436280
  0
VERTEX
  8
0
  6
CONTINUOUS
 10
4.169000
 20
2.069760
  0
VERTEX
  8
0
  6
CONTINUOUS
 10
4.118400
 20
2.167440
  0
SEQEND
  8
0
  0
SOLID
  8
0
 62
    15
 10
3.932280
 20
3.070320
 11
4.590960
 21
3.436400
 12
3.936680
 22
3.021920
 13
4.595800
 23
3.388000
  0
POLYLINE
  8
0
  6
CONTINUOUS
 66
     1
 40
0.000000
 41
0.000000
  0
VERTEX
  8
0
  6
CONTINUOUS
 10
3.932280
 20
3.070320
  0
VERTEX
  8
0
  6
CONTINUOUS
 10
4.590960
 20
3.436400
  0
VERTEX
  8
0
  6
CONTINUOUS
 10
4.595800
 20
3.388000
  0
VERTEX
  8
0
  6
CONTINUOUS
 10
3.936680
 20
3.021920
  0
VERTEX
  8
0
  6
CONTINUOUS
 10
3.932280
 20
3.070320
  0
SEQEND
  8
0
  0
SOLID
  8
0
 62
    15
 10
3.936680
 20
3.021920
 11
4.595800
 21
3.388000
 12
3.948560
 22
2.982760
 13
4.607240
 23
3.349280
  0
POLYLINE
  8
0
  6
CONTINUOUS
 66
     1
 40
0.000000
 41
0.000000
  0
VERTEX
  8
0
  6
CONTINUOUS
 10
3.936680
 20
3.021920
  0
VERTEX
  8
0
  6
CONTINUOUS
 10
4.595800
 20
3.388000
  0
VERTEX
  8
0
  6
CONTINUOUS
 10
4.607240
 20
3.349280
  0
VERTEX
  8
0
  6
CONTINUOUS
 10
3.948560
 20
2.982760
  0
VERTEX
  8
0
  6
CONTINUOUS
 10
3.936680
 20
3.021920
  0
SEQEND
  8
0
  0
SOLID
  8
0
 62
    15
 10
3.948560
 20
2.982760
 11
4.607240
 21
3.349280
 12
3.966600
 22
2.952400
 13
4.625280
 23
3.318920
  0
POLYLINE
  8
0
  6
CONTINUOUS
 66
     1
 40
0.000000
 41
0.000000
  0
VERTEX
  8
0
  6
CONTINUOUS
 10
3.948560
 20
2.982760
  0
VERTEX
  8
0
  6
CONTINUOUS
 10
4.607240
 20
3.349280
  0
VERTEX
  8
0
  6
CONTINUOUS
 10
4.625280
 20
3.318920
  0
VERTEX
  8
0
  6
CONTINUOUS
 10
3.966600
 20
2.952400
  0
VERTEX
  8
0
  6
CONTINUOUS
 10
3.948560
 20
2.982760
  0
SEQEND
  8
0
  0
SOLID
  8
0
 62
    15
 10
3.966600
 20
2.952400
 11
4.625280
 21
3.318920
 12
3.989480
 22
2.929080
 13
4.648600
 23
3.295160
  0
POLYLINE
  8
0
  6
CONTINUOUS
 66
     1
 40
0.000000
 41
0.000000
  0
VERTEX
  8
0
  6
CONTINUOUS
 10
3.966600
 20
2.952400
  0
VERTEX
  8
0
  6
CONTINUOUS
 10
4.625280
 20
3.318920
  0
VERTEX
  8
0
  6
CONTINUOUS
 10
4.648600
 20
3.295160
  0
VERTEX
  8
0
  6
CONTINUOUS
 10
3.989480
 20
2.929080
  0
VERTEX
  8
0
  6
CONTINUOUS
 10
3.966600
 20
2.952400
  0
SEQEND
  8
0
  0
SOLID
  8
0
 62
    15
 10
3.989480
 20
2.929080
 11
4.648600
 21
3.295160
 12
4.016760
 22
2.911480
 13
4.675440
 23
3.278000
  0
POLYLINE
  8
0
  6
CONTINUOUS
 66
     1
 40
0.000000
 41
0.000000
  0
VERTEX
  8
0
  6
CONTINUOUS
 10
3.989480
 20
2.929080
  0
VERTEX
  8
0
  6
CONTINUOUS
 10
4.648600
 20
3.295160
  0
VERTEX
  8
0
  6
CONTINUOUS
 10
4.675440
 20
3.278000
  0
VERTEX
  8
0
  6
CONTINUOUS
 10
4.016760
 20
2.911480
  0
VERTEX
  8
0
  6
CONTINUOUS
 10
3.989480
 20
2.929080
  0
SEQEND
  8
0
  0
SOLID
  8
0
 62
    15
 10
4.016760
 20
2.911480
 11
4.675440
 21
3.278000
 12
4.046240
 22
2.898280
 13
4.705360
 23
3.264800
  0
POLYLINE
  8
0
  6
CONTINUOUS
 66
     1
 40
0.000000
 41
0.000000
  0
VERTEX
  8
0
  6
CONTINUOUS
 10
4.016760
 20
2.911480
  0
VERTEX
  8
0
  6
CONTINUOUS
 10
4.675440
 20
3.278000
  0
VERTEX
  8
0
  6
CONTINUOUS
 10
4.705360
 20
3.264800
  0
VERTEX
  8
0
  6
CONTINUOUS
 10
4.046240
 20
2.898280
  0
VERTEX
  8
0
  6
CONTINUOUS
 10
4.016760
 20
2.911480
  0
SEQEND
  8
0
  0
SOLID
  8
0
 62
    15
 10
4.046240
 20
2.898280
 11
4.705360
 21
3.264800
 12
4.110040
 22
2.882000
 13
4.768720
 23
3.248080
  0
POLYLINE
  8
0
  6
CONTINUOUS
 66
     1
 40
0.000000
 41
0.000000
  0
VERTEX
  8
0
  6
CONTINUOUS
 10
4.046240
 20
2.898280
  0
VERTEX
  8
0
  6
CONTINUOUS
 10
4.705360
 20
3.264800
  0
VERTEX
  8
0
  6
CONTINUOUS
 10
4.768720
 20
3.248080
  0
VERTEX
  8
0
  6
CONTINUOUS
 10
4.110040
 20
2.882000
  0
VERTEX
  8
0
  6
CONTINUOUS
 10
4.046240
 20
2.898280
  0
SEQEND
  8
0
  0
SOLID
  8
0
 62
    15
 10
4.110040
 20
2.882000
 11
4.768720
 21
3.248080
 12
4.110040
 22
2.761000
 13
4.768720
 23
3.127520
  0
POLYLINE
  8
0
  6
CONTINUOUS
 66
     1
 40
0.000000
 41
0.000000
  0
VERTEX
  8
0
  6
CONTINUOUS
 10
4.110040
 20
2.882000
  0
VERTEX
  8
0
  6
CONTINUOUS
 10
4.768720
 20
3.248080
  0
VERTEX
  8
0
  6
CONTINUOUS
 10
4.768720
 20
3.127520
  0
VERTEX
  8
0
  6
CONTINUOUS
 10
4.110040
 20
2.761000
  0
VERTEX
  8
0
  6
CONTINUOUS
 10
4.110040
 20
2.882000
  0
SEQEND
  8
0
  0
SOLID
  8
0
 62
    15
 10
4.110040
 20
2.761000
 11
4.768720
 21
3.127520
 12
4.145680
 22
2.753520
 13
4.804360
 23
3.120040
  0
POLYLINE
  8
0
  6
CONTINUOUS
 66
     1
 40
0.000000
 41
0.000000
  0
VERTEX
  8
0
  6
CONTINUOUS
 10
4.110040
 20
2.761000
  0
VERTEX
  8
0
  6
CONTINUOUS
 10
4.768720
 20
3.127520
  0
VERTEX
  8
0
  6
CONTINUOUS
 10
4.804360
 20
3.120040
  0
VERTEX
  8
0
  6
CONTINUOUS
 10
4.145680
 20
2.753520
  0
VERTEX
  8
0
  6
CONTINUOUS
 10
4.110040
 20
2.761000
  0
SEQEND
  8
0
  0
SOLID
  8
0
 62
    15
 10
4.145680
 20
2.753520
 11
4.804360
 21
3.120040
 12
4.179120
 22
2.739440
 13
4.838240
 23
3.105960
  0
POLYLINE
  8
0
  6
CONTINUOUS
 66
     1
 40
0.000000
 41
0.000000
  0
VERTEX
  8
0
  6
CONTINUOUS
 10
4.145680
 20
2.753520
  0
VERTEX
  8
0
  6
CONTINUOUS
 10
4.804360
 20
3.120040
  0
VERTEX
  8
0
  6
CONTINUOUS
 10
4.838240
 20
3.105960
  0
VERTEX
  8
0
  6
CONTINUOUS
 10
4.179120
 20
2.739440
  0
VERTEX
  8
0
  6
CONTINUOUS
 10
4.145680
 20
2.753520
  0
SEQEND
  8
0
  0
SOLID
  8
0
 62
    15
 10
4.179120
 20
2.739440
 11
4.838240
 21
3.105960
 12
4.210360
 22
2.720080
 13
4.869040
 23
3.086600
  0
POLYLINE
  8
0
  6
CONTINUOUS
 66
     1
 40
0.000000
 41
0.000000
  0
VERTEX
  8
0
  6
CONTINUOUS
 10
4.179120
 20
2.739440
  0
VERTEX
  8
0
  6
CONTINUOUS
 10
4.838240
 20
3.105960
  0
VERTEX
  8
0
  6
CONTINUOUS
 10
4.869040
 20
3.086600
  0
VERTEX
  8
0
  6
CONTINUOUS
 10
4.210360
 20
2.720080
  0
VERTEX
  8
0
  6
CONTINUOUS
 10
4.179120
 20
2.739440
  0
SEQEND
  8
0
  0
SOLID
  8
0
 62
    15
 10
4.210360
 20
2.720080
 11
4.869040
 21
3.086600
 12
4.238080
 22
2.695880
 13
4.897200
 23
3.062400
  0
POLYLINE
  8
0
  6
CONTINUOUS
 66
     1
 40
0.000000
 41
0.000000
  0
VERTEX
  8
0
  6
CONTINUOUS
 10
4.210360
 20
2.720080
  0
VERTEX
  8
0
  6
CONTINUOUS
 10
4.869040
 20
3.086600
  0
VERTEX
  8
0
  6
CONTINUOUS
 10
4.897200
 20
3.062400
  0
VERTEX
  8
0
  6
CONTINUOUS
 10
4.238080
 20
2.695880
  0
VERTEX
  8
0
  6
CONTINUOUS
 10
4.210360
 20
2.720080
  0
SEQEND
  8
0
  0
SOLID
  8
0
 62
    15
 10
4.238080
 20
2.695880
 11
4.897200
 21
3.062400
 12
4.261840
 22
2.668160
 13
4.920960
 23
3.034680
  0
POLYLINE
  8
0
  6
CONTINUOUS
 66
     1
 40
0.000000
 41
0.000000
  0
VERTEX
  8
0
  6
CONTINUOUS
 10
4.238080
 20
2.695880
  0
VERTEX
  8
0
  6
CONTINUOUS
 10
4.897200
 20
3.062400
  0
VERTEX
  8
0
  6
CONTINUOUS
 10
4.920960
 20
3.034680
  0
VERTEX
  8
0
  6
CONTINUOUS
 10
4.261840
 20
2.668160
  0
VERTEX
  8
0
  6
CONTINUOUS
 10
4.238080
 20
2.695880
  0
SEQEND
  8
0
  0
SOLID
  8
0
 62
    15
 10
4.261840
 20
2.668160
 11
4.920960
 21
3.034680
 12
4.281200
 22
2.637360
 13
4.939880
 23
3.003880
  0
POLYLINE
  8
0
  6
CONTINUOUS
 66
     1
 40
0.000000
 41
0.000000
  0
VERTEX
  8
0
  6
CONTINUOUS
 10
4.261840
 20
2.668160
  0
VERTEX
  8
0
  6
CONTINUOUS
 10
4.920960
 20
3.034680
  0
VERTEX
  8
0
  6
CONTINUOUS
 10
4.939880
 20
3.003880
  0
VERTEX
  8
0
  6
CONTINUOUS
 10
4.281200
 20
2.637360
  0
VERTEX
  8
0
  6
CONTINUOUS
 10
4.261840
 20
2.668160
  0
SEQEND
  8
0
  0
SOLID
  8
0
 62
    15
 10
4.281200
 20
2.637360
 11
4.939880
 21
3.003880
 12
4.294840
 22
2.604360
 13
4.953960
 23
2.970880
  0
POLYLINE
  8
0
  6
CONTINUOUS
 66
     1
 40
0.000000
 41
0.000000
  0
VERTEX
  8
0
  6
CONTINUOUS
 10
4.281200
 20
2.637360
  0
VERTEX
  8
0
  6
CONTINUOUS
 10
4.939880
 20
3.003880
  0
VERTEX
  8
0
  6
CONTINUOUS
 10
4.953960
 20
2.970880
  0
VERTEX
  8
0
  6
CONTINUOUS
 10
4.294840
 20
2.604360
  0
VERTEX
  8
0
  6
CONTINUOUS
 10
4.281200
 20
2.637360
  0
SEQEND
  8
0
  0
SOLID
  8
0
 62
    15
 10
4.294840
 20
2.604360
 11
4.953960
 21
2.970880
 12
4.302760
 22
2.570040
 13
4.961440
 23
2.936560
  0
POLYLINE
  8
0
  6
CONTINUOUS
 66
     1
 40
0.000000
 41
0.000000
  0
VERTEX
  8
0
  6
CONTINUOUS
 10
4.294840
 20
2.604360
  0
VERTEX
  8
0
  6
CONTINUOUS
 10
4.953960
 20
2.970880
  0
VERTEX
  8
0
  6
CONTINUOUS
 10
4.961440
 20
2.936560
  0
VERTEX
  8
0
  6
CONTINUOUS
 10
4.302760
 20
2.570040
  0
VERTEX
  8
0
  6
CONTINUOUS
 10
4.294840
 20
2.604360
  0
SEQEND
  8
0
  0
SOLID
  8
0
 62
    15
 10
4.302760
 20
2.570040
 11
4.961440
 21
2.936560
 12
4.303640
 22
2.535280
 13
4.962320
 23
2.901800
  0
POLYLINE
  8
0
  6
CONTINUOUS
 66
     1
 40
0.000000
 41
0.000000
  0
VERTEX
  8
0
  6
CONTINUOUS
 10
4.302760
 20
2.570040
  0
VERTEX
  8
0
  6
CONTINUOUS
 10
4.961440
 20
2.936560
  0
VERTEX
  8
0
  6
CONTINUOUS
 10
4.962320
 20
2.901800
  0
VERTEX
  8
0
  6
CONTINUOUS
 10
4.303640
 20
2.535280
  0
VERTEX
  8
0
  6
CONTINUOUS
 10
4.302760
 20
2.570040
  0
SEQEND
  8
0
  0
SOLID
  8
0
 62
    15
 10
4.303640
 20
2.535280
 11
4.962320
 21
2.901800
 12
4.296600
 22
2.500960
 13
4.955720
 23
2.867480
  0
POLYLINE
  8
0
  6
CONTINUOUS
 66
     1
 40
0.000000
 41
0.000000
  0
VERTEX
  8
0
  6
CONTINUOUS
 10
4.303640
 20
2.535280
  0
VERTEX
  8
0
  6
CONTINUOUS
 10
4.962320
 20
2.901800
  0
VERTEX
  8
0
  6
CONTINUOUS
 10
4.955720
 20
2.867480
  0
VERTEX
  8
0
  6
CONTINUOUS
 10
4.296600
 20
2.500960
  0
VERTEX
  8
0
  6
CONTINUOUS
 10
4.303640
 20
2.535280
  0
SEQEND
  8
0
  0
SOLID
  8
0
 62
    15
 10
4.060320
 20
2.348720
 11
4.719000
 21
2.715240
 12
4.068240
 22
2.306480
 13
4.727360
 23
2.673000
  0
POLYLINE
  8
0
  6
CONTINUOUS
 66
     1
 40
0.000000
 41
0.000000
  0
VERTEX
  8
0
  6
CONTINUOUS
 10
4.060320
 20
2.348720
  0
VERTEX
  8
0
  6
CONTINUOUS
 10
4.719000
 20
2.715240
  0
VERTEX
  8
0
  6
CONTINUOUS
 10
4.727360
 20
2.673000
  0
VERTEX
  8
0
  6
CONTINUOUS
 10
4.068240
 20
2.306480
  0
VERTEX
  8
0
  6
CONTINUOUS
 10
4.060320
 20
2.348720
  0
SEQEND
  8
0
  0
SOLID
  8
0
 62
    15
 10
4.282080
 20
2.467960
 11
4.940760
 21
2.834480
 12
4.258320
 22
2.436720
 13
4.917000
 23
2.803240
  0
POLYLINE
  8
0
  6
CONTINUOUS
 66
     1
 40
0.000000
 41
0.000000
  0
VERTEX
  8
0
  6
CONTINUOUS
 10
4.282080
 20
2.467960
  0
VERTEX
  8
0
  6
CONTINUOUS
 10
4.940760
 20
2.834480
  0
VERTEX
  8
0
  6
CONTINUOUS
 10
4.917000
 20
2.803240
  0
VERTEX
  8
0
  6
CONTINUOUS
 10
4.258320
 20
2.436720
  0
VERTEX
  8
0
  6
CONTINUOUS
 10
4.282080
 20
2.467960
  0
SEQEND
  8
0
  0
SOLID
  8
0
 62
    15
 10
4.258320
 20
2.436720
 11
4.917000
 21
2.803240
 12
4.224880
 22
2.408560
 13
4.883560
 23
2.775080
  0
POLYLINE
  8
0
  6
CONTINUOUS
 66
     1
 40
0.000000
 41
0.000000
  0
VERTEX
  8
0
  6
CONTINUOUS
 10
4.258320
 20
2.436720
  0
VERTEX
  8
0
  6
CONTINUOUS
 10
4.917000
 20
2.803240
  0
VERTEX
  8
0
  6
CONTINUOUS
 10
4.883560
 20
2.775080
  0
VERTEX
  8
0
  6
CONTINUOUS
 10
4.224880
 20
2.408560
  0
VERTEX
  8
0
  6
CONTINUOUS
 10
4.258320
 20
2.436720
  0
SEQEND
  8
0
  0
SOLID
  8
0
 62
    15
 10
4.224880
 20
2.408560
 11
4.883560
 21
2.775080
 12
4.181320
 22
2.383920
 13
4.840000
 23
2.750000
  0
POLYLINE
  8
0
  6
CONTINUOUS
 66
     1
 40
0.000000
 41
0.000000
  0
VERTEX
  8
0
  6
CONTINUOUS
 10
4.224880
 20
2.408560
  0
VERTEX
  8
0
  6
CONTINUOUS
 10
4.883560
 20
2.775080
  0
VERTEX
  8
0
  6
CONTINUOUS
 10
4.840000
 20
2.750000
  0
VERTEX
  8
0
  6
CONTINUOUS
 10
4.181320
 20
2.383920
  0
VERTEX
  8
0
  6
CONTINUOUS
 10
4.224880
 20
2.408560
  0
SEQEND
  8
0
  0
SOLID
  8
0
 62
    15
 10
4.296600
 20
2.500960
 11
4.955720
 21
2.867480
 12
4.282080
 22
2.467960
 13
4.940760
 23
2.834480
  0
POLYLINE
  8
0
  6
CONTINUOUS
 66
     1
 40
0.000000
 41
0.000000
  0
VERTEX
  8
0
  6
CONTINUOUS
 10
4.296600
 20
2.500960
  0
VERTEX
  8
0
  6
CONTINUOUS
 10
4.955720
 20
2.867480
  0
VERTEX
  8
0
  6
CONTINUOUS
 10
4.940760
 20
2.834480
  0
VERTEX
  8
0
  6
CONTINUOUS
 10
4.282080
 20
2.467960
  0
VERTEX
  8
0
  6
CONTINUOUS
 10
4.296600
 20
2.500960
  0
SEQEND
  8
0
  0
SOLID
  8
0
 62
    15
 10
4.068240
 20
2.306480
 11
4.727360
 21
2.673000
 12
4.081000
 22
2.261600
 13
4.739680
 23
2.628120
  0
POLYLINE
  8
0
  6
CONTINUOUS
 66
     1
 40
0.000000
 41
0.000000
  0
VERTEX
  8
0
  6
CONTINUOUS
 10
4.068240
 20
2.306480
  0
VERTEX
  8
0
  6
CONTINUOUS
 10
4.727360
 20
2.673000
  0
VERTEX
  8
0
  6
CONTINUOUS
 10
4.739680
 20
2.628120
  0
VERTEX
  8
0
  6
CONTINUOUS
 10
4.081000
 20
2.261600
  0
VERTEX
  8
0
  6
CONTINUOUS
 10
4.068240
 20
2.306480
  0
SEQEND
  8
0
  0
SOLID
  8
0
 62
    15
 10
4.081000
 20
2.261600
 11
4.739680
 21
2.628120
 12
4.097720
 22
2.215400
 13
4.756400
 23
2.581480
  0
POLYLINE
  8
0
  6
CONTINUOUS
 66
     1
 40
0.000000
 41
0.000000
  0
VERTEX
  8
0
  6
CONTINUOUS
 10
4.081000
 20
2.261600
  0
VERTEX
  8
0
  6
CONTINUOUS
 10
4.739680
 20
2.628120
  0
VERTEX
  8
0
  6
CONTINUOUS
 10
4.756400
 20
2.581480
  0
VERTEX
  8
0
  6
CONTINUOUS
 10
4.097720
 20
2.215400
  0
VERTEX
  8
0
  6
CONTINUOUS
 10
4.081000
 20
2.261600
  0
SEQEND
  8
0
  0
SOLID
  8
0
 62
    15
 10
4.097720
 20
2.215400
 11
4.756400
 21
2.581480
 12
4.118400
 22
2.167440
 13
4.777080
 23
2.533960
  0
POLYLINE
  8
0
  6
CONTINUOUS
 66
     1
 40
0.000000
 41
0.000000
  0
VERTEX
  8
0
  6
CONTINUOUS
 10
4.097720
 20
2.215400
  0
VERTEX
  8
0
  6
CONTINUOUS
 10
4.756400
 20
2.581480
  0
VERTEX
  8
0
  6
CONTINUOUS
 10
4.777080
 20
2.533960
  0
VERTEX
  8
0
  6
CONTINUOUS
 10
4.118400
 20
2.167440
  0
VERTEX
  8
0
  6
CONTINUOUS
 10
4.097720
 20
2.215400
  0
SEQEND
  8
0
  0
SOLID
  8
0
 62
    15
 10
3.772560
 20
3.070320
 11
4.431240
 21
3.436400
 12
3.932280
 22
3.070320
 13
4.590960
 23
3.436400
  0
POLYLINE
  8
0
  6
CONTINUOUS
 66
     1
 40
0.000000
 41
0.000000
  0
VERTEX
  8
0
  6
CONTINUOUS
 10
3.772560
 20
3.070320
  0
VERTEX
  8
0
  6
CONTINUOUS
 10
4.431240
 20
3.436400
  0
VERTEX
  8
0
  6
CONTINUOUS
 10
4.590960
 20
3.436400
  0
VERTEX
  8
0
  6
CONTINUOUS
 10
3.932280
 20
3.070320
  0
VERTEX
  8
0
  6
CONTINUOUS
 10
3.772560
 20
3.070320
  0
SEQEND
  8
0
  0
SOLID
  8
0
 62
    15
 10
4.169000
 20
2.069760
 11
4.828120
 21
2.436280
 12
4.230600
 22
1.972960
 13
4.889280
 23
2.339480
  0
POLYLINE
  8
0
  6
CONTINUOUS
 66
     1
 40
0.000000
 41
0.000000
  0
VERTEX
  8
0
  6
CONTINUOUS
 10
4.169000
 20
2.069760
  0
VERTEX
  8
0
  6
CONTINUOUS
 10
4.828120
 20
2.436280
  0
VERTEX
  8
0
  6
CONTINUOUS
 10
4.889280
 20
2.339480
  0
VERTEX
  8
0
  6
CONTINUOUS
 10
4.230600
 20
1.972960
  0
VERTEX
  8
0
  6
CONTINUOUS
 10
4.169000
 20
2.069760
  0
SEQEND
  8
0
  0
SOLID
  8
0
 62
    15
 10
4.230600
 20
1.972960
 11
4.889280
 21
2.339480
 12
4.298800
 22
1.881440
 13
4.957480
 23
2.247960
  0
POLYLINE
  8
0
  6
CONTINUOUS
 66
     1
 40
0.000000
 41
0.000000
  0
VERTEX
  8
0
  6
CONTINUOUS
 10
4.230600
 20
1.972960
  0
VERTEX
  8
0
  6
CONTINUOUS
 10
4.889280
 20
2.339480
  0
VERTEX
  8
0
  6
CONTINUOUS
 10
4.957480
 20
2.247960
  0
VERTEX
  8
0
  6
CONTINUOUS
 10
4.298800
 20
1.881440
  0
VERTEX
  8
0
  6
CONTINUOUS
 10
4.230600
 20
1.972960
  0
SEQEND
  8
0
  0
SOLID
  8
0
 62
    15
 10
4.298800
 20
1.881440
 11
4.957480
 21
2.247960
 12
4.370960
 22
1.799160
 13
5.030080
 23
2.165240
  0
POLYLINE
  8
0
  6
CONTINUOUS
 66
     1
 40
0.000000
 41
0.000000
  0
VERTEX
  8
0
  6
CONTINUOUS
 10
4.298800
 20
1.881440
  0
VERTEX
  8
0
  6
CONTINUOUS
 10
4.957480
 20
2.247960
  0
VERTEX
  8
0
  6
CONTINUOUS
 10
5.030080
 20
2.165240
  0
VERTEX
  8
0
  6
CONTINUOUS
 10
4.370960
 20
1.799160
  0
VERTEX
  8
0
  6
CONTINUOUS
 10
4.298800
 20
1.881440
  0
SEQEND
  8
0
  0
SOLID
  8
0
 62
    15
 10
4.370960
 20
1.799160
 11
5.030080
 21
2.165240
 12
4.407920
 22
1.762640
 13
5.066600
 23
2.128720
  0
POLYLINE
  8
0
  6
CONTINUOUS
 66
     1
 40
0.000000
 41
0.000000
  0
VERTEX
  8
0
  6
CONTINUOUS
 10
4.370960
 20
1.799160
  0
VERTEX
  8
0
  6
CONTINUOUS
 10
5.030080
 20
2.165240
  0
VERTEX
  8
0
  6
CONTINUOUS
 10
5.066600
 20
2.128720
  0
VERTEX
  8
0
  6
CONTINUOUS
 10
4.407920
 20
1.762640
  0
VERTEX
  8
0
  6
CONTINUOUS
 10
4.370960
 20
1.799160
  0
SEQEND
  8
0
  0
SOLID
  8
0
 62
    15
 10
4.407920
 20
1.762640
 11
5.066600
 21
2.128720
 12
4.444440
 22
1.729640
 13
5.103120
 23
2.096160
  0
POLYLINE
  8
0
  6
CONTINUOUS
 66
     1
 40
0.000000
 41
0.000000
  0
VERTEX
  8
0
  6
CONTINUOUS
 10
4.407920
 20
1.762640
  0
VERTEX
  8
0
  6
CONTINUOUS
 10
5.066600
 20
2.128720
  0
VERTEX
  8
0
  6
CONTINUOUS
 10
5.103120
 20
2.096160
  0
VERTEX
  8
0
  6
CONTINUOUS
 10
4.444440
 20
1.729640
  0
VERTEX
  8
0
  6
CONTINUOUS
 10
4.407920
 20
1.762640
  0
SEQEND
  8
0
  0
SOLID
  8
0
 62
    15
 10
4.444440
 20
1.729640
 11
5.103120
 21
2.096160
 12
4.480080
 22
1.701480
 13
5.138760
 23
2.068000
  0
POLYLINE
  8
0
  6
CONTINUOUS
 66
     1
 40
0.000000
 41
0.000000
  0
VERTEX
  8
0
  6
CONTINUOUS
 10
4.444440
 20
1.729640
  0
VERTEX
  8
0
  6
CONTINUOUS
 10
5.103120
 20
2.096160
  0
VERTEX
  8
0
  6
CONTINUOUS
 10
5.138760
 20
2.068000
  0
VERTEX
  8
0
  6
CONTINUOUS
 10
4.480080
 20
1.701480
  0
VERTEX
  8
0
  6
CONTINUOUS
 10
4.444440
 20
1.729640
  0
SEQEND
  8
0
  0
SOLID
  8
0
 62
    15
 10
4.480080
 20
1.701480
 11
5.138760
 21
2.068000
 12
4.514840
 22
1.678160
 13
5.173960
 23
2.044680
  0
POLYLINE
  8
0
  6
CONTINUOUS
 66
     1
 40
0.000000
 41
0.000000
  0
VERTEX
  8
0
  6
CONTINUOUS
 10
4.480080
 20
1.701480
  0
VERTEX
  8
0
  6
CONTINUOUS
 10
5.138760
 20
2.068000
  0
VERTEX
  8
0
  6
CONTINUOUS
 10
5.173960
 20
2.044680
  0
VERTEX
  8
0
  6
CONTINUOUS
 10
4.514840
 20
1.678160
  0
VERTEX
  8
0
  6
CONTINUOUS
 10
4.480080
 20
1.701480
  0
SEQEND
  8
0
  0
SOLID
  8
0
 62
    15
 10
4.514840
 20
1.678160
 11
5.173960
 21
2.044680
 12
4.502520
 22
1.654400
 13
5.161200
 23
2.020920
  0
POLYLINE
  8
0
  6
CONTINUOUS
 66
     1
 40
0.000000
 41
0.000000
  0
VERTEX
  8
0
  6
CONTINUOUS
 10
4.514840
 20
1.678160
  0
VERTEX
  8
0
  6
CONTINUOUS
 10
5.173960
 20
2.044680
  0
VERTEX
  8
0
  6
CONTINUOUS
 10
5.161200
 20
2.020920
  0
VERTEX
  8
0
  6
CONTINUOUS
 10
4.502520
 20
1.654400
  0
VERTEX
  8
0
  6
CONTINUOUS
 10
4.514840
 20
1.678160
  0
SEQEND
  8
0
  0
SOLID
  8
0
 62
    15
 10
4.502520
 20
1.654400
 11
5.161200
 21
2.020920
 12
4.493280
 22
1.637680
 13
5.152400
 23
2.004200
  0
POLYLINE
  8
0
  6
CONTINUOUS
 66
     1
 40
0.000000
 41
0.000000
  0
VERTEX
  8
0
  6
CONTINUOUS
 10
4.502520
 20
1.654400
  0
VERTEX
  8
0
  6
CONTINUOUS
 10
5.161200
 20
2.020920
  0
VERTEX
  8
0
  6
CONTINUOUS
 10
5.152400
 20
2.004200
  0
VERTEX
  8
0
  6
CONTINUOUS
 10
4.493280
 20
1.637680
  0
VERTEX
  8
0
  6
CONTINUOUS
 10
4.502520
 20
1.654400
  0
SEQEND
  8
0
  0
SOLID
  8
0
 62
    15
 10
4.493280
 20
1.637680
 11
5.152400
 21
2.004200
 12
4.490200
 22
1.632400
 13
5.149320
 23
1.998920
  0
POLYLINE
  8
0
  6
CONTINUOUS
 66
     1
 40
0.000000
 41
0.000000
  0
VERTEX
  8
0
  6
CONTINUOUS
 10
4.493280
 20
1.637680
  0
VERTEX
  8
0
  6
CONTINUOUS
 10
5.152400
 20
2.004200
  0
VERTEX
  8
0
  6
CONTINUOUS
 10
5.149320
 20
1.998920
  0
VERTEX
  8
0
  6
CONTINUOUS
 10
4.490200
 20
1.632400
  0
VERTEX
  8
0
  6
CONTINUOUS
 10
4.493280
 20
1.637680
  0
SEQEND
  8
0
  0
SOLID
  8
0
 62
    15
 10
4.490200
 20
1.632400
 11
5.149320
 21
1.998920
 12
4.479640
 22
1.609080
 13
5.138320
 23
1.975600
  0
POLYLINE
  8
0
  6
CONTINUOUS
 66
     1
 40
0.000000
 41
0.000000
  0
VERTEX
  8
0
  6
CONTINUOUS
 10
4.490200
 20
1.632400
  0
VERTEX
  8
0
  6
CONTINUOUS
 10
5.149320
 20
1.998920
  0
VERTEX
  8
0
  6
CONTINUOUS
 10
5.138320
 20
1.975600
  0
VERTEX
  8
0
  6
CONTINUOUS
 10
4.479640
 20
1.609080
  0
VERTEX
  8
0
  6
CONTINUOUS
 10
4.490200
 20
1.632400
  0
SEQEND
  8
0
  0
SOLID
  8
0
 62
    15
 10
4.479640
 20
1.609080
 11
5.138320
 21
1.975600
 12
4.470840
 22
1.582240
 13
5.129960
 23
1.948760
  0
POLYLINE
  8
0
  6
CONTINUOUS
 66
     1
 40
0.000000
 41
0.000000
  0
VERTEX
  8
0
  6
CONTINUOUS
 10
4.479640
 20
1.609080
  0
VERTEX
  8
0
  6
CONTINUOUS
 10
5.138320
 20
1.975600
  0
VERTEX
  8
0
  6
CONTINUOUS
 10
5.129960
 20
1.948760
  0
VERTEX
  8
0
  6
CONTINUOUS
 10
4.470840
 20
1.582240
  0
VERTEX
  8
0
  6
CONTINUOUS
 10
4.479640
 20
1.609080
  0
SEQEND
  8
0
  0
SOLID
  8
0
 62
    15
 10
4.470840
 20
1.582240
 11
5.129960
 21
1.948760
 12
4.465560
 22
1.549240
 13
5.124240
 23
1.915760
  0
POLYLINE
  8
0
  6
CONTINUOUS
 66
     1
 40
0.000000
 41
0.000000
  0
VERTEX
  8
0
  6
CONTINUOUS
 10
4.470840
 20
1.582240
  0
VERTEX
  8
0
  6
CONTINUOUS
 10
5.129960
 20
1.948760
  0
VERTEX
  8
0
  6
CONTINUOUS
 10
5.124240
 20
1.915760
  0
VERTEX
  8
0
  6
CONTINUOUS
 10
4.465560
 20
1.549240
  0
VERTEX
  8
0
  6
CONTINUOUS
 10
4.470840
 20
1.582240
  0
SEQEND
  8
0
  0
SOLID
  8
0
 62
    15
 10
4.465560
 20
1.549240
 11
5.124240
 21
1.915760
 12
4.463800
 22
1.507880
 13
5.122920
 23
1.873960
  0
POLYLINE
  8
0
  6
CONTINUOUS
 66
     1
 40
0.000000
 41
0.000000
  0
VERTEX
  8
0
  6
CONTINUOUS
 10
4.465560
 20
1.549240
  0
VERTEX
  8
0
  6
CONTINUOUS
 10
5.124240
 20
1.915760
  0
VERTEX
  8
0
  6
CONTINUOUS
 10
5.122920
 20
1.873960
  0
VERTEX
  8
0
  6
CONTINUOUS
 10
4.463800
 20
1.507880
  0
VERTEX
  8
0
  6
CONTINUOUS
 10
4.465560
 20
1.549240
  0
SEQEND
  8
0
  0
SOLID
  8
0
 62
    15
 10
4.463800
 20
1.507880
 11
5.122920
 21
1.873960
 12
4.465120
 22
1.482800
 13
5.123800
 23
1.849320
  0
POLYLINE
  8
0
  6
CONTINUOUS
 66
     1
 40
0.000000
 41
0.000000
  0
VERTEX
  8
0
  6
CONTINUOUS
 10
4.463800
 20
1.507880
  0
VERTEX
  8
0
  6
CONTINUOUS
 10
5.122920
 20
1.873960
  0
VERTEX
  8
0
  6
CONTINUOUS
 10
5.123800
 20
1.849320
  0
VERTEX
  8
0
  6
CONTINUOUS
 10
4.465120
 20
1.482800
  0
VERTEX
  8
0
  6
CONTINUOUS
 10
4.463800
 20
1.507880
  0
SEQEND
  8
0
  0
SOLID
  8
0
 62
    15
 10
4.465120
 20
1.482800
 11
5.123800
 21
1.849320
 12
4.467320
 22
1.455080
 13
5.126440
 23
1.821600
  0
POLYLINE
  8
0
  6
CONTINUOUS
 66
     1
 40
0.000000
 41
0.000000
  0
VERTEX
  8
0
  6
CONTINUOUS
 10
4.465120
 20
1.482800
  0
VERTEX
  8
0
  6
CONTINUOUS
 10
5.123800
 20
1.849320
  0
VERTEX
  8
0
  6
CONTINUOUS
 10
5.126440
 20
1.821600
  0
VERTEX
  8
0
  6
CONTINUOUS
 10
4.467320
 20
1.455080
  0
VERTEX
  8
0
  6
CONTINUOUS
 10
4.465120
 20
1.482800
  0
SEQEND
  8
0
  0
SOLID
  8
0
 62
    15
 10
4.467320
 20
1.455080
 11
5.126440
 21
1.821600
 12
4.471280
 22
1.423840
 13
5.129960
 23
1.790360
  0
POLYLINE
  8
0
  6
CONTINUOUS
 66
     1
 40
0.000000
 41
0.000000
  0
VERTEX
  8
0
  6
CONTINUOUS
 10
4.467320
 20
1.455080
  0
VERTEX
  8
0
  6
CONTINUOUS
 10
5.126440
 20
1.821600
  0
VERTEX
  8
0
  6
CONTINUOUS
 10
5.129960
 20
1.790360
  0
VERTEX
  8
0
  6
CONTINUOUS
 10
4.471280
 20
1.423840
  0
VERTEX
  8
0
  6
CONTINUOUS
 10
4.467320
 20
1.455080
  0
SEQEND
  8
0
  0
SOLID
  8
0
 62
    15
 10
4.471280
 20
1.423840
 11
5.129960
 21
1.790360
 12
4.476560
 22
1.388640
 13
5.135680
 23
1.755160
  0
POLYLINE
  8
0
  6
CONTINUOUS
 66
     1
 40
0.000000
 41
0.000000
  0
VERTEX
  8
0
  6
CONTINUOUS
 10
4.471280
 20
1.423840
  0
VERTEX
  8
0
  6
CONTINUOUS
 10
5.129960
 20
1.790360
  0
VERTEX
  8
0
  6
CONTINUOUS
 10
5.135680
 20
1.755160
  0
VERTEX
  8
0
  6
CONTINUOUS
 10
4.476560
 20
1.388640
  0
VERTEX
  8
0
  6
CONTINUOUS
 10
4.471280
 20
1.423840
  0
SEQEND
  8
0
  0
SOLID
  8
0
 62
    15
 10
4.476560
 20
1.388640
 11
5.135680
 21
1.755160
 12
4.486680
 22
1.319120
 13
5.145360
 23
1.685640
  0
POLYLINE
  8
0
  6
CONTINUOUS
 66
     1
 40
0.000000
 41
0.000000
  0
VERTEX
  8
0
  6
CONTINUOUS
 10
4.476560
 20
1.388640
  0
VERTEX
  8
0
  6
CONTINUOUS
 10
5.135680
 20
1.755160
  0
VERTEX
  8
0
  6
CONTINUOUS
 10
5.145360
 20
1.685640
  0
VERTEX
  8
0
  6
CONTINUOUS
 10
4.486680
 20
1.319120
  0
VERTEX
  8
0
  6
CONTINUOUS
 10
4.476560
 20
1.388640
  0
SEQEND
  8
0
  0
SOLID
  8
0
 62
    15
 10
4.486680
 20
1.319120
 11
5.145360
 21
1.685640
 12
4.491080
 22
1.257960
 13
5.149760
 23
1.624480
  0
POLYLINE
  8
0
  6
CONTINUOUS
 66
     1
 40
0.000000
 41
0.000000
  0
VERTEX
  8
0
  6
CONTINUOUS
 10
4.486680
 20
1.319120
  0
VERTEX
  8
0
  6
CONTINUOUS
 10
5.145360
 20
1.685640
  0
VERTEX
  8
0
  6
CONTINUOUS
 10
5.149760
 20
1.624480
  0
VERTEX
  8
0
  6
CONTINUOUS
 10
4.491080
 20
1.257960
  0
VERTEX
  8
0
  6
CONTINUOUS
 10
4.486680
 20
1.319120
  0
SEQEND
  8
0
  0
SOLID
  8
0
 62
    15
 10
4.491080
 20
1.257960
 11
5.149760
 21
1.624480
 12
4.488440
 22
1.205160
 13
5.147560
 23
1.571680
  0
POLYLINE
  8
0
  6
CONTINUOUS
 66
     1
 40
0.000000
 41
0.000000
  0
VERTEX
  8
0
  6
CONTINUOUS
 10
4.491080
 20
1.257960
  0
VERTEX
  8
0
  6
CONTINUOUS
 10
5.149760
 20
1.624480
  0
VERTEX
  8
0
  6
CONTINUOUS
 10
5.147560
 20
1.571680
  0
VERTEX
  8
0
  6
CONTINUOUS
 10
4.488440
 20
1.205160
  0
VERTEX
  8
0
  6
CONTINUOUS
 10
4.491080
 20
1.257960
  0
SEQEND
  8
0
  0
SOLID
  8
0
 62
    15
 10
4.488440
 20
1.205160
 11
5.147560
 21
1.571680
 12
4.478320
 22
1.159840
 13
5.137000
 23
1.526360
  0
POLYLINE
  8
0
  6
CONTINUOUS
 66
     1
 40
0.000000
 41
0.000000
  0
VERTEX
  8
0
  6
CONTINUOUS
 10
4.488440
 20
1.205160
  0
VERTEX
  8
0
  6
CONTINUOUS
 10
5.147560
 20
1.571680
  0
VERTEX
  8
0
  6
CONTINUOUS
 10
5.137000
 20
1.526360
  0
VERTEX
  8
0
  6
CONTINUOUS
 10
4.478320
 20
1.159840
  0
VERTEX
  8
0
  6
CONTINUOUS
 10
4.488440
 20
1.205160
  0
SEQEND
  8
0
  0
SOLID
  8
0
 62
    15
 10
4.478320
 20
1.159840
 11
5.137000
 21
1.526360
 12
4.459400
 22
1.122000
 13
5.118080
 23
1.488080
  0
POLYLINE
  8
0
  6
CONTINUOUS
 66
     1
 40
0.000000
 41
0.000000
  0
VERTEX
  8
0
  6
CONTINUOUS
 10
4.478320
 20
1.159840
  0
VERTEX
  8
0
  6
CONTINUOUS
 10
5.137000
 20
1.526360
  0
VERTEX
  8
0
  6
CONTINUOUS
 10
5.118080
 20
1.488080
  0
VERTEX
  8
0
  6
CONTINUOUS
 10
4.459400
 20
1.122000
  0
VERTEX
  8
0
  6
CONTINUOUS
 10
4.478320
 20
1.159840
  0
SEQEND
  8
0
  0
SOLID
  8
0
 62
    15
 10
4.338840
 20
1.048520
 11
4.997520
 21
1.415040
 12
4.338840
 22
0.931040
 13
4.997520
 23
1.297120
  0
POLYLINE
  8
0
  6
CONTINUOUS
 66
     1
 40
0.000000
 41
0.000000
  0
VERTEX
  8
0
  6
CONTINUOUS
 10
4.338840
 20
1.048520
  0
VERTEX
  8
0
  6
CONTINUOUS
 10
4.997520
 20
1.415040
  0
VERTEX
  8
0
  6
CONTINUOUS
 10
4.997520
 20
1.297120
  0
VERTEX
  8
0
  6
CONTINUOUS
 10
4.338840
 20
0.931040
  0
VERTEX
  8
0
  6
CONTINUOUS
 10
4.338840
 20
1.048520
  0
SEQEND
  8
0
  0
SOLID
  8
0
 62
    15
 10
4.430360
 20
1.090760
 11
5.089480
 21
1.457280
 12
4.390760
 22
1.066560
 13
5.049440
 23
1.433080
  0
POLYLINE
  8
0
  6
CONTINUOUS
 66
     1
 40
0.000000
 41
0.000000
  0
VERTEX
  8
0
  6
CONTINUOUS
 10
4.430360
 20
1.090760
  0
VERTEX
  8
0
  6
CONTINUOUS
 10
5.089480
 20
1.457280
  0
VERTEX
  8
0
  6
CONTINUOUS
 10
5.049440
 20
1.433080
  0
VERTEX
  8
0
  6
CONTINUOUS
 10
4.390760
 20
1.066560
  0
VERTEX
  8
0
  6
CONTINUOUS
 10
4.430360
 20
1.090760
  0
SEQEND
  8
0
  0
SOLID
  8
0
 62
    15
 10
4.459400
 20
1.122000
 11
5.118080
 21
1.488080
 12
4.430360
 22
1.090760
 13
5.089480
 23
1.457280
  0
POLYLINE
  8
0
  6
CONTINUOUS
 66
     1
 40
0.000000
 41
0.000000
  0
VERTEX
  8
0
  6
CONTINUOUS
 10
4.459400
 20
1.122000
  0
VERTEX
  8
0
  6
CONTINUOUS
 10
5.118080
 20
1.488080
  0
VERTEX
  8
0
  6
CONTINUOUS
 10
5.089480
 20
1.457280
  0
VERTEX
  8
0
  6
CONTINUOUS
 10
4.430360
 20
1.090760
  0
VERTEX
  8
0
  6
CONTINUOUS
 10
4.459400
 20
1.122000
  0
SEQEND
  8
0
  0
POLYLINE
  8
0
  6
CONTINUOUS
 66
     1
 40
0.000000
 41
0.000000
  0
VERTEX
  8
0
  6
CONTINUOUS
 10
4.337520
 20
0.931040
  0
VERTEX
  8
0
  6
CONTINUOUS
 10
3.772560
 20
0.931040
  0
VERTEX
  8
0
  6
CONTINUOUS
 10
3.772560
 20
3.070320
  0
VERTEX
  8
0
  6
CONTINUOUS
 10
3.932280
 20
3.070320
  0
VERTEX
  8
0
  6
CONTINUOUS
 10
3.936680
 20
3.021920
  0
VERTEX
  8
0
  6
CONTINUOUS
 10
3.948560
 20
2.982760
  0
VERTEX
  8
0
  6
CONTINUOUS
 10
3.966600
 20
2.952400
  0
VERTEX
  8
0
  6
CONTINUOUS
 10
3.989480
 20
2.929080
  0
VERTEX
  8
0
  6
CONTINUOUS
 10
4.016760
 20
2.911480
  0
VERTEX
  8
0
  6
CONTINUOUS
 10
4.046240
 20
2.898280
  0
VERTEX
  8
0
  6
CONTINUOUS
 10
4.110040
 20
2.882000
  0
VERTEX
  8
0
  6
CONTINUOUS
 10
4.110040
 20
2.761000
  0
VERTEX
  8
0
  6
CONTINUOUS
 10
4.145680
 20
2.753520
  0
VERTEX
  8
0
  6
CONTINUOUS
 10
4.179120
 20
2.739440
  0
VERTEX
  8
0
  6
CONTINUOUS
 10
4.210360
 20
2.720080
  0
VERTEX
  8
0
  6
CONTINUOUS
 10
4.238080
 20
2.695880
  0
VERTEX
  8
0
  6
CONTINUOUS
 10
4.261840
 20
2.668160
  0
VERTEX
  8
0
  6
CONTINUOUS
 10
4.281200
 20
2.637360
  0
VERTEX
  8
0
  6
CONTINUOUS
 10
4.294840
 20
2.604360
  0
VERTEX
  8
0
  6
CONTINUOUS
 10
4.302760
 20
2.570040
  0
VERTEX
  8
0
  6
CONTINUOUS
 10
4.303640
 20
2.535280
  0
VERTEX
  8
0
  6
CONTINUOUS
 10
4.296600
 20
2.500960
  0
VERTEX
  8
0
  6
CONTINUOUS
 10
4.282080
 20
2.467960
  0
VERTEX
  8
0
  6
CONTINUOUS
 10
4.258320
 20
2.436720
  0
VERTEX
  8
0
  6
CONTINUOUS
 10
4.224880
 20
2.408560
  0
VERTEX
  8
0
  6
CONTINUOUS
 10
4.181320
 20
2.383920
  0
VERTEX
  8
0
  6
CONTINUOUS
 10
4.126760
 20
2.363680
  0
VERTEX
  8
0
  6
CONTINUOUS
 10
4.060320
 20
2.348720
  0
VERTEX
  8
0
  6
CONTINUOUS
 10
4.068240
 20
2.306480
  0
VERTEX
  8
0
  6
CONTINUOUS
 10
4.081000
 20
2.261600
  0
VERTEX
  8
0
  6
CONTINUOUS
 10
4.097720
 20
2.215400
  0
VERTEX
  8
0
  6
CONTINUOUS
 10
4.118400
 20
2.167440
  0
VERTEX
  8
0
  6
CONTINUOUS
 10
4.169000
 20
2.069760
  0
VERTEX
  8
0
  6
CONTINUOUS
 10
4.230600
 20
1.972960
  0
VERTEX
  8
0
  6
CONTINUOUS
 10
4.298800
 20
1.881440
  0
VERTEX
  8
0
  6
CONTINUOUS
 10
4.370960
 20
1.799160
  0
VERTEX
  8
0
  6
CONTINUOUS
 10
4.407920
 20
1.762640
  0
VERTEX
  8
0
  6
CONTINUOUS
 10
4.444440
 20
1.729640
  0
VERTEX
  8
0
  6
CONTINUOUS
 10
4.480080
 20
1.701480
  0
VERTEX
  8
0
  6
CONTINUOUS
 10
4.514840
 20
1.678160
  0
VERTEX
  8
0
  6
CONTINUOUS
 10
4.490200
 20
1.632400
  0
VERTEX
  8
0
  6
CONTINUOUS
 10
4.479640
 20
1.609080
  0
VERTEX
  8
0
  6
CONTINUOUS
 10
4.470840
 20
1.582240
  0
VERTEX
  8
0
  6
CONTINUOUS
 10
4.465560
 20
1.549240
  0
VERTEX
  8
0
  6
CONTINUOUS
 10
4.463800
 20
1.507880
  0
VERTEX
  8
0
  6
CONTINUOUS
 10
4.467320
 20
1.455080
  0
VERTEX
  8
0
  6
CONTINUOUS
 10
4.486680
 20
1.319120
  0
VERTEX
  8
0
  6
CONTINUOUS
 10
4.491080
 20
1.257960
  0
VERTEX
  8
0
  6
CONTINUOUS
 10
4.488440
 20
1.205160
  0
VERTEX
  8
0
  6
CONTINUOUS
 10
4.478320
 20
1.159840
  0
VERTEX
  8
0
  6
CONTINUOUS
 10
4.459400
 20
1.122000
  0
VERTEX
  8
0
  6
CONTINUOUS
 10
4.430360
 20
1.090760
  0
VERTEX
  8
0
  6
CONTINUOUS
 10
4.390760
 20
1.066560
  0
VERTEX
  8
0
  6
CONTINUOUS
 10
4.366120
 20
1.056880
  0
VERTEX
  8
0
  6
CONTINUOUS
 10
4.338840
 20
1.048520
  0
VERTEX
  8
0
  6
CONTINUOUS
 10
4.338840
 20
0.931040
  0
VERTEX
  8
0
  6
CONTINUOUS
 10
4.337520
 20
0.931040
  0
SEQEND
  8
0
  0
TEXT
  8
0
 10
4.177800
 20
0.702680
 40
0.138145
  1
BA  456
 41
1.000000
  7
SN0
 71
     0
 72
     5
 11
4.767956
 21
0.702680
  0
TEXT
  8
0
 10
4.022040
 20
0.510840
 40
0.138145
  1
3/4" x 2-1/8"
 41
1.000000
  7
SN0
 71
     0
 72
     5
 11
4.922484
 21
0.510840
  0
POLYLINE
  8
0
  6
CONTINUOUS
 66
     1
 40
0.000000
 41
0.000000
  0
VERTEX
  8
0
  6
CONTINUOUS
 10
6.715280
 20
1.221440
  0
VERTEX
  8
0
  6
CONTINUOUS
 10
6.715280
 20
1.339360
  0
VERTEX
  8
0
  6
CONTINUOUS
 10
6.755320
 20
1.352120
  0
VERTEX
  8
0
  6
CONTINUOUS
 10
6.778200
 20
1.362680
  0
VERTEX
  8
0
  6
CONTINUOUS
 10
6.806800
 20
1.381600
  0
VERTEX
  8
0
  6
CONTINUOUS
 10
6.829240
 20
1.404040
  0
VERTEX
  8
0
  6
CONTINUOUS
 10
6.846400
 20
1.430440
  0
VERTEX
  8
0
  6
CONTINUOUS
 10
6.857840
 20
1.461240
  0
VERTEX
  8
0
  6
CONTINUOUS
 10
6.863120
 20
1.483680
  0
VERTEX
  8
0
  6
CONTINUOUS
 10
6.867080
 20
1.521520
  0
VERTEX
  8
0
  6
CONTINUOUS
 10
6.865760
 20
1.578280
  0
VERTEX
  8
0
  6
CONTINUOUS
 10
6.863120
 20
1.609960
  0
VERTEX
  8
0
  6
CONTINUOUS
 10
6.843760
 20
1.745480
  0
VERTEX
  8
0
  6
CONTINUOUS
 10
6.840680
 20
1.786400
  0
VERTEX
  8
0
  6
CONTINUOUS
 10
6.840240
 20
1.820280
  0
VERTEX
  8
0
  6
CONTINUOUS
 10
6.841560
 20
1.839640
  0
VERTEX
  8
0
  6
CONTINUOUS
 10
6.847280
 20
1.872640
  0
VERTEX
  8
0
  6
CONTINUOUS
 10
6.855640
 20
1.899480
  0
VERTEX
  8
0
  6
CONTINUOUS
 10
6.866640
 20
1.922800
  0
VERTEX
  8
0
  6
CONTINUOUS
 10
6.891280
 20
1.968560
  0
VERTEX
  8
0
  6
CONTINUOUS
 10
6.838480
 20
2.005520
  0
VERTEX
  8
0
  6
CONTINUOUS
 10
6.783920
 20
2.053040
  0
VERTEX
  8
0
  6
CONTINUOUS
 10
6.729360
 20
2.108920
  0
VERTEX
  8
0
  6
CONTINUOUS
 10
6.675240
 20
2.171840
  0
VERTEX
  8
0
  6
CONTINUOUS
 10
6.640040
 20
2.216720
  0
VERTEX
  8
0
  6
CONTINUOUS
 10
6.606600
 20
2.263360
  0
VERTEX
  8
0
  6
CONTINUOUS
 10
6.574920
 20
2.311760
  0
VERTEX
  8
0
  6
CONTINUOUS
 10
6.531800
 20
2.384800
  0
VERTEX
  8
0
  6
CONTINUOUS
 10
6.494400
 20
2.457840
  0
VERTEX
  8
0
  6
CONTINUOUS
 10
6.464920
 20
2.529120
  0
VERTEX
  8
0
  6
CONTINUOUS
 10
6.450400
 20
2.574880
  0
VERTEX
  8
0
  6
CONTINUOUS
 10
6.444240
 20
2.596880
  0
VERTEX
  8
0
  6
CONTINUOUS
 10
6.436320
 20
2.639120
  0
VERTEX
  8
0
  6
CONTINUOUS
 10
6.487360
 20
2.649680
  0
VERTEX
  8
0
  6
CONTINUOUS
 10
6.531360
 20
2.663320
  0
VERTEX
  8
0
  6
CONTINUOUS
 10
6.569200
 20
2.680040
  0
VERTEX
  8
0
  6
CONTINUOUS
 10
6.601320
 20
2.698960
  0
VERTEX
  8
0
  6
CONTINUOUS
 10
6.634760
 20
2.727120
  0
VERTEX
  8
0
  6
CONTINUOUS
 10
6.658520
 20
2.758360
  0
VERTEX
  8
0
  6
CONTINUOUS
 10
6.666880
 20
2.775080
  0
VERTEX
  8
0
  6
CONTINUOUS
 10
6.673040
 20
2.791800
  0
VERTEX
  8
0
  6
CONTINUOUS
 10
6.677440
 20
2.808960
  0
VERTEX
  8
0
  6
CONTINUOUS
 10
6.680080
 20
2.826120
  0
VERTEX
  8
0
  6
CONTINUOUS
 10
6.680520
 20
2.843280
  0
VERTEX
  8
0
  6
CONTINUOUS
 10
6.679200
 20
2.860880
  0
VERTEX
  8
0
  6
CONTINUOUS
 10
6.676120
 20
2.878040
  0
VERTEX
  8
0
  6
CONTINUOUS
 10
6.665120
 20
2.911920
  0
VERTEX
  8
0
  6
CONTINUOUS
 10
6.648840
 20
2.943600
  0
VERTEX
  8
0
  6
CONTINUOUS
 10
6.627280
 20
2.973080
  0
VERTEX
  8
0
  6
CONTINUOUS
 10
6.601320
 20
2.999040
  0
VERTEX
  8
0
  6
CONTINUOUS
 10
6.571840
 20
3.021040
  0
VERTEX
  8
0
  6
CONTINUOUS
 10
6.539280
 20
3.037760
  0
VERTEX
  8
0
  6
CONTINUOUS
 10
6.504520
 20
3.048760
  0
VERTEX
  8
0
  6
CONTINUOUS
 10
6.486480
 20
3.051840
  0
VERTEX
  8
0
  6
CONTINUOUS
 10
6.486480
 20
3.172400
  0
VERTEX
  8
0
  6
CONTINUOUS
 10
6.438520
 20
3.184280
  0
VERTEX
  8
0
  6
CONTINUOUS
 10
6.407280
 20
3.195280
  0
VERTEX
  8
0
  6
CONTINUOUS
 10
6.392760
 20
3.201880
  0
VERTEX
  8
0
  6
CONTINUOUS
 10
6.365920
 20
3.219480
  0
VERTEX
  8
0
  6
CONTINUOUS
 10
6.353600
 20
3.230480
  0
VERTEX
  8
0
  6
CONTINUOUS
 10
6.342600
 20
3.242800
  0
VERTEX
  8
0
  6
CONTINUOUS
 10
6.328960
 20
3.265240
  0
VERTEX
  8
0
  6
CONTINUOUS
 10
6.317960
 20
3.291640
  0
VERTEX
  8
0
  6
CONTINUOUS
 10
6.310920
 20
3.323320
  0
VERTEX
  8
0
  6
CONTINUOUS
 10
6.308280
 20
3.360720
  0
VERTEX
  8
0
  6
CONTINUOUS
 10
6.149000
 20
3.360720
  0
VERTEX
  8
0
  6
CONTINUOUS
 10
6.149000
 20
1.221440
  0
VERTEX
  8
0
  6
CONTINUOUS
 10
6.715280
 20
1.221440
  0
SEQEND
  8
0
  0
ENDSEC
  0
EOF
