  0
SECTION
  2
HEADER
  9
$ACADVER
  1
AC1006
  9
$EXTMIN
 10
0.819280
 20
0.840840
  9
$EXTMAX
 10
7.687680
 20
4.763000
  9
$LTSCALE
 40
0.044000
  9
$PDMODE
 70
    35
  9
$PDSIZE
 40
0.035200
  0
ENDSEC
  0
SECTION
  2
TABLES
  0
TABLE
  2
LTYPE
 70
     9
  0
LTYPE
  2
CONTINUOUS
 70
    64
  3
Solid line
 72
    65
 73
     0
 40
0.000000
  0
LTYPE
  2
DASHED
 70
    64
  3
__ __ __ __ __ __ __ __ __ __ __ __ __ __ __
 72
    65
 73
     2
 40
0.000330
 49
0.000220
 49
-0.000110
  0
LTYPE
  2
HIDDEN
 70
    64
  3
 _ _ _ _ _ _ _ _ _ _ _ _ _ _ _ _ _ _ _ _ _ _
 72
    65
 73
     2
 40
0.000165
 49
0.000110
 49
-0.000055
  0
LTYPE
  2
CENTER
 70
    64
  3
____ _ ____ _ ____ _ ____ _ ____ _ ____ _ ____
 72
    65
 73
     4
 40
0.000880
 49
0.000550
 49
-0.000110
 49
0.000110
 49
-0.000110
  0
LTYPE
  2
PHANTOM
 70
    64
  3
_____ _ _ _____ _ _ _____ _ _ _____ _ _ ____
 72
    65
 73
     6
 40
0.001100
 49
0.000550
 49
-0.000110
 49
0.000110
 49
-0.000110
 49
0.000110
 49
-0.000110
  0
LTYPE
  2
DOT
 70
    64
  3
...............................................
 72
    65
 73
     2
 40
0.000110
 49
0.000000
 49
-0.000110
  0
LTYPE
  2
DASHDOT
 70
    64
  3
__ . __ . __ . __ . __ . __ . __ . __ . __ . __
 72
    65
 73
     4
 40
0.000440
 49
0.000220
 49
-0.000110
 49
0.000000
 49
-0.000110
  0
LTYPE
  2
BORDER
 70
    64
  3
__ __ . __ __ . __ __ . __ __ . __ __ . __ __
 72
    65
 73
     6
 40
0.000770
 49
0.000220
 49
-0.000110
 49
0.000220
 49
-0.000110
 49
0.000000
 49
-0.000110
  0
LTYPE
  2
DIVIDE
 70
    64
  3
__ . . __ . . __ . . __ . . __ . . __ . . __
 72
    65
 73
     6
 40
0.000550
 49
0.000220
 49
-0.000110
 49
0.000000
 49
-0.000110
 49
0.000000
 49
-0.000110
  0
LTYPE
  2
DOTDOT
 70
    64
  3
 . .  . .  . .  . .  . .  . . 
 72
    65
 73
     5
 40
0.000242
 49
-0.000110
 49
0.000000
 49
-0.000110
 49
0.000000
 49
-0.000110
  0
ENDTAB
  0
TABLE
  2
STYLE
 70
     2
  0
STYLE
 70
     0
  2
SN0
 40
0.000000
 41
0.000440
 50
0.000000
 71
     0
 42
0.000000
  3
ROMAND
  0
STYLE
 70
    68
  2
SV0
 40
0.000000
 41
0.000440
 50
0.000000
 71
     0
 42
0.000000
  3
ROMAND
  0
ENDTAB
  0
TABLE
  2
LAYER
 70
     3
  0
LAYER
  2
FOREGROUND
 70
    64
 62
     7
  6
CONTINUOUS
  0
LAYER
  2
BACKGROUND
 70
    65
 62
    -7
  6
CONTINUOUS
  0
LAYER
  2
0
 70
    64
 62
     7
  6
CONTINUOUS
  0
ENDTAB
  0
ENDSEC
  0
SECTION
  2
ENTITIES
  0
POLYLINE
  8
FOREGROUND
  6
CONTINUOUS
 66
     1
 40
0.000000
 41
0.000000
  0
VERTEX
  8
FOREGROUND
  6
CONTINUOUS
 10
0.000000
 20
5.603840
  0
VERTEX
  8
FOREGROUND
  6
CONTINUOUS
 10
8.499920
 20
5.603840
  0
VERTEX
  8
FOREGROUND
  6
CONTINUOUS
 10
8.499920
 20
-5.396160
  0
VERTEX
  8
FOREGROUND
  6
CONTINUOUS
 10
0.000000
 20
-5.396160
  0
VERTEX
  8
FOREGROUND
  6
CONTINUOUS
 10
0.000000
 20
5.603840
  0
SEQEND
  8
0
  0
POLYLINE
  8
FOREGROUND
  6
CONTINUOUS
 66
     1
 40
0.000000
 41
0.000000
  0
VERTEX
  8
FOREGROUND
  6
CONTINUOUS
 10
0.000000
 20
5.603840
  0
VERTEX
  8
FOREGROUND
  6
CONTINUOUS
 10
8.499920
 20
5.603840
  0
VERTEX
  8
FOREGROUND
  6
CONTINUOUS
 10
8.499920
 20
-5.396160
  0
VERTEX
  8
FOREGROUND
  6
CONTINUOUS
 10
0.000000
 20
-5.396160
  0
VERTEX
  8
FOREGROUND
  6
CONTINUOUS
 10
0.000000
 20
5.603840
  0
SEQEND
  8
0
  0
POLYLINE
  8
0
  6
CONTINUOUS
 66
     1
 40
0.014080
 41
0.014080
  0
VERTEX
  8
0
  6
CONTINUOUS
 10
1.424720
 20
4.271520
  0
VERTEX
  8
0
  6
CONTINUOUS
 10
1.424720
 20
4.521880
  0
VERTEX
  8
0
  6
CONTINUOUS
 10
1.631080
 20
4.521880
  0
VERTEX
  8
0
  6
CONTINUOUS
 10
1.631080
 20
4.750240
  0
VERTEX
  8
0
  6
CONTINUOUS
 10
2.338160
 20
4.750240
  0
VERTEX
  8
0
  6
CONTINUOUS
 10
2.338160
 20
4.532440
  0
VERTEX
  8
0
  6
CONTINUOUS
 10
2.572240
 20
4.532440
  0
VERTEX
  8
0
  6
CONTINUOUS
 10
2.572240
 20
4.380200
  0
VERTEX
  8
0
  6
CONTINUOUS
 10
2.714800
 20
4.380200
  0
VERTEX
  8
0
  6
CONTINUOUS
 10
2.714800
 20
4.412760
  0
VERTEX
  8
0
  6
CONTINUOUS
 10
4.618680
 20
4.412760
  0
VERTEX
  8
0
  6
CONTINUOUS
 10
4.627480
 20
4.380200
  0
VERTEX
  8
0
  6
CONTINUOUS
 10
4.752440
 20
4.380200
  0
VERTEX
  8
0
  6
CONTINUOUS
 10
4.752440
 20
4.548720
  0
VERTEX
  8
0
  6
CONTINUOUS
 10
4.905120
 20
4.548720
  0
VERTEX
  8
0
  6
CONTINUOUS
 10
4.905120
 20
4.755520
  0
VERTEX
  8
0
  6
CONTINUOUS
 10
5.586240
 20
4.755520
  0
VERTEX
  8
0
  6
CONTINUOUS
 10
5.586240
 20
4.513520
  0
VERTEX
  8
0
  6
CONTINUOUS
 10
5.619680
 20
4.513520
  0
VERTEX
  8
0
  6
CONTINUOUS
 10
5.661040
 20
4.541240
  0
VERTEX
  8
0
  6
CONTINUOUS
 10
5.704600
 20
4.563680
  0
VERTEX
  8
0
  6
CONTINUOUS
 10
5.726600
 20
4.573360
  0
VERTEX
  8
0
  6
CONTINUOUS
 10
5.771920
 20
4.588320
  0
VERTEX
  8
0
  6
CONTINUOUS
 10
5.818120
 20
4.598440
  0
VERTEX
  8
0
  6
CONTINUOUS
 10
5.864320
 20
4.603720
  0
VERTEX
  8
0
  6
CONTINUOUS
 10
5.910960
 20
4.605040
  0
VERTEX
  8
0
  6
CONTINUOUS
 10
5.957160
 20
4.601520
  0
VERTEX
  8
0
  6
CONTINUOUS
 10
6.002040
 20
4.594040
  0
VERTEX
  8
0
  6
CONTINUOUS
 10
6.046040
 20
4.582600
  0
VERTEX
  8
0
  6
CONTINUOUS
 10
6.088280
 20
4.567200
  0
VERTEX
  8
0
  6
CONTINUOUS
 10
6.128320
 20
4.548280
  0
VERTEX
  8
0
  6
CONTINUOUS
 10
6.165720
 20
4.525400
  0
VERTEX
  8
0
  6
CONTINUOUS
 10
6.200040
 20
4.499440
  0
VERTEX
  8
0
  6
CONTINUOUS
 10
6.231280
 20
4.470400
  0
VERTEX
  8
0
  6
CONTINUOUS
 10
6.258560
 20
4.438280
  0
VERTEX
  8
0
  6
CONTINUOUS
 10
6.336440
 20
4.324320
  0
VERTEX
  8
0
  6
CONTINUOUS
 10
6.380000
 20
4.269320
  0
VERTEX
  8
0
  6
CONTINUOUS
 10
6.424880
 20
4.222680
  0
VERTEX
  8
0
  6
CONTINUOUS
 10
6.461400
 20
4.193200
  0
VERTEX
  8
0
  6
CONTINUOUS
 10
6.501000
 20
4.168560
  0
VERTEX
  8
0
  6
CONTINUOUS
 10
6.544560
 20
4.149200
  0
VERTEX
  8
0
  6
CONTINUOUS
 10
6.576240
 20
4.139080
  0
VERTEX
  8
0
  6
CONTINUOUS
 10
6.610560
 20
4.131160
  0
VERTEX
  8
0
  6
CONTINUOUS
 10
6.647520
 20
4.125440
  0
VERTEX
  8
0
  6
CONTINUOUS
 10
6.687560
 20
4.122360
  0
VERTEX
  8
0
  6
CONTINUOUS
 10
6.729800
 20
4.122360
  0
VERTEX
  8
0
  6
CONTINUOUS
 10
6.769840
 20
4.126760
  0
VERTEX
  8
0
  6
CONTINUOUS
 10
6.806800
 20
4.136000
  0
VERTEX
  8
0
  6
CONTINUOUS
 10
6.857400
 20
4.156680
  0
VERTEX
  8
0
  6
CONTINUOUS
 10
6.888200
 20
4.173840
  0
VERTEX
  8
0
  6
CONTINUOUS
 10
6.946280
 20
4.213880
  0
VERTEX
  8
0
  6
CONTINUOUS
 10
7.027680
 20
4.275480
  0
VERTEX
  8
0
  6
CONTINUOUS
 10
7.069040
 20
4.301880
  0
VERTEX
  8
0
  6
CONTINUOUS
 10
7.097640
 20
4.315960
  0
VERTEX
  8
0
  6
CONTINUOUS
 10
7.128000
 20
4.326520
  0
VERTEX
  8
0
  6
CONTINUOUS
 10
7.143840
 20
4.330480
  0
VERTEX
  8
0
  6
CONTINUOUS
 10
7.176840
 20
4.334000
  0
VERTEX
  8
0
  6
CONTINUOUS
 10
7.212040
 20
4.332680
  0
VERTEX
  8
0
  6
CONTINUOUS
 10
7.262200
 20
4.324760
  0
VERTEX
  8
0
  6
CONTINUOUS
 10
7.302680
 20
4.313760
  0
VERTEX
  8
0
  6
CONTINUOUS
 10
7.325120
 20
4.304520
  0
VERTEX
  8
0
  6
CONTINUOUS
 10
7.352400
 20
4.287800
  0
VERTEX
  8
0
  6
CONTINUOUS
 10
7.366480
 20
4.274160
  0
VERTEX
  8
0
  6
CONTINUOUS
 10
7.382760
 20
4.250400
  0
VERTEX
  8
0
  6
CONTINUOUS
 10
7.393320
 20
4.221800
  0
VERTEX
  8
0
  6
CONTINUOUS
 10
7.398600
 20
4.199800
  0
VERTEX
  8
0
  6
CONTINUOUS
 10
7.403880
 20
4.148320
  0
VERTEX
  8
0
  6
CONTINUOUS
 10
7.405200
 20
4.103000
  0
VERTEX
  8
0
  6
CONTINUOUS
 10
7.405200
 20
4.032160
  0
VERTEX
  8
0
  6
CONTINUOUS
 10
7.607600
 20
4.032160
  0
VERTEX
  8
0
  6
CONTINUOUS
 10
7.680200
 20
3.931840
  0
VERTEX
  8
0
  6
CONTINUOUS
 10
7.680200
 20
3.758480
  0
VERTEX
  8
0
  6
CONTINUOUS
 10
0.903760
 20
3.758480
  0
VERTEX
  8
0
  6
CONTINUOUS
 10
0.901120
 20
3.787080
  0
VERTEX
  8
0
  6
CONTINUOUS
 10
0.900680
 20
3.842960
  0
VERTEX
  8
0
  6
CONTINUOUS
 10
0.902440
 20
3.869800
  0
VERTEX
  8
0
  6
CONTINUOUS
 10
0.910360
 20
3.922160
  0
VERTEX
  8
0
  6
CONTINUOUS
 10
0.924000
 20
3.972320
  0
VERTEX
  8
0
  6
CONTINUOUS
 10
0.943360
 20
4.018960
  0
VERTEX
  8
0
  6
CONTINUOUS
 10
0.954360
 20
4.041400
  0
VERTEX
  8
0
  6
CONTINUOUS
 10
0.980760
 20
4.083640
  0
VERTEX
  8
0
  6
CONTINUOUS
 10
1.012000
 20
4.122360
  0
VERTEX
  8
0
  6
CONTINUOUS
 10
1.047200
 20
4.157560
  0
VERTEX
  8
0
  6
CONTINUOUS
 10
1.086800
 20
4.188360
  0
VERTEX
  8
0
  6
CONTINUOUS
 10
1.129920
 20
4.215200
  0
VERTEX
  8
0
  6
CONTINUOUS
 10
1.177000
 20
4.237200
  0
VERTEX
  8
0
  6
CONTINUOUS
 10
1.227160
 20
4.254360
  0
VERTEX
  8
0
  6
CONTINUOUS
 10
1.253120
 20
4.260960
  0
VERTEX
  8
0
  6
CONTINUOUS
 10
1.307680
 20
4.270200
  0
VERTEX
  8
0
  6
CONTINUOUS
 10
1.365320
 20
4.273720
  0
VERTEX
  8
0
  6
CONTINUOUS
 10
1.424720
 20
4.271520
  0
SEQEND
  8
0
  0
SOLID
  8
0
 62
    15
 10
6.640040
 20
1.712040
 11
6.628600
 21
2.453880
 12
6.681400
 22
1.714240
 13
6.670400
 23
2.456080
  0
POLYLINE
  8
0
  6
CONTINUOUS
 66
     1
 40
0.000000
 41
0.000000
  0
VERTEX
  8
0
  6
CONTINUOUS
 10
6.640040
 20
1.712040
  0
VERTEX
  8
0
  6
CONTINUOUS
 10
6.628600
 20
2.453880
  0
VERTEX
  8
0
  6
CONTINUOUS
 10
6.670400
 20
2.456080
  0
VERTEX
  8
0
  6
CONTINUOUS
 10
6.681400
 20
1.714240
  0
VERTEX
  8
0
  6
CONTINUOUS
 10
6.640040
 20
1.712040
  0
SEQEND
  8
0
  0
SOLID
  8
0
 62
    15
 10
1.295800
 20
1.864280
 11
1.284800
 21
2.605680
 12
1.355640
 22
1.862080
 13
1.344640
 23
2.603480
  0
POLYLINE
  8
0
  6
CONTINUOUS
 66
     1
 40
0.000000
 41
0.000000
  0
VERTEX
  8
0
  6
CONTINUOUS
 10
1.295800
 20
1.864280
  0
VERTEX
  8
0
  6
CONTINUOUS
 10
1.284800
 20
2.605680
  0
VERTEX
  8
0
  6
CONTINUOUS
 10
1.344640
 20
2.603480
  0
VERTEX
  8
0
  6
CONTINUOUS
 10
1.355640
 20
1.862080
  0
VERTEX
  8
0
  6
CONTINUOUS
 10
1.295800
 20
1.864280
  0
SEQEND
  8
0
  0
SOLID
  8
0
 62
    15
 10
1.355640
 20
1.862080
 11
1.344640
 21
2.603480
 12
1.355640
 22
2.112000
 13
1.344640
 23
2.853840
  0
POLYLINE
  8
0
  6
CONTINUOUS
 66
     1
 40
0.000000
 41
0.000000
  0
VERTEX
  8
0
  6
CONTINUOUS
 10
1.355640
 20
1.862080
  0
VERTEX
  8
0
  6
CONTINUOUS
 10
1.344640
 20
2.603480
  0
VERTEX
  8
0
  6
CONTINUOUS
 10
1.344640
 20
2.853840
  0
VERTEX
  8
0
  6
CONTINUOUS
 10
1.355640
 20
2.112000
  0
VERTEX
  8
0
  6
CONTINUOUS
 10
1.355640
 20
1.862080
  0
SEQEND
  8
0
  0
SOLID
  8
0
 62
    15
 10
2.503160
 20
1.970760
 11
2.492160
 21
2.712160
 12
2.646160
 22
1.970760
 13
2.634720
 23
2.712160
  0
POLYLINE
  8
0
  6
CONTINUOUS
 66
     1
 40
0.000000
 41
0.000000
  0
VERTEX
  8
0
  6
CONTINUOUS
 10
2.503160
 20
1.970760
  0
VERTEX
  8
0
  6
CONTINUOUS
 10
2.492160
 20
2.712160
  0
VERTEX
  8
0
  6
CONTINUOUS
 10
2.634720
 20
2.712160
  0
VERTEX
  8
0
  6
CONTINUOUS
 10
2.646160
 20
1.970760
  0
VERTEX
  8
0
  6
CONTINUOUS
 10
2.503160
 20
1.970760
  0
SEQEND
  8
0
  0
SOLID
  8
0
 62
    15
 10
2.269080
 20
2.123000
 11
2.258080
 21
2.864840
 12
2.503160
 22
2.123000
 13
2.492160
 23
2.864840
  0
POLYLINE
  8
0
  6
CONTINUOUS
 66
     1
 40
0.000000
 41
0.000000
  0
VERTEX
  8
0
  6
CONTINUOUS
 10
2.269080
 20
2.123000
  0
VERTEX
  8
0
  6
CONTINUOUS
 10
2.258080
 20
2.864840
  0
VERTEX
  8
0
  6
CONTINUOUS
 10
2.492160
 20
2.864840
  0
VERTEX
  8
0
  6
CONTINUOUS
 10
2.503160
 20
2.123000
  0
VERTEX
  8
0
  6
CONTINUOUS
 10
2.269080
 20
2.123000
  0
SEQEND
  8
0
  0
SOLID
  8
0
 62
    15
 10
1.355640
 20
2.112000
 11
1.344640
 21
2.853840
 12
1.562000
 22
2.112000
 13
1.551000
 23
2.853840
  0
POLYLINE
  8
0
  6
CONTINUOUS
 66
     1
 40
0.000000
 41
0.000000
  0
VERTEX
  8
0
  6
CONTINUOUS
 10
1.355640
 20
2.112000
  0
VERTEX
  8
0
  6
CONTINUOUS
 10
1.344640
 20
2.853840
  0
VERTEX
  8
0
  6
CONTINUOUS
 10
1.551000
 20
2.853840
  0
VERTEX
  8
0
  6
CONTINUOUS
 10
1.562000
 20
2.112000
  0
VERTEX
  8
0
  6
CONTINUOUS
 10
1.355640
 20
2.112000
  0
SEQEND
  8
0
  0
SOLID
  8
0
 62
    15
 10
2.646160
 20
1.970760
 11
2.634720
 21
2.712160
 12
2.646160
 22
2.003320
 13
2.634720
 23
2.745160
  0
POLYLINE
  8
0
  6
CONTINUOUS
 66
     1
 40
0.000000
 41
0.000000
  0
VERTEX
  8
0
  6
CONTINUOUS
 10
2.646160
 20
1.970760
  0
VERTEX
  8
0
  6
CONTINUOUS
 10
2.634720
 20
2.712160
  0
VERTEX
  8
0
  6
CONTINUOUS
 10
2.634720
 20
2.745160
  0
VERTEX
  8
0
  6
CONTINUOUS
 10
2.646160
 20
2.003320
  0
VERTEX
  8
0
  6
CONTINUOUS
 10
2.646160
 20
1.970760
  0
SEQEND
  8
0
  0
SOLID
  8
0
 62
    15
 10
2.646160
 20
2.003320
 11
2.634720
 21
2.745160
 12
4.549600
 22
2.003320
 13
4.538600
 23
2.745160
  0
POLYLINE
  8
0
  6
CONTINUOUS
 66
     1
 40
0.000000
 41
0.000000
  0
VERTEX
  8
0
  6
CONTINUOUS
 10
2.646160
 20
2.003320
  0
VERTEX
  8
0
  6
CONTINUOUS
 10
2.634720
 20
2.745160
  0
VERTEX
  8
0
  6
CONTINUOUS
 10
4.538600
 20
2.745160
  0
VERTEX
  8
0
  6
CONTINUOUS
 10
4.549600
 20
2.003320
  0
VERTEX
  8
0
  6
CONTINUOUS
 10
2.646160
 20
2.003320
  0
SEQEND
  8
0
  0
SOLID
  8
0
 62
    15
 10
4.549600
 20
2.003320
 11
4.538600
 21
2.745160
 12
4.558400
 22
1.970760
 13
4.547400
 23
2.712160
  0
POLYLINE
  8
0
  6
CONTINUOUS
 66
     1
 40
0.000000
 41
0.000000
  0
VERTEX
  8
0
  6
CONTINUOUS
 10
4.549600
 20
2.003320
  0
VERTEX
  8
0
  6
CONTINUOUS
 10
4.538600
 20
2.745160
  0
VERTEX
  8
0
  6
CONTINUOUS
 10
4.547400
 20
2.712160
  0
VERTEX
  8
0
  6
CONTINUOUS
 10
4.558400
 20
1.970760
  0
VERTEX
  8
0
  6
CONTINUOUS
 10
4.549600
 20
2.003320
  0
SEQEND
  8
0
  0
SOLID
  8
0
 62
    15
 10
4.558400
 20
1.970760
 11
4.547400
 21
2.712160
 12
4.683360
 22
1.970760
 13
4.672360
 23
2.712160
  0
POLYLINE
  8
0
  6
CONTINUOUS
 66
     1
 40
0.000000
 41
0.000000
  0
VERTEX
  8
0
  6
CONTINUOUS
 10
4.558400
 20
1.970760
  0
VERTEX
  8
0
  6
CONTINUOUS
 10
4.547400
 20
2.712160
  0
VERTEX
  8
0
  6
CONTINUOUS
 10
4.672360
 20
2.712160
  0
VERTEX
  8
0
  6
CONTINUOUS
 10
4.683360
 20
1.970760
  0
VERTEX
  8
0
  6
CONTINUOUS
 10
4.558400
 20
1.970760
  0
SEQEND
  8
0
  0
SOLID
  8
0
 62
    15
 10
4.683360
 20
1.970760
 11
4.672360
 21
2.712160
 12
4.683360
 22
2.139280
 13
4.672360
 23
2.881120
  0
POLYLINE
  8
0
  6
CONTINUOUS
 66
     1
 40
0.000000
 41
0.000000
  0
VERTEX
  8
0
  6
CONTINUOUS
 10
4.683360
 20
1.970760
  0
VERTEX
  8
0
  6
CONTINUOUS
 10
4.672360
 20
2.712160
  0
VERTEX
  8
0
  6
CONTINUOUS
 10
4.672360
 20
2.881120
  0
VERTEX
  8
0
  6
CONTINUOUS
 10
4.683360
 20
2.139280
  0
VERTEX
  8
0
  6
CONTINUOUS
 10
4.683360
 20
1.970760
  0
SEQEND
  8
0
  0
SOLID
  8
0
 62
    15
 10
4.683360
 20
2.139280
 11
4.672360
 21
2.881120
 12
4.836040
 22
2.139280
 13
4.825040
 23
2.881120
  0
POLYLINE
  8
0
  6
CONTINUOUS
 66
     1
 40
0.000000
 41
0.000000
  0
VERTEX
  8
0
  6
CONTINUOUS
 10
4.683360
 20
2.139280
  0
VERTEX
  8
0
  6
CONTINUOUS
 10
4.672360
 20
2.881120
  0
VERTEX
  8
0
  6
CONTINUOUS
 10
4.825040
 20
2.881120
  0
VERTEX
  8
0
  6
CONTINUOUS
 10
4.836040
 20
2.139280
  0
VERTEX
  8
0
  6
CONTINUOUS
 10
4.683360
 20
2.139280
  0
SEQEND
  8
0
  0
SOLID
  8
0
 62
    15
 10
4.836040
 20
2.139280
 11
4.825040
 21
2.881120
 12
4.836040
 22
2.346080
 13
4.825040
 23
3.087480
  0
POLYLINE
  8
0
  6
CONTINUOUS
 66
     1
 40
0.000000
 41
0.000000
  0
VERTEX
  8
0
  6
CONTINUOUS
 10
4.836040
 20
2.139280
  0
VERTEX
  8
0
  6
CONTINUOUS
 10
4.825040
 20
2.881120
  0
VERTEX
  8
0
  6
CONTINUOUS
 10
4.825040
 20
3.087480
  0
VERTEX
  8
0
  6
CONTINUOUS
 10
4.836040
 20
2.346080
  0
VERTEX
  8
0
  6
CONTINUOUS
 10
4.836040
 20
2.139280
  0
SEQEND
  8
0
  0
SOLID
  8
0
 62
    15
 10
5.517160
 20
2.104080
 11
5.506160
 21
2.845480
 12
5.550600
 22
2.104080
 13
5.539600
 23
2.845480
  0
POLYLINE
  8
0
  6
CONTINUOUS
 66
     1
 40
0.000000
 41
0.000000
  0
VERTEX
  8
0
  6
CONTINUOUS
 10
5.517160
 20
2.104080
  0
VERTEX
  8
0
  6
CONTINUOUS
 10
5.506160
 20
2.845480
  0
VERTEX
  8
0
  6
CONTINUOUS
 10
5.539600
 20
2.845480
  0
VERTEX
  8
0
  6
CONTINUOUS
 10
5.550600
 20
2.104080
  0
VERTEX
  8
0
  6
CONTINUOUS
 10
5.517160
 20
2.104080
  0
SEQEND
  8
0
  0
SOLID
  8
0
 62
    15
 10
4.836040
 20
2.346080
 11
4.825040
 21
3.087480
 12
5.517160
 22
2.346080
 13
5.506160
 23
3.087480
  0
POLYLINE
  8
0
  6
CONTINUOUS
 66
     1
 40
0.000000
 41
0.000000
  0
VERTEX
  8
0
  6
CONTINUOUS
 10
4.836040
 20
2.346080
  0
VERTEX
  8
0
  6
CONTINUOUS
 10
4.825040
 20
3.087480
  0
VERTEX
  8
0
  6
CONTINUOUS
 10
5.506160
 20
3.087480
  0
VERTEX
  8
0
  6
CONTINUOUS
 10
5.517160
 20
2.346080
  0
VERTEX
  8
0
  6
CONTINUOUS
 10
4.836040
 20
2.346080
  0
SEQEND
  8
0
  0
SOLID
  8
0
 62
    15
 10
5.550600
 20
2.104080
 11
5.539600
 21
2.845480
 12
5.591960
 22
2.131800
 13
5.580960
 23
2.873640
  0
POLYLINE
  8
0
  6
CONTINUOUS
 66
     1
 40
0.000000
 41
0.000000
  0
VERTEX
  8
0
  6
CONTINUOUS
 10
5.550600
 20
2.104080
  0
VERTEX
  8
0
  6
CONTINUOUS
 10
5.539600
 20
2.845480
  0
VERTEX
  8
0
  6
CONTINUOUS
 10
5.580960
 20
2.873640
  0
VERTEX
  8
0
  6
CONTINUOUS
 10
5.591960
 20
2.131800
  0
VERTEX
  8
0
  6
CONTINUOUS
 10
5.550600
 20
2.104080
  0
SEQEND
  8
0
  0
SOLID
  8
0
 62
    15
 10
5.591960
 20
2.131800
 11
5.580960
 21
2.873640
 12
5.635080
 22
2.154680
 13
5.624080
 23
2.896080
  0
POLYLINE
  8
0
  6
CONTINUOUS
 66
     1
 40
0.000000
 41
0.000000
  0
VERTEX
  8
0
  6
CONTINUOUS
 10
5.591960
 20
2.131800
  0
VERTEX
  8
0
  6
CONTINUOUS
 10
5.580960
 20
2.873640
  0
VERTEX
  8
0
  6
CONTINUOUS
 10
5.624080
 20
2.896080
  0
VERTEX
  8
0
  6
CONTINUOUS
 10
5.635080
 20
2.154680
  0
VERTEX
  8
0
  6
CONTINUOUS
 10
5.591960
 20
2.131800
  0
SEQEND
  8
0
  0
SOLID
  8
0
 62
    15
 10
5.635080
 20
2.154680
 11
5.624080
 21
2.896080
 12
5.679960
 22
2.171840
 13
5.668960
 23
2.913680
  0
POLYLINE
  8
0
  6
CONTINUOUS
 66
     1
 40
0.000000
 41
0.000000
  0
VERTEX
  8
0
  6
CONTINUOUS
 10
5.635080
 20
2.154680
  0
VERTEX
  8
0
  6
CONTINUOUS
 10
5.624080
 20
2.896080
  0
VERTEX
  8
0
  6
CONTINUOUS
 10
5.668960
 20
2.913680
  0
VERTEX
  8
0
  6
CONTINUOUS
 10
5.679960
 20
2.171840
  0
VERTEX
  8
0
  6
CONTINUOUS
 10
5.635080
 20
2.154680
  0
SEQEND
  8
0
  0
SOLID
  8
0
 62
    15
 10
5.679960
 20
2.171840
 11
5.668960
 21
2.913680
 12
5.725720
 22
2.184600
 13
5.714720
 23
2.926000
  0
POLYLINE
  8
0
  6
CONTINUOUS
 66
     1
 40
0.000000
 41
0.000000
  0
VERTEX
  8
0
  6
CONTINUOUS
 10
5.679960
 20
2.171840
  0
VERTEX
  8
0
  6
CONTINUOUS
 10
5.668960
 20
2.913680
  0
VERTEX
  8
0
  6
CONTINUOUS
 10
5.714720
 20
2.926000
  0
VERTEX
  8
0
  6
CONTINUOUS
 10
5.725720
 20
2.184600
  0
VERTEX
  8
0
  6
CONTINUOUS
 10
5.679960
 20
2.171840
  0
SEQEND
  8
0
  0
SOLID
  8
0
 62
    15
 10
5.725720
 20
2.184600
 11
5.714720
 21
2.926000
 12
5.818560
 22
2.195600
 13
5.807560
 23
2.937000
  0
POLYLINE
  8
0
  6
CONTINUOUS
 66
     1
 40
0.000000
 41
0.000000
  0
VERTEX
  8
0
  6
CONTINUOUS
 10
5.725720
 20
2.184600
  0
VERTEX
  8
0
  6
CONTINUOUS
 10
5.714720
 20
2.926000
  0
VERTEX
  8
0
  6
CONTINUOUS
 10
5.807560
 20
2.937000
  0
VERTEX
  8
0
  6
CONTINUOUS
 10
5.818560
 20
2.195600
  0
VERTEX
  8
0
  6
CONTINUOUS
 10
5.725720
 20
2.184600
  0
SEQEND
  8
0
  0
SOLID
  8
0
 62
    15
 10
5.818560
 20
2.195600
 11
5.807560
 21
2.937000
 12
5.910520
 22
2.189000
 13
5.899520
 23
2.930400
  0
POLYLINE
  8
0
  6
CONTINUOUS
 66
     1
 40
0.000000
 41
0.000000
  0
VERTEX
  8
0
  6
CONTINUOUS
 10
5.818560
 20
2.195600
  0
VERTEX
  8
0
  6
CONTINUOUS
 10
5.807560
 20
2.937000
  0
VERTEX
  8
0
  6
CONTINUOUS
 10
5.899520
 20
2.930400
  0
VERTEX
  8
0
  6
CONTINUOUS
 10
5.910520
 20
2.189000
  0
VERTEX
  8
0
  6
CONTINUOUS
 10
5.818560
 20
2.195600
  0
SEQEND
  8
0
  0
SOLID
  8
0
 62
    15
 10
5.910520
 20
2.189000
 11
5.899520
 21
2.930400
 12
5.998080
 22
2.165680
 13
5.987080
 23
2.907520
  0
POLYLINE
  8
0
  6
CONTINUOUS
 66
     1
 40
0.000000
 41
0.000000
  0
VERTEX
  8
0
  6
CONTINUOUS
 10
5.910520
 20
2.189000
  0
VERTEX
  8
0
  6
CONTINUOUS
 10
5.899520
 20
2.930400
  0
VERTEX
  8
0
  6
CONTINUOUS
 10
5.987080
 20
2.907520
  0
VERTEX
  8
0
  6
CONTINUOUS
 10
5.998080
 20
2.165680
  0
VERTEX
  8
0
  6
CONTINUOUS
 10
5.910520
 20
2.189000
  0
SEQEND
  8
0
  0
SOLID
  8
0
 62
    15
 10
5.998080
 20
2.165680
 11
5.987080
 21
2.907520
 12
6.078160
 22
2.127840
 13
6.067160
 23
2.869240
  0
POLYLINE
  8
0
  6
CONTINUOUS
 66
     1
 40
0.000000
 41
0.000000
  0
VERTEX
  8
0
  6
CONTINUOUS
 10
5.998080
 20
2.165680
  0
VERTEX
  8
0
  6
CONTINUOUS
 10
5.987080
 20
2.907520
  0
VERTEX
  8
0
  6
CONTINUOUS
 10
6.067160
 20
2.869240
  0
VERTEX
  8
0
  6
CONTINUOUS
 10
6.078160
 20
2.127840
  0
VERTEX
  8
0
  6
CONTINUOUS
 10
5.998080
 20
2.165680
  0
SEQEND
  8
0
  0
SOLID
  8
0
 62
    15
 10
6.078160
 20
2.127840
 11
6.067160
 21
2.869240
 12
6.146800
 22
2.075920
 13
6.135800
 23
2.817320
  0
POLYLINE
  8
0
  6
CONTINUOUS
 66
     1
 40
0.000000
 41
0.000000
  0
VERTEX
  8
0
  6
CONTINUOUS
 10
6.078160
 20
2.127840
  0
VERTEX
  8
0
  6
CONTINUOUS
 10
6.067160
 20
2.869240
  0
VERTEX
  8
0
  6
CONTINUOUS
 10
6.135800
 20
2.817320
  0
VERTEX
  8
0
  6
CONTINUOUS
 10
6.146800
 20
2.075920
  0
VERTEX
  8
0
  6
CONTINUOUS
 10
6.078160
 20
2.127840
  0
SEQEND
  8
0
  0
SOLID
  8
0
 62
    15
 10
6.146800
 20
2.075920
 11
6.135800
 21
2.817320
 12
6.175840
 22
2.045120
 13
6.164840
 23
2.786520
  0
POLYLINE
  8
0
  6
CONTINUOUS
 66
     1
 40
0.000000
 41
0.000000
  0
VERTEX
  8
0
  6
CONTINUOUS
 10
6.146800
 20
2.075920
  0
VERTEX
  8
0
  6
CONTINUOUS
 10
6.135800
 20
2.817320
  0
VERTEX
  8
0
  6
CONTINUOUS
 10
6.164840
 20
2.786520
  0
VERTEX
  8
0
  6
CONTINUOUS
 10
6.175840
 20
2.045120
  0
VERTEX
  8
0
  6
CONTINUOUS
 10
6.146800
 20
2.075920
  0
SEQEND
  8
0
  0
SOLID
  8
0
 62
    15
 10
6.175840
 20
2.045120
 11
6.164840
 21
2.786520
 12
6.201360
 22
2.011240
 13
6.190360
 23
2.753080
  0
POLYLINE
  8
0
  6
CONTINUOUS
 66
     1
 40
0.000000
 41
0.000000
  0
VERTEX
  8
0
  6
CONTINUOUS
 10
6.175840
 20
2.045120
  0
VERTEX
  8
0
  6
CONTINUOUS
 10
6.164840
 20
2.786520
  0
VERTEX
  8
0
  6
CONTINUOUS
 10
6.190360
 20
2.753080
  0
VERTEX
  8
0
  6
CONTINUOUS
 10
6.201360
 20
2.011240
  0
VERTEX
  8
0
  6
CONTINUOUS
 10
6.175840
 20
2.045120
  0
SEQEND
  8
0
  0
SOLID
  8
0
 62
    15
 10
6.201360
 20
2.011240
 11
6.190360
 21
2.753080
 12
6.245800
 22
1.945240
 13
6.234800
 23
2.686640
  0
POLYLINE
  8
0
  6
CONTINUOUS
 66
     1
 40
0.000000
 41
0.000000
  0
VERTEX
  8
0
  6
CONTINUOUS
 10
6.201360
 20
2.011240
  0
VERTEX
  8
0
  6
CONTINUOUS
 10
6.190360
 20
2.753080
  0
VERTEX
  8
0
  6
CONTINUOUS
 10
6.234800
 20
2.686640
  0
VERTEX
  8
0
  6
CONTINUOUS
 10
6.245800
 20
1.945240
  0
VERTEX
  8
0
  6
CONTINUOUS
 10
6.201360
 20
2.011240
  0
SEQEND
  8
0
  0
SOLID
  8
0
 62
    15
 10
6.245800
 20
1.945240
 11
6.234800
 21
2.686640
 12
6.288920
 22
1.886280
 13
6.277920
 23
2.627680
  0
POLYLINE
  8
0
  6
CONTINUOUS
 66
     1
 40
0.000000
 41
0.000000
  0
VERTEX
  8
0
  6
CONTINUOUS
 10
6.245800
 20
1.945240
  0
VERTEX
  8
0
  6
CONTINUOUS
 10
6.234800
 20
2.686640
  0
VERTEX
  8
0
  6
CONTINUOUS
 10
6.277920
 20
2.627680
  0
VERTEX
  8
0
  6
CONTINUOUS
 10
6.288920
 20
1.886280
  0
VERTEX
  8
0
  6
CONTINUOUS
 10
6.245800
 20
1.945240
  0
SEQEND
  8
0
  0
SOLID
  8
0
 62
    15
 10
6.288920
 20
1.886280
 11
6.277920
 21
2.627680
 12
6.332920
 22
1.835680
 13
6.321920
 23
2.577080
  0
POLYLINE
  8
0
  6
CONTINUOUS
 66
     1
 40
0.000000
 41
0.000000
  0
VERTEX
  8
0
  6
CONTINUOUS
 10
6.288920
 20
1.886280
  0
VERTEX
  8
0
  6
CONTINUOUS
 10
6.277920
 20
2.627680
  0
VERTEX
  8
0
  6
CONTINUOUS
 10
6.321920
 20
2.577080
  0
VERTEX
  8
0
  6
CONTINUOUS
 10
6.332920
 20
1.835680
  0
VERTEX
  8
0
  6
CONTINUOUS
 10
6.288920
 20
1.886280
  0
SEQEND
  8
0
  0
SOLID
  8
0
 62
    15
 10
6.332920
 20
1.835680
 11
6.321920
 21
2.577080
 12
6.380000
 22
1.793000
 13
6.369000
 23
2.534400
  0
POLYLINE
  8
0
  6
CONTINUOUS
 66
     1
 40
0.000000
 41
0.000000
  0
VERTEX
  8
0
  6
CONTINUOUS
 10
6.332920
 20
1.835680
  0
VERTEX
  8
0
  6
CONTINUOUS
 10
6.321920
 20
2.577080
  0
VERTEX
  8
0
  6
CONTINUOUS
 10
6.369000
 20
2.534400
  0
VERTEX
  8
0
  6
CONTINUOUS
 10
6.380000
 20
1.793000
  0
VERTEX
  8
0
  6
CONTINUOUS
 10
6.332920
 20
1.835680
  0
SEQEND
  8
0
  0
SOLID
  8
0
 62
    15
 10
6.380000
 20
1.793000
 11
6.369000
 21
2.534400
 12
6.431920
 22
1.759120
 13
6.420920
 23
2.500520
  0
POLYLINE
  8
0
  6
CONTINUOUS
 66
     1
 40
0.000000
 41
0.000000
  0
VERTEX
  8
0
  6
CONTINUOUS
 10
6.380000
 20
1.793000
  0
VERTEX
  8
0
  6
CONTINUOUS
 10
6.369000
 20
2.534400
  0
VERTEX
  8
0
  6
CONTINUOUS
 10
6.420920
 20
2.500520
  0
VERTEX
  8
0
  6
CONTINUOUS
 10
6.431920
 20
1.759120
  0
VERTEX
  8
0
  6
CONTINUOUS
 10
6.380000
 20
1.793000
  0
SEQEND
  8
0
  0
SOLID
  8
0
 62
    15
 10
6.431920
 20
1.759120
 11
6.420920
 21
2.500520
 12
6.491320
 22
1.734040
 13
6.479880
 23
2.475880
  0
POLYLINE
  8
0
  6
CONTINUOUS
 66
     1
 40
0.000000
 41
0.000000
  0
VERTEX
  8
0
  6
CONTINUOUS
 10
6.431920
 20
1.759120
  0
VERTEX
  8
0
  6
CONTINUOUS
 10
6.420920
 20
2.500520
  0
VERTEX
  8
0
  6
CONTINUOUS
 10
6.479880
 20
2.475880
  0
VERTEX
  8
0
  6
CONTINUOUS
 10
6.491320
 20
1.734040
  0
VERTEX
  8
0
  6
CONTINUOUS
 10
6.431920
 20
1.759120
  0
SEQEND
  8
0
  0
SOLID
  8
0
 62
    15
 10
6.491320
 20
1.734040
 11
6.479880
 21
2.475880
 12
6.559520
 22
1.718640
 13
6.548520
 23
2.460040
  0
POLYLINE
  8
0
  6
CONTINUOUS
 66
     1
 40
0.000000
 41
0.000000
  0
VERTEX
  8
0
  6
CONTINUOUS
 10
6.491320
 20
1.734040
  0
VERTEX
  8
0
  6
CONTINUOUS
 10
6.479880
 20
2.475880
  0
VERTEX
  8
0
  6
CONTINUOUS
 10
6.548520
 20
2.460040
  0
VERTEX
  8
0
  6
CONTINUOUS
 10
6.559520
 20
1.718640
  0
VERTEX
  8
0
  6
CONTINUOUS
 10
6.491320
 20
1.734040
  0
SEQEND
  8
0
  0
SOLID
  8
0
 62
    15
 10
6.559520
 20
1.718640
 11
6.548520
 21
2.460040
 12
6.640040
 22
1.712040
 13
6.628600
 23
2.453880
  0
POLYLINE
  8
0
  6
CONTINUOUS
 66
     1
 40
0.000000
 41
0.000000
  0
VERTEX
  8
0
  6
CONTINUOUS
 10
6.559520
 20
1.718640
  0
VERTEX
  8
0
  6
CONTINUOUS
 10
6.548520
 20
2.460040
  0
VERTEX
  8
0
  6
CONTINUOUS
 10
6.628600
 20
2.453880
  0
VERTEX
  8
0
  6
CONTINUOUS
 10
6.640040
 20
1.712040
  0
VERTEX
  8
0
  6
CONTINUOUS
 10
6.559520
 20
1.718640
  0
SEQEND
  8
0
  0
SOLID
  8
0
 62
    15
 10
1.562000
 20
2.112000
 11
1.551000
 21
2.853840
 12
1.562000
 22
2.340800
 13
1.551000
 23
3.082200
  0
POLYLINE
  8
0
  6
CONTINUOUS
 66
     1
 40
0.000000
 41
0.000000
  0
VERTEX
  8
0
  6
CONTINUOUS
 10
1.562000
 20
2.112000
  0
VERTEX
  8
0
  6
CONTINUOUS
 10
1.551000
 20
2.853840
  0
VERTEX
  8
0
  6
CONTINUOUS
 10
1.551000
 20
3.082200
  0
VERTEX
  8
0
  6
CONTINUOUS
 10
1.562000
 20
2.340800
  0
VERTEX
  8
0
  6
CONTINUOUS
 10
1.562000
 20
2.112000
  0
SEQEND
  8
0
  0
SOLID
  8
0
 62
    15
 10
6.681400
 20
1.714240
 11
6.670400
 21
2.456080
 12
6.719680
 22
1.721280
 13
6.708680
 23
2.462680
  0
POLYLINE
  8
0
  6
CONTINUOUS
 66
     1
 40
0.000000
 41
0.000000
  0
VERTEX
  8
0
  6
CONTINUOUS
 10
6.681400
 20
1.714240
  0
VERTEX
  8
0
  6
CONTINUOUS
 10
6.670400
 20
2.456080
  0
VERTEX
  8
0
  6
CONTINUOUS
 10
6.708680
 20
2.462680
  0
VERTEX
  8
0
  6
CONTINUOUS
 10
6.719680
 20
1.721280
  0
VERTEX
  8
0
  6
CONTINUOUS
 10
6.681400
 20
1.714240
  0
SEQEND
  8
0
  0
SOLID
  8
0
 62
    15
 10
6.719680
 20
1.721280
 11
6.708680
 21
2.462680
 12
6.788320
 22
1.747240
 13
6.777320
 23
2.488640
  0
POLYLINE
  8
0
  6
CONTINUOUS
 66
     1
 40
0.000000
 41
0.000000
  0
VERTEX
  8
0
  6
CONTINUOUS
 10
6.719680
 20
1.721280
  0
VERTEX
  8
0
  6
CONTINUOUS
 10
6.708680
 20
2.462680
  0
VERTEX
  8
0
  6
CONTINUOUS
 10
6.777320
 20
2.488640
  0
VERTEX
  8
0
  6
CONTINUOUS
 10
6.788320
 20
1.747240
  0
VERTEX
  8
0
  6
CONTINUOUS
 10
6.719680
 20
1.721280
  0
SEQEND
  8
0
  0
SOLID
  8
0
 62
    15
 10
6.788320
 20
1.747240
 11
6.777320
 21
2.488640
 12
6.848600
 22
1.783760
 13
6.837600
 23
2.525160
  0
POLYLINE
  8
0
  6
CONTINUOUS
 66
     1
 40
0.000000
 41
0.000000
  0
VERTEX
  8
0
  6
CONTINUOUS
 10
6.788320
 20
1.747240
  0
VERTEX
  8
0
  6
CONTINUOUS
 10
6.777320
 20
2.488640
  0
VERTEX
  8
0
  6
CONTINUOUS
 10
6.837600
 20
2.525160
  0
VERTEX
  8
0
  6
CONTINUOUS
 10
6.848600
 20
1.783760
  0
VERTEX
  8
0
  6
CONTINUOUS
 10
6.788320
 20
1.747240
  0
SEQEND
  8
0
  0
SOLID
  8
0
 62
    15
 10
6.848600
 20
1.783760
 11
6.837600
 21
2.525160
 12
6.904480
 22
1.825120
 13
6.893480
 23
2.566960
  0
POLYLINE
  8
0
  6
CONTINUOUS
 66
     1
 40
0.000000
 41
0.000000
  0
VERTEX
  8
0
  6
CONTINUOUS
 10
6.848600
 20
1.783760
  0
VERTEX
  8
0
  6
CONTINUOUS
 10
6.837600
 20
2.525160
  0
VERTEX
  8
0
  6
CONTINUOUS
 10
6.893480
 20
2.566960
  0
VERTEX
  8
0
  6
CONTINUOUS
 10
6.904480
 20
1.825120
  0
VERTEX
  8
0
  6
CONTINUOUS
 10
6.848600
 20
1.783760
  0
SEQEND
  8
0
  0
SOLID
  8
0
 62
    15
 10
6.904480
 20
1.825120
 11
6.893480
 21
2.566960
 12
6.958600
 22
1.866040
 13
6.947600
 23
2.607440
  0
POLYLINE
  8
0
  6
CONTINUOUS
 66
     1
 40
0.000000
 41
0.000000
  0
VERTEX
  8
0
  6
CONTINUOUS
 10
6.904480
 20
1.825120
  0
VERTEX
  8
0
  6
CONTINUOUS
 10
6.893480
 20
2.566960
  0
VERTEX
  8
0
  6
CONTINUOUS
 10
6.947600
 20
2.607440
  0
VERTEX
  8
0
  6
CONTINUOUS
 10
6.958600
 20
1.866040
  0
VERTEX
  8
0
  6
CONTINUOUS
 10
6.904480
 20
1.825120
  0
SEQEND
  8
0
  0
SOLID
  8
0
 62
    15
 10
6.958600
 20
1.866040
 11
6.947600
 21
2.607440
 12
7.014040
 22
1.899920
 13
7.003040
 23
2.641320
  0
POLYLINE
  8
0
  6
CONTINUOUS
 66
     1
 40
0.000000
 41
0.000000
  0
VERTEX
  8
0
  6
CONTINUOUS
 10
6.958600
 20
1.866040
  0
VERTEX
  8
0
  6
CONTINUOUS
 10
6.947600
 20
2.607440
  0
VERTEX
  8
0
  6
CONTINUOUS
 10
7.003040
 20
2.641320
  0
VERTEX
  8
0
  6
CONTINUOUS
 10
7.014040
 20
1.899920
  0
VERTEX
  8
0
  6
CONTINUOUS
 10
6.958600
 20
1.866040
  0
SEQEND
  8
0
  0
SOLID
  8
0
 62
    15
 10
7.014040
 20
1.899920
 11
7.003040
 21
2.641320
 12
7.074760
 22
1.920600
 13
7.063760
 23
2.662440
  0
POLYLINE
  8
0
  6
CONTINUOUS
 66
     1
 40
0.000000
 41
0.000000
  0
VERTEX
  8
0
  6
CONTINUOUS
 10
7.014040
 20
1.899920
  0
VERTEX
  8
0
  6
CONTINUOUS
 10
7.003040
 20
2.641320
  0
VERTEX
  8
0
  6
CONTINUOUS
 10
7.063760
 20
2.662440
  0
VERTEX
  8
0
  6
CONTINUOUS
 10
7.074760
 20
1.920600
  0
VERTEX
  8
0
  6
CONTINUOUS
 10
7.014040
 20
1.899920
  0
SEQEND
  8
0
  0
SOLID
  8
0
 62
    15
 10
7.074760
 20
1.920600
 11
7.063760
 21
2.662440
 12
7.107760
 22
1.924560
 13
7.096760
 23
2.666400
  0
POLYLINE
  8
0
  6
CONTINUOUS
 66
     1
 40
0.000000
 41
0.000000
  0
VERTEX
  8
0
  6
CONTINUOUS
 10
7.074760
 20
1.920600
  0
VERTEX
  8
0
  6
CONTINUOUS
 10
7.063760
 20
2.662440
  0
VERTEX
  8
0
  6
CONTINUOUS
 10
7.096760
 20
2.666400
  0
VERTEX
  8
0
  6
CONTINUOUS
 10
7.107760
 20
1.924560
  0
VERTEX
  8
0
  6
CONTINUOUS
 10
7.074760
 20
1.920600
  0
SEQEND
  8
0
  0
SOLID
  8
0
 62
    15
 10
7.107760
 20
1.924560
 11
7.096760
 21
2.666400
 12
7.142960
 22
1.923240
 13
7.131960
 23
2.664640
  0
POLYLINE
  8
0
  6
CONTINUOUS
 66
     1
 40
0.000000
 41
0.000000
  0
VERTEX
  8
0
  6
CONTINUOUS
 10
7.107760
 20
1.924560
  0
VERTEX
  8
0
  6
CONTINUOUS
 10
7.096760
 20
2.666400
  0
VERTEX
  8
0
  6
CONTINUOUS
 10
7.131960
 20
2.664640
  0
VERTEX
  8
0
  6
CONTINUOUS
 10
7.142960
 20
1.923240
  0
VERTEX
  8
0
  6
CONTINUOUS
 10
7.107760
 20
1.924560
  0
SEQEND
  8
0
  0
SOLID
  8
0
 62
    15
 10
7.142960
 20
1.923240
 11
7.131960
 21
2.664640
 12
7.207640
 22
1.911800
 13
7.196640
 23
2.653200
  0
POLYLINE
  8
0
  6
CONTINUOUS
 66
     1
 40
0.000000
 41
0.000000
  0
VERTEX
  8
0
  6
CONTINUOUS
 10
7.142960
 20
1.923240
  0
VERTEX
  8
0
  6
CONTINUOUS
 10
7.131960
 20
2.664640
  0
VERTEX
  8
0
  6
CONTINUOUS
 10
7.196640
 20
2.653200
  0
VERTEX
  8
0
  6
CONTINUOUS
 10
7.207640
 20
1.911800
  0
VERTEX
  8
0
  6
CONTINUOUS
 10
7.142960
 20
1.923240
  0
SEQEND
  8
0
  0
SOLID
  8
0
 62
    15
 10
7.207640
 20
1.911800
 11
7.196640
 21
2.653200
 12
7.256040
 22
1.895080
 13
7.245040
 23
2.636480
  0
POLYLINE
  8
0
  6
CONTINUOUS
 66
     1
 40
0.000000
 41
0.000000
  0
VERTEX
  8
0
  6
CONTINUOUS
 10
7.207640
 20
1.911800
  0
VERTEX
  8
0
  6
CONTINUOUS
 10
7.196640
 20
2.653200
  0
VERTEX
  8
0
  6
CONTINUOUS
 10
7.245040
 20
2.636480
  0
VERTEX
  8
0
  6
CONTINUOUS
 10
7.256040
 20
1.895080
  0
VERTEX
  8
0
  6
CONTINUOUS
 10
7.207640
 20
1.911800
  0
SEQEND
  8
0
  0
SOLID
  8
0
 62
    15
 10
7.290360
 20
1.871760
 11
7.279360
 21
2.613160
 12
7.313240
 22
1.840960
 13
7.302240
 23
2.582360
  0
POLYLINE
  8
0
  6
CONTINUOUS
 66
     1
 40
0.000000
 41
0.000000
  0
VERTEX
  8
0
  6
CONTINUOUS
 10
7.290360
 20
1.871760
  0
VERTEX
  8
0
  6
CONTINUOUS
 10
7.279360
 20
2.613160
  0
VERTEX
  8
0
  6
CONTINUOUS
 10
7.302240
 20
2.582360
  0
VERTEX
  8
0
  6
CONTINUOUS
 10
7.313240
 20
1.840960
  0
VERTEX
  8
0
  6
CONTINUOUS
 10
7.290360
 20
1.871760
  0
SEQEND
  8
0
  0
SOLID
  8
0
 62
    15
 10
7.256040
 20
1.895080
 11
7.245040
 21
2.636480
 12
7.290360
 22
1.871760
 13
7.279360
 23
2.613160
  0
POLYLINE
  8
0
  6
CONTINUOUS
 66
     1
 40
0.000000
 41
0.000000
  0
VERTEX
  8
0
  6
CONTINUOUS
 10
7.256040
 20
1.895080
  0
VERTEX
  8
0
  6
CONTINUOUS
 10
7.245040
 20
2.636480
  0
VERTEX
  8
0
  6
CONTINUOUS
 10
7.279360
 20
2.613160
  0
VERTEX
  8
0
  6
CONTINUOUS
 10
7.290360
 20
1.871760
  0
VERTEX
  8
0
  6
CONTINUOUS
 10
7.256040
 20
1.895080
  0
SEQEND
  8
0
  0
SOLID
  8
0
 62
    15
 10
7.313240
 20
1.840960
 11
7.302240
 21
2.582360
 12
7.326880
 22
1.801800
 13
7.315880
 23
2.543200
  0
POLYLINE
  8
0
  6
CONTINUOUS
 66
     1
 40
0.000000
 41
0.000000
  0
VERTEX
  8
0
  6
CONTINUOUS
 10
7.313240
 20
1.840960
  0
VERTEX
  8
0
  6
CONTINUOUS
 10
7.302240
 20
2.582360
  0
VERTEX
  8
0
  6
CONTINUOUS
 10
7.315880
 20
2.543200
  0
VERTEX
  8
0
  6
CONTINUOUS
 10
7.326880
 20
1.801800
  0
VERTEX
  8
0
  6
CONTINUOUS
 10
7.313240
 20
1.840960
  0
SEQEND
  8
0
  0
SOLID
  8
0
 62
    15
 10
7.326880
 20
1.801800
 11
7.315880
 21
2.543200
 12
7.333920
 22
1.752520
 13
7.322920
 23
2.494360
  0
POLYLINE
  8
0
  6
CONTINUOUS
 66
     1
 40
0.000000
 41
0.000000
  0
VERTEX
  8
0
  6
CONTINUOUS
 10
7.326880
 20
1.801800
  0
VERTEX
  8
0
  6
CONTINUOUS
 10
7.315880
 20
2.543200
  0
VERTEX
  8
0
  6
CONTINUOUS
 10
7.322920
 20
2.494360
  0
VERTEX
  8
0
  6
CONTINUOUS
 10
7.333920
 20
1.752520
  0
VERTEX
  8
0
  6
CONTINUOUS
 10
7.326880
 20
1.801800
  0
SEQEND
  8
0
  0
SOLID
  8
0
 62
    15
 10
7.538520
 20
1.622280
 11
7.527520
 21
2.364120
 12
7.611120
 22
1.521960
 13
7.600120
 23
2.263800
  0
POLYLINE
  8
0
  6
CONTINUOUS
 66
     1
 40
0.000000
 41
0.000000
  0
VERTEX
  8
0
  6
CONTINUOUS
 10
7.538520
 20
1.622280
  0
VERTEX
  8
0
  6
CONTINUOUS
 10
7.527520
 20
2.364120
  0
VERTEX
  8
0
  6
CONTINUOUS
 10
7.600120
 20
2.263800
  0
VERTEX
  8
0
  6
CONTINUOUS
 10
7.611120
 20
1.521960
  0
VERTEX
  8
0
  6
CONTINUOUS
 10
7.538520
 20
1.622280
  0
SEQEND
  8
0
  0
SOLID
  8
0
 62
    15
 10
7.336120
 20
1.622280
 11
7.325120
 21
2.364120
 12
7.538520
 22
1.622280
 13
7.527520
 23
2.364120
  0
POLYLINE
  8
0
  6
CONTINUOUS
 66
     1
 40
0.000000
 41
0.000000
  0
VERTEX
  8
0
  6
CONTINUOUS
 10
7.336120
 20
1.622280
  0
VERTEX
  8
0
  6
CONTINUOUS
 10
7.325120
 20
2.364120
  0
VERTEX
  8
0
  6
CONTINUOUS
 10
7.527520
 20
2.364120
  0
VERTEX
  8
0
  6
CONTINUOUS
 10
7.538520
 20
1.622280
  0
VERTEX
  8
0
  6
CONTINUOUS
 10
7.336120
 20
1.622280
  0
SEQEND
  8
0
  0
SOLID
  8
0
 62
    15
 10
7.333920
 20
1.752520
 11
7.322920
 21
2.494360
 12
7.336120
 22
1.693560
 13
7.325120
 23
2.434960
  0
POLYLINE
  8
0
  6
CONTINUOUS
 66
     1
 40
0.000000
 41
0.000000
  0
VERTEX
  8
0
  6
CONTINUOUS
 10
7.333920
 20
1.752520
  0
VERTEX
  8
0
  6
CONTINUOUS
 10
7.322920
 20
2.494360
  0
VERTEX
  8
0
  6
CONTINUOUS
 10
7.325120
 20
2.434960
  0
VERTEX
  8
0
  6
CONTINUOUS
 10
7.336120
 20
1.693560
  0
VERTEX
  8
0
  6
CONTINUOUS
 10
7.333920
 20
1.752520
  0
SEQEND
  8
0
  0
SOLID
  8
0
 62
    15
 10
0.830720
 20
1.405360
 11
0.819720
 21
2.147200
 12
0.832920
 22
1.460360
 13
0.821920
 23
2.201760
  0
POLYLINE
  8
0
  6
CONTINUOUS
 66
     1
 40
0.000000
 41
0.000000
  0
VERTEX
  8
0
  6
CONTINUOUS
 10
0.830720
 20
1.405360
  0
VERTEX
  8
0
  6
CONTINUOUS
 10
0.819720
 20
2.147200
  0
VERTEX
  8
0
  6
CONTINUOUS
 10
0.821920
 20
2.201760
  0
VERTEX
  8
0
  6
CONTINUOUS
 10
0.832920
 20
1.460360
  0
VERTEX
  8
0
  6
CONTINUOUS
 10
0.830720
 20
1.405360
  0
SEQEND
  8
0
  0
SOLID
  8
0
 62
    15
 10
0.832920
 20
1.460360
 11
0.821920
 21
2.201760
 12
0.841280
 22
1.512720
 13
0.830280
 23
2.254120
  0
POLYLINE
  8
0
  6
CONTINUOUS
 66
     1
 40
0.000000
 41
0.000000
  0
VERTEX
  8
0
  6
CONTINUOUS
 10
0.832920
 20
1.460360
  0
VERTEX
  8
0
  6
CONTINUOUS
 10
0.821920
 20
2.201760
  0
VERTEX
  8
0
  6
CONTINUOUS
 10
0.830280
 20
2.254120
  0
VERTEX
  8
0
  6
CONTINUOUS
 10
0.841280
 20
1.512720
  0
VERTEX
  8
0
  6
CONTINUOUS
 10
0.832920
 20
1.460360
  0
SEQEND
  8
0
  0
SOLID
  8
0
 62
    15
 10
0.841280
 20
1.512720
 11
0.830280
 21
2.254120
 12
0.854920
 22
1.562440
 13
0.843920
 23
2.304280
  0
POLYLINE
  8
0
  6
CONTINUOUS
 66
     1
 40
0.000000
 41
0.000000
  0
VERTEX
  8
0
  6
CONTINUOUS
 10
0.841280
 20
1.512720
  0
VERTEX
  8
0
  6
CONTINUOUS
 10
0.830280
 20
2.254120
  0
VERTEX
  8
0
  6
CONTINUOUS
 10
0.843920
 20
2.304280
  0
VERTEX
  8
0
  6
CONTINUOUS
 10
0.854920
 20
1.562440
  0
VERTEX
  8
0
  6
CONTINUOUS
 10
0.841280
 20
1.512720
  0
SEQEND
  8
0
  0
SOLID
  8
0
 62
    15
 10
0.854920
 20
1.562440
 11
0.843920
 21
2.304280
 12
0.873840
 22
1.609520
 13
0.862840
 23
2.351360
  0
POLYLINE
  8
0
  6
CONTINUOUS
 66
     1
 40
0.000000
 41
0.000000
  0
VERTEX
  8
0
  6
CONTINUOUS
 10
0.854920
 20
1.562440
  0
VERTEX
  8
0
  6
CONTINUOUS
 10
0.843920
 20
2.304280
  0
VERTEX
  8
0
  6
CONTINUOUS
 10
0.862840
 20
2.351360
  0
VERTEX
  8
0
  6
CONTINUOUS
 10
0.873840
 20
1.609520
  0
VERTEX
  8
0
  6
CONTINUOUS
 10
0.854920
 20
1.562440
  0
SEQEND
  8
0
  0
SOLID
  8
0
 62
    15
 10
0.873840
 20
1.609520
 11
0.862840
 21
2.351360
 12
0.898040
 22
1.653520
 13
0.887040
 23
2.394920
  0
POLYLINE
  8
0
  6
CONTINUOUS
 66
     1
 40
0.000000
 41
0.000000
  0
VERTEX
  8
0
  6
CONTINUOUS
 10
0.873840
 20
1.609520
  0
VERTEX
  8
0
  6
CONTINUOUS
 10
0.862840
 20
2.351360
  0
VERTEX
  8
0
  6
CONTINUOUS
 10
0.887040
 20
2.394920
  0
VERTEX
  8
0
  6
CONTINUOUS
 10
0.898040
 20
1.653520
  0
VERTEX
  8
0
  6
CONTINUOUS
 10
0.873840
 20
1.609520
  0
SEQEND
  8
0
  0
SOLID
  8
0
 62
    15
 10
0.898040
 20
1.653520
 11
0.887040
 21
2.394920
 12
0.926640
 22
1.694000
 13
0.915640
 23
2.435840
  0
POLYLINE
  8
0
  6
CONTINUOUS
 66
     1
 40
0.000000
 41
0.000000
  0
VERTEX
  8
0
  6
CONTINUOUS
 10
0.898040
 20
1.653520
  0
VERTEX
  8
0
  6
CONTINUOUS
 10
0.887040
 20
2.394920
  0
VERTEX
  8
0
  6
CONTINUOUS
 10
0.915640
 20
2.435840
  0
VERTEX
  8
0
  6
CONTINUOUS
 10
0.926640
 20
1.694000
  0
VERTEX
  8
0
  6
CONTINUOUS
 10
0.898040
 20
1.653520
  0
SEQEND
  8
0
  0
SOLID
  8
0
 62
    15
 10
0.926640
 20
1.694000
 11
0.915640
 21
2.435840
 12
0.960080
 22
1.730960
 13
0.949080
 23
2.472800
  0
POLYLINE
  8
0
  6
CONTINUOUS
 66
     1
 40
0.000000
 41
0.000000
  0
VERTEX
  8
0
  6
CONTINUOUS
 10
0.926640
 20
1.694000
  0
VERTEX
  8
0
  6
CONTINUOUS
 10
0.915640
 20
2.435840
  0
VERTEX
  8
0
  6
CONTINUOUS
 10
0.949080
 20
2.472800
  0
VERTEX
  8
0
  6
CONTINUOUS
 10
0.960080
 20
1.730960
  0
VERTEX
  8
0
  6
CONTINUOUS
 10
0.926640
 20
1.694000
  0
SEQEND
  8
0
  0
SOLID
  8
0
 62
    15
 10
0.960080
 20
1.730960
 11
0.949080
 21
2.472800
 12
0.997480
 22
1.763960
 13
0.986480
 23
2.505800
  0
POLYLINE
  8
0
  6
CONTINUOUS
 66
     1
 40
0.000000
 41
0.000000
  0
VERTEX
  8
0
  6
CONTINUOUS
 10
0.960080
 20
1.730960
  0
VERTEX
  8
0
  6
CONTINUOUS
 10
0.949080
 20
2.472800
  0
VERTEX
  8
0
  6
CONTINUOUS
 10
0.986480
 20
2.505800
  0
VERTEX
  8
0
  6
CONTINUOUS
 10
0.997480
 20
1.763960
  0
VERTEX
  8
0
  6
CONTINUOUS
 10
0.960080
 20
1.730960
  0
SEQEND
  8
0
  0
SOLID
  8
0
 62
    15
 10
0.997480
 20
1.763960
 11
0.986480
 21
2.505800
 12
1.038840
 22
1.793000
 13
1.027840
 23
2.534400
  0
POLYLINE
  8
0
  6
CONTINUOUS
 66
     1
 40
0.000000
 41
0.000000
  0
VERTEX
  8
0
  6
CONTINUOUS
 10
0.997480
 20
1.763960
  0
VERTEX
  8
0
  6
CONTINUOUS
 10
0.986480
 20
2.505800
  0
VERTEX
  8
0
  6
CONTINUOUS
 10
1.027840
 20
2.534400
  0
VERTEX
  8
0
  6
CONTINUOUS
 10
1.038840
 20
1.793000
  0
VERTEX
  8
0
  6
CONTINUOUS
 10
0.997480
 20
1.763960
  0
SEQEND
  8
0
  0
SOLID
  8
0
 62
    15
 10
1.038840
 20
1.793000
 11
1.027840
 21
2.534400
 12
1.083720
 22
1.817200
 13
1.072720
 23
2.558600
  0
POLYLINE
  8
0
  6
CONTINUOUS
 66
     1
 40
0.000000
 41
0.000000
  0
VERTEX
  8
0
  6
CONTINUOUS
 10
1.038840
 20
1.793000
  0
VERTEX
  8
0
  6
CONTINUOUS
 10
1.027840
 20
2.534400
  0
VERTEX
  8
0
  6
CONTINUOUS
 10
1.072720
 20
2.558600
  0
VERTEX
  8
0
  6
CONTINUOUS
 10
1.083720
 20
1.817200
  0
VERTEX
  8
0
  6
CONTINUOUS
 10
1.038840
 20
1.793000
  0
SEQEND
  8
0
  0
SOLID
  8
0
 62
    15
 10
1.083720
 20
1.817200
 11
1.072720
 21
2.558600
 12
1.132560
 22
1.836560
 13
1.121560
 23
2.578400
  0
POLYLINE
  8
0
  6
CONTINUOUS
 66
     1
 40
0.000000
 41
0.000000
  0
VERTEX
  8
0
  6
CONTINUOUS
 10
1.083720
 20
1.817200
  0
VERTEX
  8
0
  6
CONTINUOUS
 10
1.072720
 20
2.558600
  0
VERTEX
  8
0
  6
CONTINUOUS
 10
1.121560
 20
2.578400
  0
VERTEX
  8
0
  6
CONTINUOUS
 10
1.132560
 20
1.836560
  0
VERTEX
  8
0
  6
CONTINUOUS
 10
1.083720
 20
1.817200
  0
SEQEND
  8
0
  0
SOLID
  8
0
 62
    15
 10
1.132560
 20
1.836560
 11
1.121560
 21
2.578400
 12
1.184040
 22
1.851520
 13
1.173040
 23
2.592920
  0
POLYLINE
  8
0
  6
CONTINUOUS
 66
     1
 40
0.000000
 41
0.000000
  0
VERTEX
  8
0
  6
CONTINUOUS
 10
1.132560
 20
1.836560
  0
VERTEX
  8
0
  6
CONTINUOUS
 10
1.121560
 20
2.578400
  0
VERTEX
  8
0
  6
CONTINUOUS
 10
1.173040
 20
2.592920
  0
VERTEX
  8
0
  6
CONTINUOUS
 10
1.184040
 20
1.851520
  0
VERTEX
  8
0
  6
CONTINUOUS
 10
1.132560
 20
1.836560
  0
SEQEND
  8
0
  0
SOLID
  8
0
 62
    15
 10
1.184040
 20
1.851520
 11
1.173040
 21
2.592920
 12
1.238600
 22
1.860320
 13
1.227600
 23
2.602160
  0
POLYLINE
  8
0
  6
CONTINUOUS
 66
     1
 40
0.000000
 41
0.000000
  0
VERTEX
  8
0
  6
CONTINUOUS
 10
1.184040
 20
1.851520
  0
VERTEX
  8
0
  6
CONTINUOUS
 10
1.173040
 20
2.592920
  0
VERTEX
  8
0
  6
CONTINUOUS
 10
1.227600
 20
2.602160
  0
VERTEX
  8
0
  6
CONTINUOUS
 10
1.238600
 20
1.860320
  0
VERTEX
  8
0
  6
CONTINUOUS
 10
1.184040
 20
1.851520
  0
SEQEND
  8
0
  0
SOLID
  8
0
 62
    15
 10
1.238600
 20
1.860320
 11
1.227600
 21
2.602160
 12
1.295800
 22
1.864280
 13
1.284800
 23
2.605680
  0
POLYLINE
  8
0
  6
CONTINUOUS
 66
     1
 40
0.000000
 41
0.000000
  0
VERTEX
  8
0
  6
CONTINUOUS
 10
1.238600
 20
1.860320
  0
VERTEX
  8
0
  6
CONTINUOUS
 10
1.227600
 20
2.602160
  0
VERTEX
  8
0
  6
CONTINUOUS
 10
1.284800
 20
2.605680
  0
VERTEX
  8
0
  6
CONTINUOUS
 10
1.295800
 20
1.864280
  0
VERTEX
  8
0
  6
CONTINUOUS
 10
1.238600
 20
1.860320
  0
SEQEND
  8
0
  0
SOLID
  8
0
 62
    15
 10
1.562000
 20
2.340800
 11
1.551000
 21
3.082200
 12
2.269080
 22
2.340800
 13
2.258080
 23
3.082200
  0
POLYLINE
  8
0
  6
CONTINUOUS
 66
     1
 40
0.000000
 41
0.000000
  0
VERTEX
  8
0
  6
CONTINUOUS
 10
1.562000
 20
2.340800
  0
VERTEX
  8
0
  6
CONTINUOUS
 10
1.551000
 20
3.082200
  0
VERTEX
  8
0
  6
CONTINUOUS
 10
2.258080
 20
3.082200
  0
VERTEX
  8
0
  6
CONTINUOUS
 10
2.269080
 20
2.340800
  0
VERTEX
  8
0
  6
CONTINUOUS
 10
1.562000
 20
2.340800
  0
SEQEND
  8
0
  0
POLYLINE
  8
0
  6
CONTINUOUS
 66
     1
 40
0.000000
 41
0.000000
  0
VERTEX
  8
0
  6
CONTINUOUS
 10
1.355640
 20
1.862080
  0
VERTEX
  8
0
  6
CONTINUOUS
 10
1.355640
 20
2.112000
  0
VERTEX
  8
0
  6
CONTINUOUS
 10
1.562000
 20
2.112000
  0
VERTEX
  8
0
  6
CONTINUOUS
 10
1.562000
 20
2.340800
  0
VERTEX
  8
0
  6
CONTINUOUS
 10
2.269080
 20
2.340800
  0
VERTEX
  8
0
  6
CONTINUOUS
 10
2.269080
 20
2.123000
  0
VERTEX
  8
0
  6
CONTINUOUS
 10
2.503160
 20
2.123000
  0
VERTEX
  8
0
  6
CONTINUOUS
 10
2.503160
 20
1.970760
  0
VERTEX
  8
0
  6
CONTINUOUS
 10
2.646160
 20
1.970760
  0
VERTEX
  8
0
  6
CONTINUOUS
 10
2.646160
 20
2.003320
  0
VERTEX
  8
0
  6
CONTINUOUS
 10
4.549600
 20
2.003320
  0
VERTEX
  8
0
  6
CONTINUOUS
 10
4.558400
 20
1.970760
  0
VERTEX
  8
0
  6
CONTINUOUS
 10
4.683360
 20
1.970760
  0
VERTEX
  8
0
  6
CONTINUOUS
 10
4.683360
 20
2.139280
  0
VERTEX
  8
0
  6
CONTINUOUS
 10
4.836040
 20
2.139280
  0
VERTEX
  8
0
  6
CONTINUOUS
 10
4.836040
 20
2.346080
  0
VERTEX
  8
0
  6
CONTINUOUS
 10
5.517160
 20
2.346080
  0
VERTEX
  8
0
  6
CONTINUOUS
 10
5.517160
 20
2.104080
  0
VERTEX
  8
0
  6
CONTINUOUS
 10
5.550600
 20
2.104080
  0
VERTEX
  8
0
  6
CONTINUOUS
 10
5.591960
 20
2.131800
  0
VERTEX
  8
0
  6
CONTINUOUS
 10
5.635080
 20
2.154680
  0
VERTEX
  8
0
  6
CONTINUOUS
 10
5.679960
 20
2.171840
  0
VERTEX
  8
0
  6
CONTINUOUS
 10
5.725720
 20
2.184600
  0
VERTEX
  8
0
  6
CONTINUOUS
 10
5.818560
 20
2.195600
  0
VERTEX
  8
0
  6
CONTINUOUS
 10
5.910520
 20
2.189000
  0
VERTEX
  8
0
  6
CONTINUOUS
 10
5.998080
 20
2.165680
  0
VERTEX
  8
0
  6
CONTINUOUS
 10
6.078160
 20
2.127840
  0
VERTEX
  8
0
  6
CONTINUOUS
 10
6.146800
 20
2.075920
  0
VERTEX
  8
0
  6
CONTINUOUS
 10
6.175840
 20
2.045120
  0
VERTEX
  8
0
  6
CONTINUOUS
 10
6.201360
 20
2.011240
  0
VERTEX
  8
0
  6
CONTINUOUS
 10
6.245800
 20
1.945240
  0
VERTEX
  8
0
  6
CONTINUOUS
 10
6.288920
 20
1.886280
  0
VERTEX
  8
0
  6
CONTINUOUS
 10
6.332920
 20
1.835680
  0
VERTEX
  8
0
  6
CONTINUOUS
 10
6.380000
 20
1.793000
  0
VERTEX
  8
0
  6
CONTINUOUS
 10
6.431920
 20
1.759120
  0
VERTEX
  8
0
  6
CONTINUOUS
 10
6.491320
 20
1.734040
  0
VERTEX
  8
0
  6
CONTINUOUS
 10
6.559520
 20
1.718640
  0
VERTEX
  8
0
  6
CONTINUOUS
 10
6.640040
 20
1.712040
  0
VERTEX
  8
0
  6
CONTINUOUS
 10
6.681400
 20
1.714240
  0
VERTEX
  8
0
  6
CONTINUOUS
 10
6.719680
 20
1.721280
  0
VERTEX
  8
0
  6
CONTINUOUS
 10
6.788320
 20
1.747240
  0
VERTEX
  8
0
  6
CONTINUOUS
 10
6.848600
 20
1.783760
  0
VERTEX
  8
0
  6
CONTINUOUS
 10
6.958600
 20
1.866040
  0
VERTEX
  8
0
  6
CONTINUOUS
 10
7.014040
 20
1.899920
  0
VERTEX
  8
0
  6
CONTINUOUS
 10
7.074760
 20
1.920600
  0
VERTEX
  8
0
  6
CONTINUOUS
 10
7.107760
 20
1.924560
  0
VERTEX
  8
0
  6
CONTINUOUS
 10
7.142960
 20
1.923240
  0
VERTEX
  8
0
  6
CONTINUOUS
 10
7.207640
 20
1.911800
  0
VERTEX
  8
0
  6
CONTINUOUS
 10
7.256040
 20
1.895080
  0
VERTEX
  8
0
  6
CONTINUOUS
 10
7.290360
 20
1.871760
  0
VERTEX
  8
0
  6
CONTINUOUS
 10
7.313240
 20
1.840960
  0
VERTEX
  8
0
  6
CONTINUOUS
 10
7.326880
 20
1.801800
  0
VERTEX
  8
0
  6
CONTINUOUS
 10
7.333920
 20
1.752520
  0
VERTEX
  8
0
  6
CONTINUOUS
 10
7.336120
 20
1.693560
  0
VERTEX
  8
0
  6
CONTINUOUS
 10
7.336120
 20
1.622280
  0
VERTEX
  8
0
  6
CONTINUOUS
 10
7.538520
 20
1.622280
  0
VERTEX
  8
0
  6
CONTINUOUS
 10
7.611120
 20
1.521960
  0
VERTEX
  8
0
  6
CONTINUOUS
 10
7.611120
 20
1.348600
  0
VERTEX
  8
0
  6
CONTINUOUS
 10
0.834680
 20
1.348600
  0
VERTEX
  8
0
  6
CONTINUOUS
 10
0.830720
 20
1.405360
  0
VERTEX
  8
0
  6
CONTINUOUS
 10
0.832920
 20
1.460360
  0
VERTEX
  8
0
  6
CONTINUOUS
 10
0.841280
 20
1.512720
  0
VERTEX
  8
0
  6
CONTINUOUS
 10
0.854920
 20
1.562440
  0
VERTEX
  8
0
  6
CONTINUOUS
 10
0.873840
 20
1.609520
  0
VERTEX
  8
0
  6
CONTINUOUS
 10
0.898040
 20
1.653520
  0
VERTEX
  8
0
  6
CONTINUOUS
 10
0.926640
 20
1.694000
  0
VERTEX
  8
0
  6
CONTINUOUS
 10
0.960080
 20
1.730960
  0
VERTEX
  8
0
  6
CONTINUOUS
 10
0.997480
 20
1.763960
  0
VERTEX
  8
0
  6
CONTINUOUS
 10
1.038840
 20
1.793000
  0
VERTEX
  8
0
  6
CONTINUOUS
 10
1.083720
 20
1.817200
  0
VERTEX
  8
0
  6
CONTINUOUS
 10
1.132560
 20
1.836560
  0
VERTEX
  8
0
  6
CONTINUOUS
 10
1.184040
 20
1.851520
  0
VERTEX
  8
0
  6
CONTINUOUS
 10
1.238600
 20
1.860320
  0
VERTEX
  8
0
  6
CONTINUOUS
 10
1.295800
 20
1.864280
  0
VERTEX
  8
0
  6
CONTINUOUS
 10
1.355640
 20
1.862080
  0
SEQEND
  8
0
  0
TEXT
  8
0
 10
3.918640
 20
1.076680
 40
0.138203
  1
BA  453
 41
1.000000
  7
SN0
 71
     0
 72
     5
 11
4.509322
 21
1.076680
  0
TEXT
  8
0
 10
3.831960
 20
0.884840
 40
0.138203
  1
1" x 6-3/4"
 41
1.000000
  7
SN0
 71
     0
 72
     5
 11
4.595726
 21
0.884840
  0
ENDSEC
  0
EOF
