  0
SECTION
  2
HEADER
  9
$ACADVER
  1
AC1006
  9
$EXTMIN
 10
4.142600
 20
0.483120
  9
$EXTMAX
 10
6.857840
 20
2.826120
  9
$LTSCALE
 40
0.044000
  9
$PDMODE
 70
    35
  9
$PDSIZE
 40
0.035200
  0
ENDSEC
  0
SECTION
  2
TABLES
  0
TABLE
  2
LTYPE
 70
     9
  0
LTYPE
  2
CONTINUOUS
 70
    64
  3
Solid line
 72
    65
 73
     0
 40
0.000000
  0
LTYPE
  2
DASHED
 70
    64
  3
__ __ __ __ __ __ __ __ __ __ __ __ __ __ __
 72
    65
 73
     2
 40
0.000330
 49
0.000220
 49
-0.000110
  0
LTYPE
  2
HIDDEN
 70
    64
  3
 _ _ _ _ _ _ _ _ _ _ _ _ _ _ _ _ _ _ _ _ _ _
 72
    65
 73
     2
 40
0.000165
 49
0.000110
 49
-0.000055
  0
LTYPE
  2
CENTER
 70
    64
  3
____ _ ____ _ ____ _ ____ _ ____ _ ____ _ ____
 72
    65
 73
     4
 40
0.000880
 49
0.000550
 49
-0.000110
 49
0.000110
 49
-0.000110
  0
LTYPE
  2
PHANTOM
 70
    64
  3
_____ _ _ _____ _ _ _____ _ _ _____ _ _ ____
 72
    65
 73
     6
 40
0.001100
 49
0.000550
 49
-0.000110
 49
0.000110
 49
-0.000110
 49
0.000110
 49
-0.000110
  0
LTYPE
  2
DOT
 70
    64
  3
...............................................
 72
    65
 73
     2
 40
0.000110
 49
0.000000
 49
-0.000110
  0
LTYPE
  2
DASHDOT
 70
    64
  3
__ . __ . __ . __ . __ . __ . __ . __ . __ . __
 72
    65
 73
     4
 40
0.000440
 49
0.000220
 49
-0.000110
 49
0.000000
 49
-0.000110
  0
LTYPE
  2
BORDER
 70
    64
  3
__ __ . __ __ . __ __ . __ __ . __ __ . __ __
 72
    65
 73
     6
 40
0.000770
 49
0.000220
 49
-0.000110
 49
0.000220
 49
-0.000110
 49
0.000000
 49
-0.000110
  0
LTYPE
  2
DIVIDE
 70
    64
  3
__ . . __ . . __ . . __ . . __ . . __ . . __
 72
    65
 73
     6
 40
0.000550
 49
0.000220
 49
-0.000110
 49
0.000000
 49
-0.000110
 49
0.000000
 49
-0.000110
  0
LTYPE
  2
DOTDOT
 70
    64
  3
 . .  . .  . .  . .  . .  . . 
 72
    65
 73
     5
 40
0.000242
 49
-0.000110
 49
0.000000
 49
-0.000110
 49
0.000000
 49
-0.000110
  0
ENDTAB
  0
TABLE
  2
STYLE
 70
     2
  0
STYLE
 70
     0
  2
SN0
 40
0.000000
 41
0.000440
 50
0.000000
 71
     0
 42
0.000000
  3
ROMAND
  0
STYLE
 70
    68
  2
SV0
 40
0.000000
 41
0.000440
 50
0.000000
 71
     0
 42
0.000000
  3
ROMAND
  0
ENDTAB
  0
TABLE
  2
LAYER
 70
     3
  0
LAYER
  2
FOREGROUND
 70
    64
 62
     7
  6
CONTINUOUS
  0
LAYER
  2
BACKGROUND
 70
    65
 62
    -7
  6
CONTINUOUS
  0
LAYER
  2
0
 70
    64
 62
     7
  6
CONTINUOUS
  0
ENDTAB
  0
ENDSEC
  0
SECTION
  2
ENTITIES
  0
POLYLINE
  8
FOREGROUND
  6
CONTINUOUS
 66
     1
 40
0.000000
 41
0.000000
  0
VERTEX
  8
FOREGROUND
  6
CONTINUOUS
 10
0.000000
 20
3.309240
  0
VERTEX
  8
FOREGROUND
  6
CONTINUOUS
 10
8.499920
 20
3.309240
  0
VERTEX
  8
FOREGROUND
  6
CONTINUOUS
 10
8.499920
 20
-7.690760
  0
VERTEX
  8
FOREGROUND
  6
CONTINUOUS
 10
0.000000
 20
-7.690760
  0
VERTEX
  8
FOREGROUND
  6
CONTINUOUS
 10
0.000000
 20
3.309240
  0
SEQEND
  8
0
  0
POLYLINE
  8
FOREGROUND
  6
CONTINUOUS
 66
     1
 40
0.000000
 41
0.000000
  0
VERTEX
  8
FOREGROUND
  6
CONTINUOUS
 10
0.000000
 20
3.309240
  0
VERTEX
  8
FOREGROUND
  6
CONTINUOUS
 10
8.499920
 20
3.309240
  0
VERTEX
  8
FOREGROUND
  6
CONTINUOUS
 10
8.499920
 20
-7.690760
  0
VERTEX
  8
FOREGROUND
  6
CONTINUOUS
 10
0.000000
 20
-7.690760
  0
VERTEX
  8
FOREGROUND
  6
CONTINUOUS
 10
0.000000
 20
3.309240
  0
SEQEND
  8
0
  0
POLYLINE
  8
0
  6
CONTINUOUS
 66
     1
 40
0.014080
 41
0.014080
  0
VERTEX
  8
0
  6
CONTINUOUS
 10
6.683160
 20
1.431320
  0
VERTEX
  8
0
  6
CONTINUOUS
 10
6.702960
 20
1.440120
  0
VERTEX
  8
0
  6
CONTINUOUS
 10
6.721880
 20
1.450680
  0
VERTEX
  8
0
  6
CONTINUOUS
 10
6.756640
 20
1.477520
  0
VERTEX
  8
0
  6
CONTINUOUS
 10
6.787440
 20
1.510520
  0
VERTEX
  8
0
  6
CONTINUOUS
 10
6.812960
 20
1.549680
  0
VERTEX
  8
0
  6
CONTINUOUS
 10
6.823520
 20
1.570800
  0
VERTEX
  8
0
  6
CONTINUOUS
 10
6.839800
 20
1.617000
  0
VERTEX
  8
0
  6
CONTINUOUS
 10
6.849040
 20
1.666720
  0
VERTEX
  8
0
  6
CONTINUOUS
 10
6.850360
 20
1.692680
  0
VERTEX
  8
0
  6
CONTINUOUS
 10
6.849920
 20
1.719520
  0
VERTEX
  8
0
  6
CONTINUOUS
 10
6.847720
 20
1.746800
  0
VERTEX
  8
0
  6
CONTINUOUS
 10
6.842880
 20
1.774520
  0
VERTEX
  8
0
  6
CONTINUOUS
 10
6.835400
 20
1.802240
  0
VERTEX
  8
0
  6
CONTINUOUS
 10
6.820000
 20
1.844920
  0
VERTEX
  8
0
  6
CONTINUOUS
 10
6.798440
 20
1.887600
  0
VERTEX
  8
0
  6
CONTINUOUS
 10
6.771160
 20
1.929840
  0
VERTEX
  8
0
  6
CONTINUOUS
 10
6.736840
 20
1.972080
  0
VERTEX
  8
0
  6
CONTINUOUS
 10
6.695920
 20
2.013440
  0
VERTEX
  8
0
  6
CONTINUOUS
 10
6.647520
 20
2.053480
  0
VERTEX
  8
0
  6
CONTINUOUS
 10
6.591640
 20
2.092200
  0
VERTEX
  8
0
  6
CONTINUOUS
 10
6.527840
 20
2.129160
  0
VERTEX
  8
0
  6
CONTINUOUS
 10
6.456120
 20
2.163920
  0
VERTEX
  8
0
  6
CONTINUOUS
 10
6.430160
 20
2.174920
  0
VERTEX
  8
0
  6
CONTINUOUS
 10
6.430160
 20
2.237840
  0
VERTEX
  8
0
  6
CONTINUOUS
 10
6.459640
 20
2.248400
  0
VERTEX
  8
0
  6
CONTINUOUS
 10
6.484280
 20
2.262480
  0
VERTEX
  8
0
  6
CONTINUOUS
 10
6.503640
 20
2.279640
  0
VERTEX
  8
0
  6
CONTINUOUS
 10
6.518160
 20
2.299440
  0
VERTEX
  8
0
  6
CONTINUOUS
 10
6.528280
 20
2.321000
  0
VERTEX
  8
0
  6
CONTINUOUS
 10
6.534000
 20
2.343440
  0
VERTEX
  8
0
  6
CONTINUOUS
 10
6.534880
 20
2.366760
  0
VERTEX
  8
0
  6
CONTINUOUS
 10
6.532240
 20
2.390080
  0
VERTEX
  8
0
  6
CONTINUOUS
 10
6.525200
 20
2.412960
  0
VERTEX
  8
0
  6
CONTINUOUS
 10
6.514200
 20
2.434960
  0
VERTEX
  8
0
  6
CONTINUOUS
 10
6.499680
 20
2.454760
  0
VERTEX
  8
0
  6
CONTINUOUS
 10
6.481640
 20
2.472800
  0
VERTEX
  8
0
  6
CONTINUOUS
 10
6.460080
 20
2.487320
  0
VERTEX
  8
0
  6
CONTINUOUS
 10
6.435440
 20
2.498760
  0
VERTEX
  8
0
  6
CONTINUOUS
 10
6.407720
 20
2.505800
  0
VERTEX
  8
0
  6
CONTINUOUS
 10
6.392760
 20
2.508000
  0
VERTEX
  8
0
  6
CONTINUOUS
 10
6.376920
 20
2.508440
  0
VERTEX
  8
0
  6
CONTINUOUS
 10
6.376920
 20
2.578400
  0
VERTEX
  8
0
  6
CONTINUOUS
 10
6.333800
 20
2.589400
  0
VERTEX
  8
0
  6
CONTINUOUS
 10
6.314000
 20
2.597320
  0
VERTEX
  8
0
  6
CONTINUOUS
 10
6.295960
 20
2.606560
  0
VERTEX
  8
0
  6
CONTINUOUS
 10
6.279240
 20
2.617120
  0
VERTEX
  8
0
  6
CONTINUOUS
 10
6.263840
 20
2.629440
  0
VERTEX
  8
0
  6
CONTINUOUS
 10
6.249760
 20
2.643080
  0
VERTEX
  8
0
  6
CONTINUOUS
 10
6.237000
 20
2.658040
  0
VERTEX
  8
0
  6
CONTINUOUS
 10
6.225560
 20
2.674320
  0
VERTEX
  8
0
  6
CONTINUOUS
 10
6.215880
 20
2.691480
  0
VERTEX
  8
0
  6
CONTINUOUS
 10
6.207960
 20
2.709960
  0
VERTEX
  8
0
  6
CONTINUOUS
 10
6.196080
 20
2.750440
  0
VERTEX
  8
0
  6
CONTINUOUS
 10
6.192560
 20
2.772000
  0
VERTEX
  8
0
  6
CONTINUOUS
 10
6.190360
 20
2.818200
  0
VERTEX
  8
0
  6
CONTINUOUS
 10
6.063200
 20
2.818200
  0
VERTEX
  8
0
  6
CONTINUOUS
 10
6.063200
 20
1.344200
  0
VERTEX
  8
0
  6
CONTINUOUS
 10
6.682720
 20
1.344200
  0
VERTEX
  8
0
  6
CONTINUOUS
 10
6.683160
 20
1.431320
  0
SEQEND
  8
0
  0
SOLID
  8
0
 62
    15
 10
4.598440
 20
1.910920
 11
5.246560
 21
2.275240
 12
4.583920
 22
1.891560
 13
5.231600
 23
2.255880
  0
POLYLINE
  8
0
  6
CONTINUOUS
 66
     1
 40
0.000000
 41
0.000000
  0
VERTEX
  8
0
  6
CONTINUOUS
 10
4.598440
 20
1.910920
  0
VERTEX
  8
0
  6
CONTINUOUS
 10
5.246560
 20
2.275240
  0
VERTEX
  8
0
  6
CONTINUOUS
 10
5.231600
 20
2.255880
  0
VERTEX
  8
0
  6
CONTINUOUS
 10
4.583920
 20
1.891560
  0
VERTEX
  8
0
  6
CONTINUOUS
 10
4.598440
 20
1.910920
  0
SEQEND
  8
0
  0
SOLID
  8
0
 62
     7
 10
4.270640
 20
2.430120
 11
4.918320
 21
2.794440
 12
4.272840
 22
2.383920
 13
4.920520
 23
2.748240
  0
POLYLINE
  8
0
  6
CONTINUOUS
 66
     1
 40
0.000000
 41
0.000000
  0
VERTEX
  8
0
  6
CONTINUOUS
 10
4.270640
 20
2.430120
  0
VERTEX
  8
0
  6
CONTINUOUS
 10
4.918320
 20
2.794440
  0
VERTEX
  8
0
  6
CONTINUOUS
 10
4.920520
 20
2.748240
  0
VERTEX
  8
0
  6
CONTINUOUS
 10
4.272840
 20
2.383920
  0
VERTEX
  8
0
  6
CONTINUOUS
 10
4.270640
 20
2.430120
  0
SEQEND
  8
0
  0
SOLID
  8
0
 62
     7
 10
4.272840
 20
2.383920
 11
4.920520
 21
2.748240
 12
4.281200
 22
2.341240
 13
4.929320
 23
2.705560
  0
POLYLINE
  8
0
  6
CONTINUOUS
 66
     1
 40
0.000000
 41
0.000000
  0
VERTEX
  8
0
  6
CONTINUOUS
 10
4.272840
 20
2.383920
  0
VERTEX
  8
0
  6
CONTINUOUS
 10
4.920520
 20
2.748240
  0
VERTEX
  8
0
  6
CONTINUOUS
 10
4.929320
 20
2.705560
  0
VERTEX
  8
0
  6
CONTINUOUS
 10
4.281200
 20
2.341240
  0
VERTEX
  8
0
  6
CONTINUOUS
 10
4.272840
 20
2.383920
  0
SEQEND
  8
0
  0
SOLID
  8
0
 62
     7
 10
4.281200
 20
2.341240
 11
4.929320
 21
2.705560
 12
4.296160
 22
2.303400
 13
4.943840
 23
2.667720
  0
POLYLINE
  8
0
  6
CONTINUOUS
 66
     1
 40
0.000000
 41
0.000000
  0
VERTEX
  8
0
  6
CONTINUOUS
 10
4.281200
 20
2.341240
  0
VERTEX
  8
0
  6
CONTINUOUS
 10
4.929320
 20
2.705560
  0
VERTEX
  8
0
  6
CONTINUOUS
 10
4.943840
 20
2.667720
  0
VERTEX
  8
0
  6
CONTINUOUS
 10
4.296160
 20
2.303400
  0
VERTEX
  8
0
  6
CONTINUOUS
 10
4.281200
 20
2.341240
  0
SEQEND
  8
0
  0
SOLID
  8
0
 62
     7
 10
4.296160
 20
2.303400
 11
4.943840
 21
2.667720
 12
4.317280
 22
2.269960
 13
4.964960
 23
2.634280
  0
POLYLINE
  8
0
  6
CONTINUOUS
 66
     1
 40
0.000000
 41
0.000000
  0
VERTEX
  8
0
  6
CONTINUOUS
 10
4.296160
 20
2.303400
  0
VERTEX
  8
0
  6
CONTINUOUS
 10
4.943840
 20
2.667720
  0
VERTEX
  8
0
  6
CONTINUOUS
 10
4.964960
 20
2.634280
  0
VERTEX
  8
0
  6
CONTINUOUS
 10
4.317280
 20
2.269960
  0
VERTEX
  8
0
  6
CONTINUOUS
 10
4.296160
 20
2.303400
  0
SEQEND
  8
0
  0
SOLID
  8
0
 62
     7
 10
4.317280
 20
2.269960
 11
4.964960
 21
2.634280
 12
4.343680
 22
2.241360
 13
4.991800
 23
2.605680
  0
POLYLINE
  8
0
  6
CONTINUOUS
 66
     1
 40
0.000000
 41
0.000000
  0
VERTEX
  8
0
  6
CONTINUOUS
 10
4.317280
 20
2.269960
  0
VERTEX
  8
0
  6
CONTINUOUS
 10
4.964960
 20
2.634280
  0
VERTEX
  8
0
  6
CONTINUOUS
 10
4.991800
 20
2.605680
  0
VERTEX
  8
0
  6
CONTINUOUS
 10
4.343680
 20
2.241360
  0
VERTEX
  8
0
  6
CONTINUOUS
 10
4.317280
 20
2.269960
  0
SEQEND
  8
0
  0
SOLID
  8
0
 62
     7
 10
4.343680
 20
2.241360
 11
4.991800
 21
2.605680
 12
4.376240
 22
2.218480
 13
5.023920
 23
2.582800
  0
POLYLINE
  8
0
  6
CONTINUOUS
 66
     1
 40
0.000000
 41
0.000000
  0
VERTEX
  8
0
  6
CONTINUOUS
 10
4.343680
 20
2.241360
  0
VERTEX
  8
0
  6
CONTINUOUS
 10
4.991800
 20
2.605680
  0
VERTEX
  8
0
  6
CONTINUOUS
 10
5.023920
 20
2.582800
  0
VERTEX
  8
0
  6
CONTINUOUS
 10
4.376240
 20
2.218480
  0
VERTEX
  8
0
  6
CONTINUOUS
 10
4.343680
 20
2.241360
  0
SEQEND
  8
0
  0
SOLID
  8
0
 62
    15
 10
4.376240
 20
2.218480
 11
5.023920
 21
2.582800
 12
4.414080
 22
2.201320
 13
5.061760
 23
2.565640
  0
POLYLINE
  8
0
  6
CONTINUOUS
 66
     1
 40
0.000000
 41
0.000000
  0
VERTEX
  8
0
  6
CONTINUOUS
 10
4.376240
 20
2.218480
  0
VERTEX
  8
0
  6
CONTINUOUS
 10
5.023920
 20
2.582800
  0
VERTEX
  8
0
  6
CONTINUOUS
 10
5.061760
 20
2.565640
  0
VERTEX
  8
0
  6
CONTINUOUS
 10
4.414080
 20
2.201320
  0
VERTEX
  8
0
  6
CONTINUOUS
 10
4.376240
 20
2.218480
  0
SEQEND
  8
0
  0
SOLID
  8
0
 62
    15
 10
4.414080
 20
2.201320
 11
5.061760
 21
2.565640
 12
4.457200
 22
2.190320
 13
5.105320
 23
2.554640
  0
POLYLINE
  8
0
  6
CONTINUOUS
 66
     1
 40
0.000000
 41
0.000000
  0
VERTEX
  8
0
  6
CONTINUOUS
 10
4.414080
 20
2.201320
  0
VERTEX
  8
0
  6
CONTINUOUS
 10
5.061760
 20
2.565640
  0
VERTEX
  8
0
  6
CONTINUOUS
 10
5.105320
 20
2.554640
  0
VERTEX
  8
0
  6
CONTINUOUS
 10
4.457200
 20
2.190320
  0
VERTEX
  8
0
  6
CONTINUOUS
 10
4.414080
 20
2.201320
  0
SEQEND
  8
0
  0
SOLID
  8
0
 62
    15
 10
4.457200
 20
2.190320
 11
5.105320
 21
2.554640
 12
4.457200
 22
2.119920
 13
5.105320
 23
2.484240
  0
POLYLINE
  8
0
  6
CONTINUOUS
 66
     1
 40
0.000000
 41
0.000000
  0
VERTEX
  8
0
  6
CONTINUOUS
 10
4.457200
 20
2.190320
  0
VERTEX
  8
0
  6
CONTINUOUS
 10
5.105320
 20
2.554640
  0
VERTEX
  8
0
  6
CONTINUOUS
 10
5.105320
 20
2.484240
  0
VERTEX
  8
0
  6
CONTINUOUS
 10
4.457200
 20
2.119920
  0
VERTEX
  8
0
  6
CONTINUOUS
 10
4.457200
 20
2.190320
  0
SEQEND
  8
0
  0
SOLID
  8
0
 62
    15
 10
4.457200
 20
2.119920
 11
5.105320
 21
2.484240
 12
4.488000
 22
2.117720
 13
5.135680
 23
2.482040
  0
POLYLINE
  8
0
  6
CONTINUOUS
 66
     1
 40
0.000000
 41
0.000000
  0
VERTEX
  8
0
  6
CONTINUOUS
 10
4.457200
 20
2.119920
  0
VERTEX
  8
0
  6
CONTINUOUS
 10
5.105320
 20
2.484240
  0
VERTEX
  8
0
  6
CONTINUOUS
 10
5.135680
 20
2.482040
  0
VERTEX
  8
0
  6
CONTINUOUS
 10
4.488000
 20
2.117720
  0
VERTEX
  8
0
  6
CONTINUOUS
 10
4.457200
 20
2.119920
  0
SEQEND
  8
0
  0
SOLID
  8
0
 62
    15
 10
4.488000
 20
2.117720
 11
5.135680
 21
2.482040
 12
4.515720
 22
2.110240
 13
5.163400
 23
2.474560
  0
POLYLINE
  8
0
  6
CONTINUOUS
 66
     1
 40
0.000000
 41
0.000000
  0
VERTEX
  8
0
  6
CONTINUOUS
 10
4.488000
 20
2.117720
  0
VERTEX
  8
0
  6
CONTINUOUS
 10
5.135680
 20
2.482040
  0
VERTEX
  8
0
  6
CONTINUOUS
 10
5.163400
 20
2.474560
  0
VERTEX
  8
0
  6
CONTINUOUS
 10
4.515720
 20
2.110240
  0
VERTEX
  8
0
  6
CONTINUOUS
 10
4.488000
 20
2.117720
  0
SEQEND
  8
0
  0
SOLID
  8
0
 62
    15
 10
4.515720
 20
2.110240
 11
5.163400
 21
2.474560
 12
4.540360
 22
2.098800
 13
5.188040
 23
2.463120
  0
POLYLINE
  8
0
  6
CONTINUOUS
 66
     1
 40
0.000000
 41
0.000000
  0
VERTEX
  8
0
  6
CONTINUOUS
 10
4.515720
 20
2.110240
  0
VERTEX
  8
0
  6
CONTINUOUS
 10
5.163400
 20
2.474560
  0
VERTEX
  8
0
  6
CONTINUOUS
 10
5.188040
 20
2.463120
  0
VERTEX
  8
0
  6
CONTINUOUS
 10
4.540360
 20
2.098800
  0
VERTEX
  8
0
  6
CONTINUOUS
 10
4.515720
 20
2.110240
  0
SEQEND
  8
0
  0
SOLID
  8
0
 62
     7
 10
4.540360
 20
2.098800
 11
5.188040
 21
2.463120
 12
4.561920
 22
2.084280
 13
5.209600
 23
2.448600
  0
POLYLINE
  8
0
  6
CONTINUOUS
 66
     1
 40
0.000000
 41
0.000000
  0
VERTEX
  8
0
  6
CONTINUOUS
 10
4.540360
 20
2.098800
  0
VERTEX
  8
0
  6
CONTINUOUS
 10
5.188040
 20
2.463120
  0
VERTEX
  8
0
  6
CONTINUOUS
 10
5.209600
 20
2.448600
  0
VERTEX
  8
0
  6
CONTINUOUS
 10
4.561920
 20
2.084280
  0
VERTEX
  8
0
  6
CONTINUOUS
 10
4.540360
 20
2.098800
  0
SEQEND
  8
0
  0
SOLID
  8
0
 62
     7
 10
4.561920
 20
2.084280
 11
5.209600
 21
2.448600
 12
4.579960
 22
2.066680
 13
5.227640
 23
2.431000
  0
POLYLINE
  8
0
  6
CONTINUOUS
 66
     1
 40
0.000000
 41
0.000000
  0
VERTEX
  8
0
  6
CONTINUOUS
 10
4.561920
 20
2.084280
  0
VERTEX
  8
0
  6
CONTINUOUS
 10
5.209600
 20
2.448600
  0
VERTEX
  8
0
  6
CONTINUOUS
 10
5.227640
 20
2.431000
  0
VERTEX
  8
0
  6
CONTINUOUS
 10
4.579960
 20
2.066680
  0
VERTEX
  8
0
  6
CONTINUOUS
 10
4.561920
 20
2.084280
  0
SEQEND
  8
0
  0
SOLID
  8
0
 62
     7
 10
4.579960
 20
2.066680
 11
5.227640
 21
2.431000
 12
4.594480
 22
2.046440
 13
5.242160
 23
2.410760
  0
POLYLINE
  8
0
  6
CONTINUOUS
 66
     1
 40
0.000000
 41
0.000000
  0
VERTEX
  8
0
  6
CONTINUOUS
 10
4.579960
 20
2.066680
  0
VERTEX
  8
0
  6
CONTINUOUS
 10
5.227640
 20
2.431000
  0
VERTEX
  8
0
  6
CONTINUOUS
 10
5.242160
 20
2.410760
  0
VERTEX
  8
0
  6
CONTINUOUS
 10
4.594480
 20
2.046440
  0
VERTEX
  8
0
  6
CONTINUOUS
 10
4.579960
 20
2.066680
  0
SEQEND
  8
0
  0
SOLID
  8
0
 62
     7
 10
4.594480
 20
2.046440
 11
5.242160
 21
2.410760
 12
4.605480
 22
2.024880
 13
5.253160
 23
2.389200
  0
POLYLINE
  8
0
  6
CONTINUOUS
 66
     1
 40
0.000000
 41
0.000000
  0
VERTEX
  8
0
  6
CONTINUOUS
 10
4.594480
 20
2.046440
  0
VERTEX
  8
0
  6
CONTINUOUS
 10
5.242160
 20
2.410760
  0
VERTEX
  8
0
  6
CONTINUOUS
 10
5.253160
 20
2.389200
  0
VERTEX
  8
0
  6
CONTINUOUS
 10
4.605480
 20
2.024880
  0
VERTEX
  8
0
  6
CONTINUOUS
 10
4.594480
 20
2.046440
  0
SEQEND
  8
0
  0
SOLID
  8
0
 62
     7
 10
4.605480
 20
2.024880
 11
5.253160
 21
2.389200
 12
4.612520
 22
2.002000
 13
5.260200
 23
2.366320
  0
POLYLINE
  8
0
  6
CONTINUOUS
 66
     1
 40
0.000000
 41
0.000000
  0
VERTEX
  8
0
  6
CONTINUOUS
 10
4.605480
 20
2.024880
  0
VERTEX
  8
0
  6
CONTINUOUS
 10
5.253160
 20
2.389200
  0
VERTEX
  8
0
  6
CONTINUOUS
 10
5.260200
 20
2.366320
  0
VERTEX
  8
0
  6
CONTINUOUS
 10
4.612520
 20
2.002000
  0
VERTEX
  8
0
  6
CONTINUOUS
 10
4.605480
 20
2.024880
  0
SEQEND
  8
0
  0
SOLID
  8
0
 62
     7
 10
4.612520
 20
2.002000
 11
5.260200
 21
2.366320
 12
4.615600
 22
1.978680
 13
5.263280
 23
2.343000
  0
POLYLINE
  8
0
  6
CONTINUOUS
 66
     1
 40
0.000000
 41
0.000000
  0
VERTEX
  8
0
  6
CONTINUOUS
 10
4.612520
 20
2.002000
  0
VERTEX
  8
0
  6
CONTINUOUS
 10
5.260200
 20
2.366320
  0
VERTEX
  8
0
  6
CONTINUOUS
 10
5.263280
 20
2.343000
  0
VERTEX
  8
0
  6
CONTINUOUS
 10
4.615600
 20
1.978680
  0
VERTEX
  8
0
  6
CONTINUOUS
 10
4.612520
 20
2.002000
  0
SEQEND
  8
0
  0
SOLID
  8
0
 62
    15
 10
4.615600
 20
1.978680
 11
5.263280
 21
2.343000
 12
4.614280
 22
1.955360
 13
5.261960
 23
2.319680
  0
POLYLINE
  8
0
  6
CONTINUOUS
 66
     1
 40
0.000000
 41
0.000000
  0
VERTEX
  8
0
  6
CONTINUOUS
 10
4.615600
 20
1.978680
  0
VERTEX
  8
0
  6
CONTINUOUS
 10
5.263280
 20
2.343000
  0
VERTEX
  8
0
  6
CONTINUOUS
 10
5.261960
 20
2.319680
  0
VERTEX
  8
0
  6
CONTINUOUS
 10
4.614280
 20
1.955360
  0
VERTEX
  8
0
  6
CONTINUOUS
 10
4.615600
 20
1.978680
  0
SEQEND
  8
0
  0
SOLID
  8
0
 62
    15
 10
4.614280
 20
1.955360
 11
5.261960
 21
2.319680
 12
4.608560
 22
1.932480
 13
5.256240
 23
2.296800
  0
POLYLINE
  8
0
  6
CONTINUOUS
 66
     1
 40
0.000000
 41
0.000000
  0
VERTEX
  8
0
  6
CONTINUOUS
 10
4.614280
 20
1.955360
  0
VERTEX
  8
0
  6
CONTINUOUS
 10
5.261960
 20
2.319680
  0
VERTEX
  8
0
  6
CONTINUOUS
 10
5.256240
 20
2.296800
  0
VERTEX
  8
0
  6
CONTINUOUS
 10
4.608560
 20
1.932480
  0
VERTEX
  8
0
  6
CONTINUOUS
 10
4.614280
 20
1.955360
  0
SEQEND
  8
0
  0
SOLID
  8
0
 62
    15
 10
4.608560
 20
1.932480
 11
5.256240
 21
2.296800
 12
4.598440
 22
1.910920
 13
5.246560
 23
2.275240
  0
POLYLINE
  8
0
  6
CONTINUOUS
 66
     1
 40
0.000000
 41
0.000000
  0
VERTEX
  8
0
  6
CONTINUOUS
 10
4.608560
 20
1.932480
  0
VERTEX
  8
0
  6
CONTINUOUS
 10
5.256240
 20
2.296800
  0
VERTEX
  8
0
  6
CONTINUOUS
 10
5.246560
 20
2.275240
  0
VERTEX
  8
0
  6
CONTINUOUS
 10
4.598440
 20
1.910920
  0
VERTEX
  8
0
  6
CONTINUOUS
 10
4.608560
 20
1.932480
  0
SEQEND
  8
0
  0
SOLID
  8
0
 62
    15
 10
4.143480
 20
2.430120
 11
4.791160
 21
2.794440
 12
4.270640
 22
2.430120
 13
4.918320
 23
2.794440
  0
POLYLINE
  8
0
  6
CONTINUOUS
 66
     1
 40
0.000000
 41
0.000000
  0
VERTEX
  8
0
  6
CONTINUOUS
 10
4.143480
 20
2.430120
  0
VERTEX
  8
0
  6
CONTINUOUS
 10
4.791160
 20
2.794440
  0
VERTEX
  8
0
  6
CONTINUOUS
 10
4.918320
 20
2.794440
  0
VERTEX
  8
0
  6
CONTINUOUS
 10
4.270640
 20
2.430120
  0
VERTEX
  8
0
  6
CONTINUOUS
 10
4.143480
 20
2.430120
  0
SEQEND
  8
0
  0
SOLID
  8
0
 62
    15
 10
4.510440
 20
1.849320
 11
5.158120
 21
2.213640
 12
4.510440
 22
1.786840
 13
5.158120
 23
2.151160
  0
POLYLINE
  8
0
  6
CONTINUOUS
 66
     1
 40
0.000000
 41
0.000000
  0
VERTEX
  8
0
  6
CONTINUOUS
 10
4.510440
 20
1.849320
  0
VERTEX
  8
0
  6
CONTINUOUS
 10
5.158120
 20
2.213640
  0
VERTEX
  8
0
  6
CONTINUOUS
 10
5.158120
 20
2.151160
  0
VERTEX
  8
0
  6
CONTINUOUS
 10
4.510440
 20
1.786840
  0
VERTEX
  8
0
  6
CONTINUOUS
 10
4.510440
 20
1.849320
  0
SEQEND
  8
0
  0
SOLID
  8
0
 62
    15
 10
4.564560
 20
1.874400
 11
5.212240
 21
2.238720
 12
4.539920
 22
1.859880
 13
5.187600
 23
2.224200
  0
POLYLINE
  8
0
  6
CONTINUOUS
 66
     1
 40
0.000000
 41
0.000000
  0
VERTEX
  8
0
  6
CONTINUOUS
 10
4.564560
 20
1.874400
  0
VERTEX
  8
0
  6
CONTINUOUS
 10
5.212240
 20
2.238720
  0
VERTEX
  8
0
  6
CONTINUOUS
 10
5.187600
 20
2.224200
  0
VERTEX
  8
0
  6
CONTINUOUS
 10
4.539920
 20
1.859880
  0
VERTEX
  8
0
  6
CONTINUOUS
 10
4.564560
 20
1.874400
  0
SEQEND
  8
0
  0
SOLID
  8
0
 62
    15
 10
4.583920
 20
1.891560
 11
5.231600
 21
2.255880
 12
4.564560
 22
1.874400
 13
5.212240
 23
2.238720
  0
POLYLINE
  8
0
  6
CONTINUOUS
 66
     1
 40
0.000000
 41
0.000000
  0
VERTEX
  8
0
  6
CONTINUOUS
 10
4.583920
 20
1.891560
  0
VERTEX
  8
0
  6
CONTINUOUS
 10
5.231600
 20
2.255880
  0
VERTEX
  8
0
  6
CONTINUOUS
 10
5.212240
 20
2.238720
  0
VERTEX
  8
0
  6
CONTINUOUS
 10
4.564560
 20
1.874400
  0
VERTEX
  8
0
  6
CONTINUOUS
 10
4.583920
 20
1.891560
  0
SEQEND
  8
0
  0
SOLID
  8
0
 62
     7
 10
4.510440
 20
1.786840
 11
5.158120
 21
2.151160
 12
4.561040
 22
1.764400
 13
5.208720
 23
2.128720
  0
POLYLINE
  8
0
  6
CONTINUOUS
 66
     1
 40
0.000000
 41
0.000000
  0
VERTEX
  8
0
  6
CONTINUOUS
 10
4.510440
 20
1.786840
  0
VERTEX
  8
0
  6
CONTINUOUS
 10
5.158120
 20
2.151160
  0
VERTEX
  8
0
  6
CONTINUOUS
 10
5.208720
 20
2.128720
  0
VERTEX
  8
0
  6
CONTINUOUS
 10
4.561040
 20
1.764400
  0
VERTEX
  8
0
  6
CONTINUOUS
 10
4.510440
 20
1.786840
  0
SEQEND
  8
0
  0
SOLID
  8
0
 62
     7
 10
4.561040
 20
1.764400
 11
5.208720
 21
2.128720
 12
4.608120
 22
1.740640
 13
5.255800
 23
2.104960
  0
POLYLINE
  8
0
  6
CONTINUOUS
 66
     1
 40
0.000000
 41
0.000000
  0
VERTEX
  8
0
  6
CONTINUOUS
 10
4.561040
 20
1.764400
  0
VERTEX
  8
0
  6
CONTINUOUS
 10
5.208720
 20
2.128720
  0
VERTEX
  8
0
  6
CONTINUOUS
 10
5.255800
 20
2.104960
  0
VERTEX
  8
0
  6
CONTINUOUS
 10
4.608120
 20
1.740640
  0
VERTEX
  8
0
  6
CONTINUOUS
 10
4.561040
 20
1.764400
  0
SEQEND
  8
0
  0
SOLID
  8
0
 62
     7
 10
4.608120
 20
1.740640
 11
5.255800
 21
2.104960
 12
4.651680
 22
1.716440
 13
5.299360
 23
2.080760
  0
POLYLINE
  8
0
  6
CONTINUOUS
 66
     1
 40
0.000000
 41
0.000000
  0
VERTEX
  8
0
  6
CONTINUOUS
 10
4.608120
 20
1.740640
  0
VERTEX
  8
0
  6
CONTINUOUS
 10
5.255800
 20
2.104960
  0
VERTEX
  8
0
  6
CONTINUOUS
 10
5.299360
 20
2.080760
  0
VERTEX
  8
0
  6
CONTINUOUS
 10
4.651680
 20
1.716440
  0
VERTEX
  8
0
  6
CONTINUOUS
 10
4.608120
 20
1.740640
  0
SEQEND
  8
0
  0
SOLID
  8
0
 62
     7
 10
4.651680
 20
1.716440
 11
5.299360
 21
2.080760
 12
4.691280
 22
1.690920
 13
5.338960
 23
2.055680
  0
POLYLINE
  8
0
  6
CONTINUOUS
 66
     1
 40
0.000000
 41
0.000000
  0
VERTEX
  8
0
  6
CONTINUOUS
 10
4.651680
 20
1.716440
  0
VERTEX
  8
0
  6
CONTINUOUS
 10
5.299360
 20
2.080760
  0
VERTEX
  8
0
  6
CONTINUOUS
 10
5.338960
 20
2.055680
  0
VERTEX
  8
0
  6
CONTINUOUS
 10
4.691280
 20
1.690920
  0
VERTEX
  8
0
  6
CONTINUOUS
 10
4.651680
 20
1.716440
  0
SEQEND
  8
0
  0
SOLID
  8
0
 62
     7
 10
4.691280
 20
1.690920
 11
5.338960
 21
2.055680
 12
4.760800
 22
1.638560
 13
5.408480
 23
2.002880
  0
POLYLINE
  8
0
  6
CONTINUOUS
 66
     1
 40
0.000000
 41
0.000000
  0
VERTEX
  8
0
  6
CONTINUOUS
 10
4.691280
 20
1.690920
  0
VERTEX
  8
0
  6
CONTINUOUS
 10
5.338960
 20
2.055680
  0
VERTEX
  8
0
  6
CONTINUOUS
 10
5.408480
 20
2.002880
  0
VERTEX
  8
0
  6
CONTINUOUS
 10
4.760800
 20
1.638560
  0
VERTEX
  8
0
  6
CONTINUOUS
 10
4.691280
 20
1.690920
  0
SEQEND
  8
0
  0
SOLID
  8
0
 62
     7
 10
4.760800
 20
1.638560
 11
5.408480
 21
2.002880
 12
4.817120
 22
1.583560
 13
5.464800
 23
1.947880
  0
POLYLINE
  8
0
  6
CONTINUOUS
 66
     1
 40
0.000000
 41
0.000000
  0
VERTEX
  8
0
  6
CONTINUOUS
 10
4.760800
 20
1.638560
  0
VERTEX
  8
0
  6
CONTINUOUS
 10
5.408480
 20
2.002880
  0
VERTEX
  8
0
  6
CONTINUOUS
 10
5.464800
 20
1.947880
  0
VERTEX
  8
0
  6
CONTINUOUS
 10
4.817120
 20
1.583560
  0
VERTEX
  8
0
  6
CONTINUOUS
 10
4.760800
 20
1.638560
  0
SEQEND
  8
0
  0
SOLID
  8
0
 62
     7
 10
4.817120
 20
1.583560
 11
5.464800
 21
1.947880
 12
4.861120
 22
1.527680
 13
5.508800
 23
1.892000
  0
POLYLINE
  8
0
  6
CONTINUOUS
 66
     1
 40
0.000000
 41
0.000000
  0
VERTEX
  8
0
  6
CONTINUOUS
 10
4.817120
 20
1.583560
  0
VERTEX
  8
0
  6
CONTINUOUS
 10
5.464800
 20
1.947880
  0
VERTEX
  8
0
  6
CONTINUOUS
 10
5.508800
 20
1.892000
  0
VERTEX
  8
0
  6
CONTINUOUS
 10
4.861120
 20
1.527680
  0
VERTEX
  8
0
  6
CONTINUOUS
 10
4.817120
 20
1.583560
  0
SEQEND
  8
0
  0
SOLID
  8
0
 62
     7
 10
4.861120
 20
1.527680
 11
5.508800
 21
1.892000
 12
4.893680
 22
1.470480
 13
5.541360
 23
1.834800
  0
POLYLINE
  8
0
  6
CONTINUOUS
 66
     1
 40
0.000000
 41
0.000000
  0
VERTEX
  8
0
  6
CONTINUOUS
 10
4.861120
 20
1.527680
  0
VERTEX
  8
0
  6
CONTINUOUS
 10
5.508800
 20
1.892000
  0
VERTEX
  8
0
  6
CONTINUOUS
 10
5.541360
 20
1.834800
  0
VERTEX
  8
0
  6
CONTINUOUS
 10
4.893680
 20
1.470480
  0
VERTEX
  8
0
  6
CONTINUOUS
 10
4.861120
 20
1.527680
  0
SEQEND
  8
0
  0
SOLID
  8
0
 62
     7
 10
4.893680
 20
1.470480
 11
5.541360
 21
1.834800
 12
4.915680
 22
1.414160
 13
5.563360
 23
1.778480
  0
POLYLINE
  8
0
  6
CONTINUOUS
 66
     1
 40
0.000000
 41
0.000000
  0
VERTEX
  8
0
  6
CONTINUOUS
 10
4.893680
 20
1.470480
  0
VERTEX
  8
0
  6
CONTINUOUS
 10
5.541360
 20
1.834800
  0
VERTEX
  8
0
  6
CONTINUOUS
 10
5.563360
 20
1.778480
  0
VERTEX
  8
0
  6
CONTINUOUS
 10
4.915680
 20
1.414160
  0
VERTEX
  8
0
  6
CONTINUOUS
 10
4.893680
 20
1.470480
  0
SEQEND
  8
0
  0
SOLID
  8
0
 62
     7
 10
4.915680
 20
1.414160
 11
5.563360
 21
1.778480
 12
4.928000
 22
1.358280
 13
5.575680
 23
1.722600
  0
POLYLINE
  8
0
  6
CONTINUOUS
 66
     1
 40
0.000000
 41
0.000000
  0
VERTEX
  8
0
  6
CONTINUOUS
 10
4.915680
 20
1.414160
  0
VERTEX
  8
0
  6
CONTINUOUS
 10
5.563360
 20
1.778480
  0
VERTEX
  8
0
  6
CONTINUOUS
 10
5.575680
 20
1.722600
  0
VERTEX
  8
0
  6
CONTINUOUS
 10
4.928000
 20
1.358280
  0
VERTEX
  8
0
  6
CONTINUOUS
 10
4.915680
 20
1.414160
  0
SEQEND
  8
0
  0
SOLID
  8
0
 62
    15
 10
4.928000
 20
1.358280
 11
5.575680
 21
1.722600
 12
4.930640
 22
1.304600
 13
5.578760
 23
1.668920
  0
POLYLINE
  8
0
  6
CONTINUOUS
 66
     1
 40
0.000000
 41
0.000000
  0
VERTEX
  8
0
  6
CONTINUOUS
 10
4.928000
 20
1.358280
  0
VERTEX
  8
0
  6
CONTINUOUS
 10
5.575680
 20
1.722600
  0
VERTEX
  8
0
  6
CONTINUOUS
 10
5.578760
 20
1.668920
  0
VERTEX
  8
0
  6
CONTINUOUS
 10
4.930640
 20
1.304600
  0
VERTEX
  8
0
  6
CONTINUOUS
 10
4.928000
 20
1.358280
  0
SEQEND
  8
0
  0
SOLID
  8
0
 62
    15
 10
4.930640
 20
1.304600
 11
5.578760
 21
1.668920
 12
4.925360
 22
1.253120
 13
5.573480
 23
1.617440
  0
POLYLINE
  8
0
  6
CONTINUOUS
 66
     1
 40
0.000000
 41
0.000000
  0
VERTEX
  8
0
  6
CONTINUOUS
 10
4.930640
 20
1.304600
  0
VERTEX
  8
0
  6
CONTINUOUS
 10
5.578760
 20
1.668920
  0
VERTEX
  8
0
  6
CONTINUOUS
 10
5.573480
 20
1.617440
  0
VERTEX
  8
0
  6
CONTINUOUS
 10
4.925360
 20
1.253120
  0
VERTEX
  8
0
  6
CONTINUOUS
 10
4.930640
 20
1.304600
  0
SEQEND
  8
0
  0
SOLID
  8
0
 62
    15
 10
4.925360
 20
1.253120
 11
5.573480
 21
1.617440
 12
4.912600
 22
1.205160
 13
5.560280
 23
1.569480
  0
POLYLINE
  8
0
  6
CONTINUOUS
 66
     1
 40
0.000000
 41
0.000000
  0
VERTEX
  8
0
  6
CONTINUOUS
 10
4.925360
 20
1.253120
  0
VERTEX
  8
0
  6
CONTINUOUS
 10
5.573480
 20
1.617440
  0
VERTEX
  8
0
  6
CONTINUOUS
 10
5.560280
 20
1.569480
  0
VERTEX
  8
0
  6
CONTINUOUS
 10
4.912600
 20
1.205160
  0
VERTEX
  8
0
  6
CONTINUOUS
 10
4.925360
 20
1.253120
  0
SEQEND
  8
0
  0
SOLID
  8
0
 62
    15
 10
4.912600
 20
1.205160
 11
5.560280
 21
1.569480
 12
4.893240
 22
1.161160
 13
5.540920
 23
1.525480
  0
POLYLINE
  8
0
  6
CONTINUOUS
 66
     1
 40
0.000000
 41
0.000000
  0
VERTEX
  8
0
  6
CONTINUOUS
 10
4.912600
 20
1.205160
  0
VERTEX
  8
0
  6
CONTINUOUS
 10
5.560280
 20
1.569480
  0
VERTEX
  8
0
  6
CONTINUOUS
 10
5.540920
 20
1.525480
  0
VERTEX
  8
0
  6
CONTINUOUS
 10
4.893240
 20
1.161160
  0
VERTEX
  8
0
  6
CONTINUOUS
 10
4.912600
 20
1.205160
  0
SEQEND
  8
0
  0
SOLID
  8
0
 62
    15
 10
4.893240
 20
1.161160
 11
5.540920
 21
1.525480
 12
4.867720
 22
1.122440
 13
5.515400
 23
1.486760
  0
POLYLINE
  8
0
  6
CONTINUOUS
 66
     1
 40
0.000000
 41
0.000000
  0
VERTEX
  8
0
  6
CONTINUOUS
 10
4.893240
 20
1.161160
  0
VERTEX
  8
0
  6
CONTINUOUS
 10
5.540920
 20
1.525480
  0
VERTEX
  8
0
  6
CONTINUOUS
 10
5.515400
 20
1.486760
  0
VERTEX
  8
0
  6
CONTINUOUS
 10
4.867720
 20
1.122440
  0
VERTEX
  8
0
  6
CONTINUOUS
 10
4.893240
 20
1.161160
  0
SEQEND
  8
0
  0
SOLID
  8
0
 62
    15
 10
4.867720
 20
1.122440
 11
5.515400
 21
1.486760
 12
4.836920
 22
1.089000
 13
5.485040
 23
1.453320
  0
POLYLINE
  8
0
  6
CONTINUOUS
 66
     1
 40
0.000000
 41
0.000000
  0
VERTEX
  8
0
  6
CONTINUOUS
 10
4.867720
 20
1.122440
  0
VERTEX
  8
0
  6
CONTINUOUS
 10
5.515400
 20
1.486760
  0
VERTEX
  8
0
  6
CONTINUOUS
 10
5.485040
 20
1.453320
  0
VERTEX
  8
0
  6
CONTINUOUS
 10
4.836920
 20
1.089000
  0
VERTEX
  8
0
  6
CONTINUOUS
 10
4.867720
 20
1.122440
  0
SEQEND
  8
0
  0
SOLID
  8
0
 62
    15
 10
4.763440
 20
1.042800
 11
5.411560
 21
1.407120
 12
4.763000
 22
0.955680
 13
5.410680
 23
1.320000
  0
POLYLINE
  8
0
  6
CONTINUOUS
 66
     1
 40
0.000000
 41
0.000000
  0
VERTEX
  8
0
  6
CONTINUOUS
 10
4.763440
 20
1.042800
  0
VERTEX
  8
0
  6
CONTINUOUS
 10
5.411560
 20
1.407120
  0
VERTEX
  8
0
  6
CONTINUOUS
 10
5.410680
 20
1.320000
  0
VERTEX
  8
0
  6
CONTINUOUS
 10
4.763000
 20
0.955680
  0
VERTEX
  8
0
  6
CONTINUOUS
 10
4.763440
 20
1.042800
  0
SEQEND
  8
0
  0
SOLID
  8
0
 62
    15
 10
4.836920
 20
1.089000
 11
5.485040
 21
1.453320
 12
4.802160
 22
1.062600
 13
5.449840
 23
1.426920
  0
POLYLINE
  8
0
  6
CONTINUOUS
 66
     1
 40
0.000000
 41
0.000000
  0
VERTEX
  8
0
  6
CONTINUOUS
 10
4.836920
 20
1.089000
  0
VERTEX
  8
0
  6
CONTINUOUS
 10
5.485040
 20
1.453320
  0
VERTEX
  8
0
  6
CONTINUOUS
 10
5.449840
 20
1.426920
  0
VERTEX
  8
0
  6
CONTINUOUS
 10
4.802160
 20
1.062600
  0
VERTEX
  8
0
  6
CONTINUOUS
 10
4.836920
 20
1.089000
  0
SEQEND
  8
0
  0
POLYLINE
  8
0
  6
CONTINUOUS
 66
     1
 40
0.000000
 41
0.000000
  0
VERTEX
  8
0
  6
CONTINUOUS
 10
4.763000
 20
0.955680
  0
VERTEX
  8
0
  6
CONTINUOUS
 10
4.143480
 20
0.955680
  0
VERTEX
  8
0
  6
CONTINUOUS
 10
4.143480
 20
2.430120
  0
VERTEX
  8
0
  6
CONTINUOUS
 10
4.270640
 20
2.430120
  0
VERTEX
  8
0
  6
CONTINUOUS
 10
4.272840
 20
2.383920
  0
VERTEX
  8
0
  6
CONTINUOUS
 10
4.281200
 20
2.341240
  0
VERTEX
  8
0
  6
CONTINUOUS
 10
4.296160
 20
2.303400
  0
VERTEX
  8
0
  6
CONTINUOUS
 10
4.317280
 20
2.269960
  0
VERTEX
  8
0
  6
CONTINUOUS
 10
4.343680
 20
2.241360
  0
VERTEX
  8
0
  6
CONTINUOUS
 10
4.376240
 20
2.218480
  0
VERTEX
  8
0
  6
CONTINUOUS
 10
4.414080
 20
2.201320
  0
VERTEX
  8
0
  6
CONTINUOUS
 10
4.457200
 20
2.190320
  0
VERTEX
  8
0
  6
CONTINUOUS
 10
4.457200
 20
2.119920
  0
VERTEX
  8
0
  6
CONTINUOUS
 10
4.488000
 20
2.117720
  0
VERTEX
  8
0
  6
CONTINUOUS
 10
4.515720
 20
2.110240
  0
VERTEX
  8
0
  6
CONTINUOUS
 10
4.540360
 20
2.098800
  0
VERTEX
  8
0
  6
CONTINUOUS
 10
4.561920
 20
2.084280
  0
VERTEX
  8
0
  6
CONTINUOUS
 10
4.579960
 20
2.066680
  0
VERTEX
  8
0
  6
CONTINUOUS
 10
4.594480
 20
2.046440
  0
VERTEX
  8
0
  6
CONTINUOUS
 10
4.605480
 20
2.024880
  0
VERTEX
  8
0
  6
CONTINUOUS
 10
4.612520
 20
2.002000
  0
VERTEX
  8
0
  6
CONTINUOUS
 10
4.615600
 20
1.978680
  0
VERTEX
  8
0
  6
CONTINUOUS
 10
4.614280
 20
1.955360
  0
VERTEX
  8
0
  6
CONTINUOUS
 10
4.608560
 20
1.932480
  0
VERTEX
  8
0
  6
CONTINUOUS
 10
4.598440
 20
1.910920
  0
VERTEX
  8
0
  6
CONTINUOUS
 10
4.583920
 20
1.891560
  0
VERTEX
  8
0
  6
CONTINUOUS
 10
4.564560
 20
1.874400
  0
VERTEX
  8
0
  6
CONTINUOUS
 10
4.539920
 20
1.859880
  0
VERTEX
  8
0
  6
CONTINUOUS
 10
4.510440
 20
1.849320
  0
VERTEX
  8
0
  6
CONTINUOUS
 10
4.510440
 20
1.786840
  0
VERTEX
  8
0
  6
CONTINUOUS
 10
4.561040
 20
1.764400
  0
VERTEX
  8
0
  6
CONTINUOUS
 10
4.608120
 20
1.740640
  0
VERTEX
  8
0
  6
CONTINUOUS
 10
4.651680
 20
1.716440
  0
VERTEX
  8
0
  6
CONTINUOUS
 10
4.691280
 20
1.690920
  0
VERTEX
  8
0
  6
CONTINUOUS
 10
4.760800
 20
1.638560
  0
VERTEX
  8
0
  6
CONTINUOUS
 10
4.817120
 20
1.583560
  0
VERTEX
  8
0
  6
CONTINUOUS
 10
4.861120
 20
1.527680
  0
VERTEX
  8
0
  6
CONTINUOUS
 10
4.893680
 20
1.470480
  0
VERTEX
  8
0
  6
CONTINUOUS
 10
4.915680
 20
1.414160
  0
VERTEX
  8
0
  6
CONTINUOUS
 10
4.928000
 20
1.358280
  0
VERTEX
  8
0
  6
CONTINUOUS
 10
4.930640
 20
1.304600
  0
VERTEX
  8
0
  6
CONTINUOUS
 10
4.925360
 20
1.253120
  0
VERTEX
  8
0
  6
CONTINUOUS
 10
4.912600
 20
1.205160
  0
VERTEX
  8
0
  6
CONTINUOUS
 10
4.893240
 20
1.161160
  0
VERTEX
  8
0
  6
CONTINUOUS
 10
4.867720
 20
1.122440
  0
VERTEX
  8
0
  6
CONTINUOUS
 10
4.836920
 20
1.089000
  0
VERTEX
  8
0
  6
CONTINUOUS
 10
4.802160
 20
1.062600
  0
VERTEX
  8
0
  6
CONTINUOUS
 10
4.763440
 20
1.042800
  0
VERTEX
  8
0
  6
CONTINUOUS
 10
4.763000
 20
0.955680
  0
SEQEND
  8
0
  0
TEXT
  8
0
 10
4.566760
 20
0.718960
 40
0.138143
  1
BA  451
 41
1.000000
  7
SN0
 71
     0
 72
     5
 11
5.156782
 21
0.718960
  0
TEXT
  8
0
 10
4.411000
 20
0.527560
 40
0.138143
  1
3/4" x 1-1/2"
 41
1.000000
  7
SN0
 71
     0
 72
     5
 11
5.310966
 21
0.527560
  0
ENDSEC
  0
EOF
