  0
SECTION
  2
HEADER
  9
$ACADVER
  1
AC1006
  9
$EXTMIN
 10
3.014000
 20
0.654720
  9
$EXTMAX
 10
7.360760
 20
3.953400
  9
$LTSCALE
 40
0.044000
  9
$PDMODE
 70
    35
  9
$PDSIZE
 40
0.035200
  0
ENDSEC
  0
SECTION
  2
TABLES
  0
TABLE
  2
LTYPE
 70
     9
  0
LTYPE
  2
CONTINUOUS
 70
    64
  3
Solid line
 72
    65
 73
     0
 40
0.000000
  0
LTYPE
  2
DASHED
 70
    64
  3
__ __ __ __ __ __ __ __ __ __ __ __ __ __ __
 72
    65
 73
     2
 40
0.000330
 49
0.000220
 49
-0.000110
  0
LTYPE
  2
HIDDEN
 70
    64
  3
 _ _ _ _ _ _ _ _ _ _ _ _ _ _ _ _ _ _ _ _ _ _
 72
    65
 73
     2
 40
0.000165
 49
0.000110
 49
-0.000055
  0
LTYPE
  2
CENTER
 70
    64
  3
____ _ ____ _ ____ _ ____ _ ____ _ ____ _ ____
 72
    65
 73
     4
 40
0.000880
 49
0.000550
 49
-0.000110
 49
0.000110
 49
-0.000110
  0
LTYPE
  2
PHANTOM
 70
    64
  3
_____ _ _ _____ _ _ _____ _ _ _____ _ _ ____
 72
    65
 73
     6
 40
0.001100
 49
0.000550
 49
-0.000110
 49
0.000110
 49
-0.000110
 49
0.000110
 49
-0.000110
  0
LTYPE
  2
DOT
 70
    64
  3
...............................................
 72
    65
 73
     2
 40
0.000110
 49
0.000000
 49
-0.000110
  0
LTYPE
  2
DASHDOT
 70
    64
  3
__ . __ . __ . __ . __ . __ . __ . __ . __ . __
 72
    65
 73
     4
 40
0.000440
 49
0.000220
 49
-0.000110
 49
0.000000
 49
-0.000110
  0
LTYPE
  2
BORDER
 70
    64
  3
__ __ . __ __ . __ __ . __ __ . __ __ . __ __
 72
    65
 73
     6
 40
0.000770
 49
0.000220
 49
-0.000110
 49
0.000220
 49
-0.000110
 49
0.000000
 49
-0.000110
  0
LTYPE
  2
DIVIDE
 70
    64
  3
__ . . __ . . __ . . __ . . __ . . __ . . __
 72
    65
 73
     6
 40
0.000550
 49
0.000220
 49
-0.000110
 49
0.000000
 49
-0.000110
 49
0.000000
 49
-0.000110
  0
LTYPE
  2
DOTDOT
 70
    64
  3
 . .  . .  . .  . .  . .  . . 
 72
    65
 73
     5
 40
0.000242
 49
-0.000110
 49
0.000000
 49
-0.000110
 49
0.000000
 49
-0.000110
  0
ENDTAB
  0
TABLE
  2
STYLE
 70
     2
  0
STYLE
 70
     0
  2
SN0
 40
0.000000
 41
0.000440
 50
0.000000
 71
     0
 42
0.000000
  3
ROMAND
  0
STYLE
 70
    68
  2
SV0
 40
0.000000
 41
0.000440
 50
0.000000
 71
     0
 42
0.000000
  3
ROMAND
  0
ENDTAB
  0
TABLE
  2
LAYER
 70
     3
  0
LAYER
  2
FOREGROUND
 70
    64
 62
     7
  6
CONTINUOUS
  0
LAYER
  2
BACKGROUND
 70
    65
 62
    -7
  6
CONTINUOUS
  0
LAYER
  2
0
 70
    64
 62
     7
  6
CONTINUOUS
  0
ENDTAB
  0
ENDSEC
  0
SECTION
  2
ENTITIES
  0
POLYLINE
  8
FOREGROUND
  6
CONTINUOUS
 66
     1
 40
0.000000
 41
0.000000
  0
VERTEX
  8
FOREGROUND
  6
CONTINUOUS
 10
0.000000
 20
4.608120
  0
VERTEX
  8
FOREGROUND
  6
CONTINUOUS
 10
8.499920
 20
4.608120
  0
VERTEX
  8
FOREGROUND
  6
CONTINUOUS
 10
8.499920
 20
-6.391880
  0
VERTEX
  8
FOREGROUND
  6
CONTINUOUS
 10
0.000000
 20
-6.391880
  0
VERTEX
  8
FOREGROUND
  6
CONTINUOUS
 10
0.000000
 20
4.608120
  0
SEQEND
  8
0
  0
POLYLINE
  8
FOREGROUND
  6
CONTINUOUS
 66
     1
 40
0.000000
 41
0.000000
  0
VERTEX
  8
FOREGROUND
  6
CONTINUOUS
 10
0.000000
 20
4.608120
  0
VERTEX
  8
FOREGROUND
  6
CONTINUOUS
 10
8.499920
 20
4.608120
  0
VERTEX
  8
FOREGROUND
  6
CONTINUOUS
 10
8.499920
 20
-6.391880
  0
VERTEX
  8
FOREGROUND
  6
CONTINUOUS
 10
0.000000
 20
-6.391880
  0
VERTEX
  8
FOREGROUND
  6
CONTINUOUS
 10
0.000000
 20
4.608120
  0
SEQEND
  8
0
  0
POLYLINE
  8
0
  6
CONTINUOUS
 66
     1
 40
0.014080
 41
0.014080
  0
VERTEX
  8
0
  6
CONTINUOUS
 10
3.677960
 20
3.890040
  0
VERTEX
  8
0
  6
CONTINUOUS
 10
3.740880
 20
3.889160
  0
VERTEX
  8
0
  6
CONTINUOUS
 10
3.777840
 20
3.886960
  0
VERTEX
  8
0
  6
CONTINUOUS
 10
3.826680
 20
3.880360
  0
VERTEX
  8
0
  6
CONTINUOUS
 10
3.880800
 20
3.867160
  0
VERTEX
  8
0
  6
CONTINUOUS
 10
3.903680
 20
3.859680
  0
VERTEX
  8
0
  6
CONTINUOUS
 10
3.941960
 20
3.842080
  0
VERTEX
  8
0
  6
CONTINUOUS
 10
3.973640
 20
3.823600
  0
VERTEX
  8
0
  6
CONTINUOUS
 10
4.034800
 20
3.780920
  0
VERTEX
  8
0
  6
CONTINUOUS
 10
4.077480
 20
3.759360
  0
VERTEX
  8
0
  6
CONTINUOUS
 10
4.134680
 20
3.737360
  0
VERTEX
  8
0
  6
CONTINUOUS
 10
4.204200
 20
3.717560
  0
VERTEX
  8
0
  6
CONTINUOUS
 10
4.256120
 20
3.707440
  0
VERTEX
  8
0
  6
CONTINUOUS
 10
4.311560
 20
3.700400
  0
VERTEX
  8
0
  6
CONTINUOUS
 10
4.370080
 20
3.698200
  0
VERTEX
  8
0
  6
CONTINUOUS
 10
4.400000
 20
3.698640
  0
VERTEX
  8
0
  6
CONTINUOUS
 10
4.434320
 20
3.663880
  0
VERTEX
  8
0
  6
CONTINUOUS
 10
5.877520
 20
3.663880
  0
VERTEX
  8
0
  6
CONTINUOUS
 10
5.928120
 20
3.613280
  0
VERTEX
  8
0
  6
CONTINUOUS
 10
6.802840
 20
3.622960
  0
VERTEX
  8
0
  6
CONTINUOUS
 10
6.828800
 20
3.577640
  0
VERTEX
  8
0
  6
CONTINUOUS
 10
6.871040
 20
3.575880
  0
VERTEX
  8
0
  6
CONTINUOUS
 10
6.905360
 20
3.571040
  0
VERTEX
  8
0
  6
CONTINUOUS
 10
6.940560
 20
3.560480
  0
VERTEX
  8
0
  6
CONTINUOUS
 10
6.966080
 20
3.545960
  0
VERTEX
  8
0
  6
CONTINUOUS
 10
6.984120
 20
3.528360
  0
VERTEX
  8
0
  6
CONTINUOUS
 10
6.997320
 20
3.509000
  0
VERTEX
  8
0
  6
CONTINUOUS
 10
7.023720
 20
3.458400
  0
VERTEX
  8
0
  6
CONTINUOUS
 10
7.043960
 20
3.428480
  0
VERTEX
  8
0
  6
CONTINUOUS
 10
7.070800
 20
3.398560
  0
VERTEX
  8
0
  6
CONTINUOUS
 10
7.094120
 20
3.380080
  0
VERTEX
  8
0
  6
CONTINUOUS
 10
7.123160
 20
3.364680
  0
VERTEX
  8
0
  6
CONTINUOUS
 10
7.158800
 20
3.353240
  0
VERTEX
  8
0
  6
CONTINUOUS
 10
7.190480
 20
3.347520
  0
VERTEX
  8
0
  6
CONTINUOUS
 10
7.227000
 20
3.344880
  0
VERTEX
  8
0
  6
CONTINUOUS
 10
7.254280
 20
3.345320
  0
VERTEX
  8
0
  6
CONTINUOUS
 10
7.254720
 20
3.194400
  0
VERTEX
  8
0
  6
CONTINUOUS
 10
3.021920
 20
3.194400
  0
VERTEX
  8
0
  6
CONTINUOUS
 10
3.021920
 20
3.945920
  0
VERTEX
  8
0
  6
CONTINUOUS
 10
3.662560
 20
3.945920
  0
VERTEX
  8
0
  6
CONTINUOUS
 10
3.677960
 20
3.890040
  0
SEQEND
  8
0
  0
SOLID
  8
0
 62
    15
 10
6.030200
 20
1.547040
 11
6.033720
 21
2.280520
 12
6.904480
 22
1.557160
 13
6.908440
 23
2.290640
  0
POLYLINE
  8
0
  6
CONTINUOUS
 66
     1
 40
0.000000
 41
0.000000
  0
VERTEX
  8
0
  6
CONTINUOUS
 10
6.030200
 20
1.547040
  0
VERTEX
  8
0
  6
CONTINUOUS
 10
6.033720
 20
2.280520
  0
VERTEX
  8
0
  6
CONTINUOUS
 10
6.908440
 20
2.290640
  0
VERTEX
  8
0
  6
CONTINUOUS
 10
6.904480
 20
1.557160
  0
VERTEX
  8
0
  6
CONTINUOUS
 10
6.030200
 20
1.547040
  0
SEQEND
  8
0
  0
SOLID
  8
0
 62
    15
 10
3.822720
 20
1.824240
 11
3.826680
 21
2.557720
 12
3.861880
 22
1.822480
 13
3.865400
 23
2.555960
  0
POLYLINE
  8
0
  6
CONTINUOUS
 66
     1
 40
0.000000
 41
0.000000
  0
VERTEX
  8
0
  6
CONTINUOUS
 10
3.822720
 20
1.824240
  0
VERTEX
  8
0
  6
CONTINUOUS
 10
3.826680
 20
2.557720
  0
VERTEX
  8
0
  6
CONTINUOUS
 10
3.865400
 20
2.555960
  0
VERTEX
  8
0
  6
CONTINUOUS
 10
3.861880
 20
1.822480
  0
VERTEX
  8
0
  6
CONTINUOUS
 10
3.822720
 20
1.824240
  0
SEQEND
  8
0
  0
SOLID
  8
0
 62
    15
 10
3.861880
 20
1.822480
 11
3.865400
 21
2.555960
 12
3.897080
 22
1.818960
 13
3.900600
 23
2.552440
  0
POLYLINE
  8
0
  6
CONTINUOUS
 66
     1
 40
0.000000
 41
0.000000
  0
VERTEX
  8
0
  6
CONTINUOUS
 10
3.861880
 20
1.822480
  0
VERTEX
  8
0
  6
CONTINUOUS
 10
3.865400
 20
2.555960
  0
VERTEX
  8
0
  6
CONTINUOUS
 10
3.900600
 20
2.552440
  0
VERTEX
  8
0
  6
CONTINUOUS
 10
3.897080
 20
1.818960
  0
VERTEX
  8
0
  6
CONTINUOUS
 10
3.861880
 20
1.822480
  0
SEQEND
  8
0
  0
SOLID
  8
0
 62
    15
 10
3.897080
 20
1.818960
 11
3.900600
 21
2.552440
 12
3.928760
 22
1.814560
 13
3.932280
 23
2.547600
  0
POLYLINE
  8
0
  6
CONTINUOUS
 66
     1
 40
0.000000
 41
0.000000
  0
VERTEX
  8
0
  6
CONTINUOUS
 10
3.897080
 20
1.818960
  0
VERTEX
  8
0
  6
CONTINUOUS
 10
3.900600
 20
2.552440
  0
VERTEX
  8
0
  6
CONTINUOUS
 10
3.932280
 20
2.547600
  0
VERTEX
  8
0
  6
CONTINUOUS
 10
3.928760
 20
1.814560
  0
VERTEX
  8
0
  6
CONTINUOUS
 10
3.897080
 20
1.818960
  0
SEQEND
  8
0
  0
SOLID
  8
0
 62
    15
 10
3.928760
 20
1.814560
 11
3.932280
 21
2.547600
 12
3.982440
 22
1.801360
 13
3.986400
 23
2.534840
  0
POLYLINE
  8
0
  6
CONTINUOUS
 66
     1
 40
0.000000
 41
0.000000
  0
VERTEX
  8
0
  6
CONTINUOUS
 10
3.928760
 20
1.814560
  0
VERTEX
  8
0
  6
CONTINUOUS
 10
3.932280
 20
2.547600
  0
VERTEX
  8
0
  6
CONTINUOUS
 10
3.986400
 20
2.534840
  0
VERTEX
  8
0
  6
CONTINUOUS
 10
3.982440
 20
1.801360
  0
VERTEX
  8
0
  6
CONTINUOUS
 10
3.928760
 20
1.814560
  0
SEQEND
  8
0
  0
SOLID
  8
0
 62
    15
 10
3.982440
 20
1.801360
 11
3.986400
 21
2.534840
 12
4.025560
 22
1.785080
 13
4.029520
 23
2.518560
  0
POLYLINE
  8
0
  6
CONTINUOUS
 66
     1
 40
0.000000
 41
0.000000
  0
VERTEX
  8
0
  6
CONTINUOUS
 10
3.982440
 20
1.801360
  0
VERTEX
  8
0
  6
CONTINUOUS
 10
3.986400
 20
2.534840
  0
VERTEX
  8
0
  6
CONTINUOUS
 10
4.029520
 20
2.518560
  0
VERTEX
  8
0
  6
CONTINUOUS
 10
4.025560
 20
1.785080
  0
VERTEX
  8
0
  6
CONTINUOUS
 10
3.982440
 20
1.801360
  0
SEQEND
  8
0
  0
SOLID
  8
0
 62
    15
 10
4.025560
 20
1.785080
 11
4.029520
 21
2.518560
 12
4.060320
 22
1.767040
 13
4.064280
 23
2.500080
  0
POLYLINE
  8
0
  6
CONTINUOUS
 66
     1
 40
0.000000
 41
0.000000
  0
VERTEX
  8
0
  6
CONTINUOUS
 10
4.025560
 20
1.785080
  0
VERTEX
  8
0
  6
CONTINUOUS
 10
4.029520
 20
2.518560
  0
VERTEX
  8
0
  6
CONTINUOUS
 10
4.064280
 20
2.500080
  0
VERTEX
  8
0
  6
CONTINUOUS
 10
4.060320
 20
1.767040
  0
VERTEX
  8
0
  6
CONTINUOUS
 10
4.025560
 20
1.785080
  0
SEQEND
  8
0
  0
SOLID
  8
0
 62
    15
 10
4.060320
 20
1.767040
 11
4.064280
 21
2.500080
 12
4.088920
 22
1.748120
 13
4.092880
 23
2.481600
  0
POLYLINE
  8
0
  6
CONTINUOUS
 66
     1
 40
0.000000
 41
0.000000
  0
VERTEX
  8
0
  6
CONTINUOUS
 10
4.060320
 20
1.767040
  0
VERTEX
  8
0
  6
CONTINUOUS
 10
4.064280
 20
2.500080
  0
VERTEX
  8
0
  6
CONTINUOUS
 10
4.092880
 20
2.481600
  0
VERTEX
  8
0
  6
CONTINUOUS
 10
4.088920
 20
1.748120
  0
VERTEX
  8
0
  6
CONTINUOUS
 10
4.060320
 20
1.767040
  0
SEQEND
  8
0
  0
SOLID
  8
0
 62
    15
 10
4.088920
 20
1.748120
 11
4.092880
 21
2.481600
 12
4.136440
 22
1.715120
 13
4.140400
 23
2.448600
  0
POLYLINE
  8
0
  6
CONTINUOUS
 66
     1
 40
0.000000
 41
0.000000
  0
VERTEX
  8
0
  6
CONTINUOUS
 10
4.088920
 20
1.748120
  0
VERTEX
  8
0
  6
CONTINUOUS
 10
4.092880
 20
2.481600
  0
VERTEX
  8
0
  6
CONTINUOUS
 10
4.140400
 20
2.448600
  0
VERTEX
  8
0
  6
CONTINUOUS
 10
4.136440
 20
1.715120
  0
VERTEX
  8
0
  6
CONTINUOUS
 10
4.088920
 20
1.748120
  0
SEQEND
  8
0
  0
SOLID
  8
0
 62
    15
 10
4.136440
 20
1.715120
 11
4.140400
 21
2.448600
 12
4.163280
 22
1.701040
 13
4.167240
 23
2.434080
  0
POLYLINE
  8
0
  6
CONTINUOUS
 66
     1
 40
0.000000
 41
0.000000
  0
VERTEX
  8
0
  6
CONTINUOUS
 10
4.136440
 20
1.715120
  0
VERTEX
  8
0
  6
CONTINUOUS
 10
4.140400
 20
2.448600
  0
VERTEX
  8
0
  6
CONTINUOUS
 10
4.167240
 20
2.434080
  0
VERTEX
  8
0
  6
CONTINUOUS
 10
4.163280
 20
1.701040
  0
VERTEX
  8
0
  6
CONTINUOUS
 10
4.136440
 20
1.715120
  0
SEQEND
  8
0
  0
SOLID
  8
0
 62
    15
 10
4.163280
 20
1.701040
 11
4.167240
 21
2.434080
 12
4.196720
 22
1.686080
 13
4.200680
 23
2.419120
  0
POLYLINE
  8
0
  6
CONTINUOUS
 66
     1
 40
0.000000
 41
0.000000
  0
VERTEX
  8
0
  6
CONTINUOUS
 10
4.163280
 20
1.701040
  0
VERTEX
  8
0
  6
CONTINUOUS
 10
4.167240
 20
2.434080
  0
VERTEX
  8
0
  6
CONTINUOUS
 10
4.200680
 20
2.419120
  0
VERTEX
  8
0
  6
CONTINUOUS
 10
4.196720
 20
1.686080
  0
VERTEX
  8
0
  6
CONTINUOUS
 10
4.163280
 20
1.701040
  0
SEQEND
  8
0
  0
SOLID
  8
0
 62
    15
 10
4.196720
 20
1.686080
 11
4.200680
 21
2.419120
 12
4.236320
 22
1.671120
 13
4.240280
 23
2.404600
  0
POLYLINE
  8
0
  6
CONTINUOUS
 66
     1
 40
0.000000
 41
0.000000
  0
VERTEX
  8
0
  6
CONTINUOUS
 10
4.196720
 20
1.686080
  0
VERTEX
  8
0
  6
CONTINUOUS
 10
4.200680
 20
2.419120
  0
VERTEX
  8
0
  6
CONTINUOUS
 10
4.240280
 20
2.404600
  0
VERTEX
  8
0
  6
CONTINUOUS
 10
4.236320
 20
1.671120
  0
VERTEX
  8
0
  6
CONTINUOUS
 10
4.196720
 20
1.686080
  0
SEQEND
  8
0
  0
SOLID
  8
0
 62
    15
 10
4.236320
 20
1.671120
 11
4.240280
 21
2.404600
 12
4.281640
 22
1.657480
 13
4.285600
 23
2.390960
  0
POLYLINE
  8
0
  6
CONTINUOUS
 66
     1
 40
0.000000
 41
0.000000
  0
VERTEX
  8
0
  6
CONTINUOUS
 10
4.236320
 20
1.671120
  0
VERTEX
  8
0
  6
CONTINUOUS
 10
4.240280
 20
2.404600
  0
VERTEX
  8
0
  6
CONTINUOUS
 10
4.285600
 20
2.390960
  0
VERTEX
  8
0
  6
CONTINUOUS
 10
4.281640
 20
1.657480
  0
VERTEX
  8
0
  6
CONTINUOUS
 10
4.236320
 20
1.671120
  0
SEQEND
  8
0
  0
SOLID
  8
0
 62
    15
 10
4.281640
 20
1.657480
 11
4.285600
 21
2.390960
 12
4.331360
 22
1.646040
 13
4.335320
 23
2.379520
  0
POLYLINE
  8
0
  6
CONTINUOUS
 66
     1
 40
0.000000
 41
0.000000
  0
VERTEX
  8
0
  6
CONTINUOUS
 10
4.281640
 20
1.657480
  0
VERTEX
  8
0
  6
CONTINUOUS
 10
4.285600
 20
2.390960
  0
VERTEX
  8
0
  6
CONTINUOUS
 10
4.335320
 20
2.379520
  0
VERTEX
  8
0
  6
CONTINUOUS
 10
4.331360
 20
1.646040
  0
VERTEX
  8
0
  6
CONTINUOUS
 10
4.281640
 20
1.657480
  0
SEQEND
  8
0
  0
SOLID
  8
0
 62
    15
 10
4.331360
 20
1.646040
 11
4.335320
 21
2.379520
 12
4.385040
 22
1.637240
 13
4.389000
 23
2.370720
  0
POLYLINE
  8
0
  6
CONTINUOUS
 66
     1
 40
0.000000
 41
0.000000
  0
VERTEX
  8
0
  6
CONTINUOUS
 10
4.331360
 20
1.646040
  0
VERTEX
  8
0
  6
CONTINUOUS
 10
4.335320
 20
2.379520
  0
VERTEX
  8
0
  6
CONTINUOUS
 10
4.389000
 20
2.370720
  0
VERTEX
  8
0
  6
CONTINUOUS
 10
4.385040
 20
1.637240
  0
VERTEX
  8
0
  6
CONTINUOUS
 10
4.331360
 20
1.646040
  0
SEQEND
  8
0
  0
SOLID
  8
0
 62
    15
 10
4.385040
 20
1.637240
 11
4.389000
 21
2.370720
 12
4.442240
 22
1.632400
 13
4.446200
 23
2.365880
  0
POLYLINE
  8
0
  6
CONTINUOUS
 66
     1
 40
0.000000
 41
0.000000
  0
VERTEX
  8
0
  6
CONTINUOUS
 10
4.385040
 20
1.637240
  0
VERTEX
  8
0
  6
CONTINUOUS
 10
4.389000
 20
2.370720
  0
VERTEX
  8
0
  6
CONTINUOUS
 10
4.446200
 20
2.365880
  0
VERTEX
  8
0
  6
CONTINUOUS
 10
4.442240
 20
1.632400
  0
VERTEX
  8
0
  6
CONTINUOUS
 10
4.385040
 20
1.637240
  0
SEQEND
  8
0
  0
SOLID
  8
0
 62
    15
 10
4.442240
 20
1.632400
 11
4.446200
 21
2.365880
 12
4.501640
 22
1.632400
 13
4.505600
 23
2.365880
  0
POLYLINE
  8
0
  6
CONTINUOUS
 66
     1
 40
0.000000
 41
0.000000
  0
VERTEX
  8
0
  6
CONTINUOUS
 10
4.442240
 20
1.632400
  0
VERTEX
  8
0
  6
CONTINUOUS
 10
4.446200
 20
2.365880
  0
VERTEX
  8
0
  6
CONTINUOUS
 10
4.505600
 20
2.365880
  0
VERTEX
  8
0
  6
CONTINUOUS
 10
4.501640
 20
1.632400
  0
VERTEX
  8
0
  6
CONTINUOUS
 10
4.442240
 20
1.632400
  0
SEQEND
  8
0
  0
SOLID
  8
0
 62
    15
 10
4.501640
 20
1.632400
 11
4.505600
 21
2.365880
 12
4.536400
 22
1.597640
 13
4.540360
 23
2.331120
  0
POLYLINE
  8
0
  6
CONTINUOUS
 66
     1
 40
0.000000
 41
0.000000
  0
VERTEX
  8
0
  6
CONTINUOUS
 10
4.501640
 20
1.632400
  0
VERTEX
  8
0
  6
CONTINUOUS
 10
4.505600
 20
2.365880
  0
VERTEX
  8
0
  6
CONTINUOUS
 10
4.540360
 20
2.331120
  0
VERTEX
  8
0
  6
CONTINUOUS
 10
4.536400
 20
1.597640
  0
VERTEX
  8
0
  6
CONTINUOUS
 10
4.501640
 20
1.632400
  0
SEQEND
  8
0
  0
SOLID
  8
0
 62
    15
 10
4.536400
 20
1.597640
 11
4.540360
 21
2.331120
 12
5.979600
 22
1.597640
 13
5.983120
 23
2.331120
  0
POLYLINE
  8
0
  6
CONTINUOUS
 66
     1
 40
0.000000
 41
0.000000
  0
VERTEX
  8
0
  6
CONTINUOUS
 10
4.536400
 20
1.597640
  0
VERTEX
  8
0
  6
CONTINUOUS
 10
4.540360
 20
2.331120
  0
VERTEX
  8
0
  6
CONTINUOUS
 10
5.983120
 20
2.331120
  0
VERTEX
  8
0
  6
CONTINUOUS
 10
5.979600
 20
1.597640
  0
VERTEX
  8
0
  6
CONTINUOUS
 10
4.536400
 20
1.597640
  0
SEQEND
  8
0
  0
SOLID
  8
0
 62
    15
 10
5.979600
 20
1.597640
 11
5.983120
 21
2.331120
 12
6.030200
 22
1.547040
 13
6.033720
 23
2.280520
  0
POLYLINE
  8
0
  6
CONTINUOUS
 66
     1
 40
0.000000
 41
0.000000
  0
VERTEX
  8
0
  6
CONTINUOUS
 10
5.979600
 20
1.597640
  0
VERTEX
  8
0
  6
CONTINUOUS
 10
5.983120
 20
2.331120
  0
VERTEX
  8
0
  6
CONTINUOUS
 10
6.033720
 20
2.280520
  0
VERTEX
  8
0
  6
CONTINUOUS
 10
6.030200
 20
1.547040
  0
VERTEX
  8
0
  6
CONTINUOUS
 10
5.979600
 20
1.597640
  0
SEQEND
  8
0
  0
SOLID
  8
0
 62
    15
 10
3.779600
 20
1.824240
 11
3.783560
 21
2.557280
 12
3.822720
 22
1.824240
 13
3.826680
 23
2.557720
  0
POLYLINE
  8
0
  6
CONTINUOUS
 66
     1
 40
0.000000
 41
0.000000
  0
VERTEX
  8
0
  6
CONTINUOUS
 10
3.779600
 20
1.824240
  0
VERTEX
  8
0
  6
CONTINUOUS
 10
3.783560
 20
2.557280
  0
VERTEX
  8
0
  6
CONTINUOUS
 10
3.826680
 20
2.557720
  0
VERTEX
  8
0
  6
CONTINUOUS
 10
3.822720
 20
1.824240
  0
VERTEX
  8
0
  6
CONTINUOUS
 10
3.779600
 20
1.824240
  0
SEQEND
  8
0
  0
SOLID
  8
0
 62
    15
 10
6.904480
 20
1.557160
 11
6.908440
 21
2.290640
 12
6.930880
 22
1.511840
 13
6.934840
 23
2.245320
  0
POLYLINE
  8
0
  6
CONTINUOUS
 66
     1
 40
0.000000
 41
0.000000
  0
VERTEX
  8
0
  6
CONTINUOUS
 10
6.904480
 20
1.557160
  0
VERTEX
  8
0
  6
CONTINUOUS
 10
6.908440
 20
2.290640
  0
VERTEX
  8
0
  6
CONTINUOUS
 10
6.934840
 20
2.245320
  0
VERTEX
  8
0
  6
CONTINUOUS
 10
6.930880
 20
1.511840
  0
VERTEX
  8
0
  6
CONTINUOUS
 10
6.904480
 20
1.557160
  0
SEQEND
  8
0
  0
SOLID
  8
0
 62
    15
 10
6.930880
 20
1.511840
 11
6.934840
 21
2.245320
 12
6.959920
 22
1.510960
 13
6.963440
 23
2.244440
  0
POLYLINE
  8
0
  6
CONTINUOUS
 66
     1
 40
0.000000
 41
0.000000
  0
VERTEX
  8
0
  6
CONTINUOUS
 10
6.930880
 20
1.511840
  0
VERTEX
  8
0
  6
CONTINUOUS
 10
6.934840
 20
2.245320
  0
VERTEX
  8
0
  6
CONTINUOUS
 10
6.963440
 20
2.244440
  0
VERTEX
  8
0
  6
CONTINUOUS
 10
6.959920
 20
1.510960
  0
VERTEX
  8
0
  6
CONTINUOUS
 10
6.930880
 20
1.511840
  0
SEQEND
  8
0
  0
SOLID
  8
0
 62
    15
 10
6.959920
 20
1.510960
 11
6.963440
 21
2.244440
 12
6.985000
 22
1.508760
 13
6.988960
 23
2.242240
  0
POLYLINE
  8
0
  6
CONTINUOUS
 66
     1
 40
0.000000
 41
0.000000
  0
VERTEX
  8
0
  6
CONTINUOUS
 10
6.959920
 20
1.510960
  0
VERTEX
  8
0
  6
CONTINUOUS
 10
6.963440
 20
2.244440
  0
VERTEX
  8
0
  6
CONTINUOUS
 10
6.988960
 20
2.242240
  0
VERTEX
  8
0
  6
CONTINUOUS
 10
6.985000
 20
1.508760
  0
VERTEX
  8
0
  6
CONTINUOUS
 10
6.959920
 20
1.510960
  0
SEQEND
  8
0
  0
SOLID
  8
0
 62
    15
 10
6.985000
 20
1.508760
 11
6.988960
 21
2.242240
 12
7.025920
 22
1.500400
 13
7.029880
 23
2.233880
  0
POLYLINE
  8
0
  6
CONTINUOUS
 66
     1
 40
0.000000
 41
0.000000
  0
VERTEX
  8
0
  6
CONTINUOUS
 10
6.985000
 20
1.508760
  0
VERTEX
  8
0
  6
CONTINUOUS
 10
6.988960
 20
2.242240
  0
VERTEX
  8
0
  6
CONTINUOUS
 10
7.029880
 20
2.233880
  0
VERTEX
  8
0
  6
CONTINUOUS
 10
7.025920
 20
1.500400
  0
VERTEX
  8
0
  6
CONTINUOUS
 10
6.985000
 20
1.508760
  0
SEQEND
  8
0
  0
SOLID
  8
0
 62
    15
 10
7.025920
 20
1.500400
 11
7.029880
 21
2.233880
 12
7.056280
 22
1.487640
 13
7.060240
 23
2.221120
  0
POLYLINE
  8
0
  6
CONTINUOUS
 66
     1
 40
0.000000
 41
0.000000
  0
VERTEX
  8
0
  6
CONTINUOUS
 10
7.025920
 20
1.500400
  0
VERTEX
  8
0
  6
CONTINUOUS
 10
7.029880
 20
2.233880
  0
VERTEX
  8
0
  6
CONTINUOUS
 10
7.060240
 20
2.221120
  0
VERTEX
  8
0
  6
CONTINUOUS
 10
7.056280
 20
1.487640
  0
VERTEX
  8
0
  6
CONTINUOUS
 10
7.025920
 20
1.500400
  0
SEQEND
  8
0
  0
SOLID
  8
0
 62
    15
 10
7.056280
 20
1.487640
 11
7.060240
 21
2.221120
 12
7.077840
 22
1.471800
 13
7.081800
 23
2.204840
  0
POLYLINE
  8
0
  6
CONTINUOUS
 66
     1
 40
0.000000
 41
0.000000
  0
VERTEX
  8
0
  6
CONTINUOUS
 10
7.056280
 20
1.487640
  0
VERTEX
  8
0
  6
CONTINUOUS
 10
7.060240
 20
2.221120
  0
VERTEX
  8
0
  6
CONTINUOUS
 10
7.081800
 20
2.204840
  0
VERTEX
  8
0
  6
CONTINUOUS
 10
7.077840
 20
1.471800
  0
VERTEX
  8
0
  6
CONTINUOUS
 10
7.056280
 20
1.487640
  0
SEQEND
  8
0
  0
SOLID
  8
0
 62
    15
 10
7.077840
 20
1.471800
 11
7.081800
 21
2.204840
 12
7.093240
 22
1.452880
 13
7.096760
 23
2.186360
  0
POLYLINE
  8
0
  6
CONTINUOUS
 66
     1
 40
0.000000
 41
0.000000
  0
VERTEX
  8
0
  6
CONTINUOUS
 10
7.077840
 20
1.471800
  0
VERTEX
  8
0
  6
CONTINUOUS
 10
7.081800
 20
2.204840
  0
VERTEX
  8
0
  6
CONTINUOUS
 10
7.096760
 20
2.186360
  0
VERTEX
  8
0
  6
CONTINUOUS
 10
7.093240
 20
1.452880
  0
VERTEX
  8
0
  6
CONTINUOUS
 10
7.077840
 20
1.471800
  0
SEQEND
  8
0
  0
SOLID
  8
0
 62
    15
 10
7.093240
 20
1.452880
 11
7.096760
 21
2.186360
 12
7.104680
 22
1.433080
 13
7.108640
 23
2.166560
  0
POLYLINE
  8
0
  6
CONTINUOUS
 66
     1
 40
0.000000
 41
0.000000
  0
VERTEX
  8
0
  6
CONTINUOUS
 10
7.093240
 20
1.452880
  0
VERTEX
  8
0
  6
CONTINUOUS
 10
7.096760
 20
2.186360
  0
VERTEX
  8
0
  6
CONTINUOUS
 10
7.108640
 20
2.166560
  0
VERTEX
  8
0
  6
CONTINUOUS
 10
7.104680
 20
1.433080
  0
VERTEX
  8
0
  6
CONTINUOUS
 10
7.093240
 20
1.452880
  0
SEQEND
  8
0
  0
SOLID
  8
0
 62
    15
 10
7.104680
 20
1.433080
 11
7.108640
 21
2.166560
 12
7.125360
 22
1.392600
 13
7.129320
 23
2.126080
  0
POLYLINE
  8
0
  6
CONTINUOUS
 66
     1
 40
0.000000
 41
0.000000
  0
VERTEX
  8
0
  6
CONTINUOUS
 10
7.104680
 20
1.433080
  0
VERTEX
  8
0
  6
CONTINUOUS
 10
7.108640
 20
2.166560
  0
VERTEX
  8
0
  6
CONTINUOUS
 10
7.129320
 20
2.126080
  0
VERTEX
  8
0
  6
CONTINUOUS
 10
7.125360
 20
1.392600
  0
VERTEX
  8
0
  6
CONTINUOUS
 10
7.104680
 20
1.433080
  0
SEQEND
  8
0
  0
SOLID
  8
0
 62
    15
 10
7.125360
 20
1.392600
 11
7.129320
 21
2.126080
 12
7.153960
 22
1.352120
 13
7.157480
 23
2.085600
  0
POLYLINE
  8
0
  6
CONTINUOUS
 66
     1
 40
0.000000
 41
0.000000
  0
VERTEX
  8
0
  6
CONTINUOUS
 10
7.125360
 20
1.392600
  0
VERTEX
  8
0
  6
CONTINUOUS
 10
7.129320
 20
2.126080
  0
VERTEX
  8
0
  6
CONTINUOUS
 10
7.157480
 20
2.085600
  0
VERTEX
  8
0
  6
CONTINUOUS
 10
7.153960
 20
1.352120
  0
VERTEX
  8
0
  6
CONTINUOUS
 10
7.125360
 20
1.392600
  0
SEQEND
  8
0
  0
SOLID
  8
0
 62
    15
 10
7.153960
 20
1.352120
 11
7.157480
 21
2.085600
 12
7.172880
 22
1.332320
 13
7.176400
 23
2.065800
  0
POLYLINE
  8
0
  6
CONTINUOUS
 66
     1
 40
0.000000
 41
0.000000
  0
VERTEX
  8
0
  6
CONTINUOUS
 10
7.153960
 20
1.352120
  0
VERTEX
  8
0
  6
CONTINUOUS
 10
7.157480
 20
2.085600
  0
VERTEX
  8
0
  6
CONTINUOUS
 10
7.176400
 20
2.065800
  0
VERTEX
  8
0
  6
CONTINUOUS
 10
7.172880
 20
1.332320
  0
VERTEX
  8
0
  6
CONTINUOUS
 10
7.153960
 20
1.352120
  0
SEQEND
  8
0
  0
SOLID
  8
0
 62
    15
 10
7.172880
 20
1.332320
 11
7.176400
 21
2.065800
 12
7.196200
 22
1.314280
 13
7.200160
 23
2.047760
  0
POLYLINE
  8
0
  6
CONTINUOUS
 66
     1
 40
0.000000
 41
0.000000
  0
VERTEX
  8
0
  6
CONTINUOUS
 10
7.172880
 20
1.332320
  0
VERTEX
  8
0
  6
CONTINUOUS
 10
7.176400
 20
2.065800
  0
VERTEX
  8
0
  6
CONTINUOUS
 10
7.200160
 20
2.047760
  0
VERTEX
  8
0
  6
CONTINUOUS
 10
7.196200
 20
1.314280
  0
VERTEX
  8
0
  6
CONTINUOUS
 10
7.172880
 20
1.332320
  0
SEQEND
  8
0
  0
SOLID
  8
0
 62
    15
 10
7.196200
 20
1.314280
 11
7.200160
 21
2.047760
 12
7.225240
 22
1.298880
 13
7.228760
 23
2.032360
  0
POLYLINE
  8
0
  6
CONTINUOUS
 66
     1
 40
0.000000
 41
0.000000
  0
VERTEX
  8
0
  6
CONTINUOUS
 10
7.196200
 20
1.314280
  0
VERTEX
  8
0
  6
CONTINUOUS
 10
7.200160
 20
2.047760
  0
VERTEX
  8
0
  6
CONTINUOUS
 10
7.228760
 20
2.032360
  0
VERTEX
  8
0
  6
CONTINUOUS
 10
7.225240
 20
1.298880
  0
VERTEX
  8
0
  6
CONTINUOUS
 10
7.196200
 20
1.314280
  0
SEQEND
  8
0
  0
SOLID
  8
0
 62
    15
 10
7.225240
 20
1.298880
 11
7.228760
 21
2.032360
 12
7.260880
 22
1.287000
 13
7.264840
 23
2.020480
  0
POLYLINE
  8
0
  6
CONTINUOUS
 66
     1
 40
0.000000
 41
0.000000
  0
VERTEX
  8
0
  6
CONTINUOUS
 10
7.225240
 20
1.298880
  0
VERTEX
  8
0
  6
CONTINUOUS
 10
7.228760
 20
2.032360
  0
VERTEX
  8
0
  6
CONTINUOUS
 10
7.264840
 20
2.020480
  0
VERTEX
  8
0
  6
CONTINUOUS
 10
7.260880
 20
1.287000
  0
VERTEX
  8
0
  6
CONTINUOUS
 10
7.225240
 20
1.298880
  0
SEQEND
  8
0
  0
SOLID
  8
0
 62
    15
 10
7.260880
 20
1.287000
 11
7.264840
 21
2.020480
 12
7.304000
 22
1.280400
 13
7.307960
 23
2.013440
  0
POLYLINE
  8
0
  6
CONTINUOUS
 66
     1
 40
0.000000
 41
0.000000
  0
VERTEX
  8
0
  6
CONTINUOUS
 10
7.260880
 20
1.287000
  0
VERTEX
  8
0
  6
CONTINUOUS
 10
7.264840
 20
2.020480
  0
VERTEX
  8
0
  6
CONTINUOUS
 10
7.307960
 20
2.013440
  0
VERTEX
  8
0
  6
CONTINUOUS
 10
7.304000
 20
1.280400
  0
VERTEX
  8
0
  6
CONTINUOUS
 10
7.260880
 20
1.287000
  0
SEQEND
  8
0
  0
SOLID
  8
0
 62
    15
 10
7.356360
 20
1.279080
 11
7.359880
 21
2.012560
 12
7.356800
 22
1.128600
 13
7.360760
 23
1.861640
  0
POLYLINE
  8
0
  6
CONTINUOUS
 66
     1
 40
0.000000
 41
0.000000
  0
VERTEX
  8
0
  6
CONTINUOUS
 10
7.356360
 20
1.279080
  0
VERTEX
  8
0
  6
CONTINUOUS
 10
7.359880
 20
2.012560
  0
VERTEX
  8
0
  6
CONTINUOUS
 10
7.360760
 20
1.861640
  0
VERTEX
  8
0
  6
CONTINUOUS
 10
7.356800
 20
1.128600
  0
VERTEX
  8
0
  6
CONTINUOUS
 10
7.356360
 20
1.279080
  0
SEQEND
  8
0
  0
SOLID
  8
0
 62
    15
 10
7.304000
 20
1.280400
 11
7.307960
 21
2.013440
 12
7.356360
 22
1.279080
 13
7.359880
 23
2.012560
  0
POLYLINE
  8
0
  6
CONTINUOUS
 66
     1
 40
0.000000
 41
0.000000
  0
VERTEX
  8
0
  6
CONTINUOUS
 10
7.304000
 20
1.280400
  0
VERTEX
  8
0
  6
CONTINUOUS
 10
7.307960
 20
2.013440
  0
VERTEX
  8
0
  6
CONTINUOUS
 10
7.359880
 20
2.012560
  0
VERTEX
  8
0
  6
CONTINUOUS
 10
7.356360
 20
1.279080
  0
VERTEX
  8
0
  6
CONTINUOUS
 10
7.304000
 20
1.280400
  0
SEQEND
  8
0
  0
SOLID
  8
0
 62
    15
 10
3.123560
 20
1.880120
 11
3.127520
 21
2.613160
 12
3.764640
 22
1.880120
 13
3.768600
 23
2.613160
  0
POLYLINE
  8
0
  6
CONTINUOUS
 66
     1
 40
0.000000
 41
0.000000
  0
VERTEX
  8
0
  6
CONTINUOUS
 10
3.123560
 20
1.880120
  0
VERTEX
  8
0
  6
CONTINUOUS
 10
3.127520
 20
2.613160
  0
VERTEX
  8
0
  6
CONTINUOUS
 10
3.768600
 20
2.613160
  0
VERTEX
  8
0
  6
CONTINUOUS
 10
3.764640
 20
1.880120
  0
VERTEX
  8
0
  6
CONTINUOUS
 10
3.123560
 20
1.880120
  0
SEQEND
  8
0
  0
SOLID
  8
0
 62
    15
 10
3.764640
 20
1.880120
 11
3.768600
 21
2.613160
 12
3.779600
 22
1.824240
 13
3.783560
 23
2.557280
  0
POLYLINE
  8
0
  6
CONTINUOUS
 66
     1
 40
0.000000
 41
0.000000
  0
VERTEX
  8
0
  6
CONTINUOUS
 10
3.764640
 20
1.880120
  0
VERTEX
  8
0
  6
CONTINUOUS
 10
3.768600
 20
2.613160
  0
VERTEX
  8
0
  6
CONTINUOUS
 10
3.783560
 20
2.557280
  0
VERTEX
  8
0
  6
CONTINUOUS
 10
3.779600
 20
1.824240
  0
VERTEX
  8
0
  6
CONTINUOUS
 10
3.764640
 20
1.880120
  0
SEQEND
  8
0
  0
POLYLINE
  8
0
  6
CONTINUOUS
 66
     1
 40
0.000000
 41
0.000000
  0
VERTEX
  8
0
  6
CONTINUOUS
 10
3.779600
 20
1.824240
  0
VERTEX
  8
0
  6
CONTINUOUS
 10
3.822720
 20
1.824240
  0
VERTEX
  8
0
  6
CONTINUOUS
 10
3.861880
 20
1.822480
  0
VERTEX
  8
0
  6
CONTINUOUS
 10
3.897080
 20
1.818960
  0
VERTEX
  8
0
  6
CONTINUOUS
 10
3.928760
 20
1.814560
  0
VERTEX
  8
0
  6
CONTINUOUS
 10
3.982440
 20
1.801360
  0
VERTEX
  8
0
  6
CONTINUOUS
 10
4.025560
 20
1.785080
  0
VERTEX
  8
0
  6
CONTINUOUS
 10
4.060320
 20
1.767040
  0
VERTEX
  8
0
  6
CONTINUOUS
 10
4.088920
 20
1.748120
  0
VERTEX
  8
0
  6
CONTINUOUS
 10
4.136440
 20
1.715120
  0
VERTEX
  8
0
  6
CONTINUOUS
 10
4.163280
 20
1.701040
  0
VERTEX
  8
0
  6
CONTINUOUS
 10
4.196720
 20
1.686080
  0
VERTEX
  8
0
  6
CONTINUOUS
 10
4.236320
 20
1.671120
  0
VERTEX
  8
0
  6
CONTINUOUS
 10
4.281640
 20
1.657480
  0
VERTEX
  8
0
  6
CONTINUOUS
 10
4.331360
 20
1.646040
  0
VERTEX
  8
0
  6
CONTINUOUS
 10
4.385040
 20
1.637240
  0
VERTEX
  8
0
  6
CONTINUOUS
 10
4.442240
 20
1.632400
  0
VERTEX
  8
0
  6
CONTINUOUS
 10
4.501640
 20
1.632400
  0
VERTEX
  8
0
  6
CONTINUOUS
 10
4.536400
 20
1.597640
  0
VERTEX
  8
0
  6
CONTINUOUS
 10
5.979600
 20
1.597640
  0
VERTEX
  8
0
  6
CONTINUOUS
 10
6.030200
 20
1.547040
  0
VERTEX
  8
0
  6
CONTINUOUS
 10
6.904480
 20
1.557160
  0
VERTEX
  8
0
  6
CONTINUOUS
 10
6.930880
 20
1.511840
  0
VERTEX
  8
0
  6
CONTINUOUS
 10
6.959920
 20
1.510960
  0
VERTEX
  8
0
  6
CONTINUOUS
 10
6.985000
 20
1.508760
  0
VERTEX
  8
0
  6
CONTINUOUS
 10
7.025920
 20
1.500400
  0
VERTEX
  8
0
  6
CONTINUOUS
 10
7.056280
 20
1.487640
  0
VERTEX
  8
0
  6
CONTINUOUS
 10
7.077840
 20
1.471800
  0
VERTEX
  8
0
  6
CONTINUOUS
 10
7.093240
 20
1.452880
  0
VERTEX
  8
0
  6
CONTINUOUS
 10
7.104680
 20
1.433080
  0
VERTEX
  8
0
  6
CONTINUOUS
 10
7.125360
 20
1.392600
  0
VERTEX
  8
0
  6
CONTINUOUS
 10
7.153960
 20
1.352120
  0
VERTEX
  8
0
  6
CONTINUOUS
 10
7.172880
 20
1.332320
  0
VERTEX
  8
0
  6
CONTINUOUS
 10
7.196200
 20
1.314280
  0
VERTEX
  8
0
  6
CONTINUOUS
 10
7.225240
 20
1.298880
  0
VERTEX
  8
0
  6
CONTINUOUS
 10
7.260880
 20
1.287000
  0
VERTEX
  8
0
  6
CONTINUOUS
 10
7.304000
 20
1.280400
  0
VERTEX
  8
0
  6
CONTINUOUS
 10
7.356360
 20
1.279080
  0
VERTEX
  8
0
  6
CONTINUOUS
 10
7.356800
 20
1.128600
  0
VERTEX
  8
0
  6
CONTINUOUS
 10
3.123560
 20
1.128600
  0
VERTEX
  8
0
  6
CONTINUOUS
 10
3.123560
 20
1.880120
  0
VERTEX
  8
0
  6
CONTINUOUS
 10
3.764640
 20
1.880120
  0
VERTEX
  8
0
  6
CONTINUOUS
 10
3.779600
 20
1.824240
  0
SEQEND
  8
0
  0
TEXT
  8
0
 10
4.827240
 20
0.889240
 40
0.138069
  1
BA  450
 41
1.000000
  7
SN0
 71
     0
 72
     5
 11
5.417095
 21
0.889240
  0
TEXT
  8
0
 10
4.671480
 20
0.697840
 40
0.138069
  1
3/4" x 4-1/4"
 41
1.000000
  7
SN0
 71
     0
 72
     5
 11
5.571259
 21
0.697840
  0
ENDSEC
  0
EOF
