  0
SECTION
  2
HEADER
  9
$ACADVER
  1
AC1006
  9
$EXTMIN
 10
6.123040
 20
0.464200
  9
$EXTMAX
 10
7.314560
 20
3.253800
  9
$LTSCALE
 40
0.044000
  9
$PDMODE
 70
    35
  9
$PDSIZE
 40
0.035200
  0
ENDSEC
  0
SECTION
  2
TABLES
  0
TABLE
  2
LTYPE
 70
     9
  0
LTYPE
  2
CONTINUOUS
 70
    64
  3
Solid line
 72
    65
 73
     0
 40
0.000000
  0
LTYPE
  2
DASHED
 70
    64
  3
__ __ __ __ __ __ __ __ __ __ __ __ __ __ __
 72
    65
 73
     2
 40
0.000330
 49
0.000220
 49
-0.000110
  0
LTYPE
  2
HIDDEN
 70
    64
  3
 _ _ _ _ _ _ _ _ _ _ _ _ _ _ _ _ _ _ _ _ _ _
 72
    65
 73
     2
 40
0.000165
 49
0.000110
 49
-0.000055
  0
LTYPE
  2
CENTER
 70
    64
  3
____ _ ____ _ ____ _ ____ _ ____ _ ____ _ ____
 72
    65
 73
     4
 40
0.000880
 49
0.000550
 49
-0.000110
 49
0.000110
 49
-0.000110
  0
LTYPE
  2
PHANTOM
 70
    64
  3
_____ _ _ _____ _ _ _____ _ _ _____ _ _ ____
 72
    65
 73
     6
 40
0.001100
 49
0.000550
 49
-0.000110
 49
0.000110
 49
-0.000110
 49
0.000110
 49
-0.000110
  0
LTYPE
  2
DOT
 70
    64
  3
...............................................
 72
    65
 73
     2
 40
0.000110
 49
0.000000
 49
-0.000110
  0
LTYPE
  2
DASHDOT
 70
    64
  3
__ . __ . __ . __ . __ . __ . __ . __ . __ . __
 72
    65
 73
     4
 40
0.000440
 49
0.000220
 49
-0.000110
 49
0.000000
 49
-0.000110
  0
LTYPE
  2
BORDER
 70
    64
  3
__ __ . __ __ . __ __ . __ __ . __ __ . __ __
 72
    65
 73
     6
 40
0.000770
 49
0.000220
 49
-0.000110
 49
0.000220
 49
-0.000110
 49
0.000000
 49
-0.000110
  0
LTYPE
  2
DIVIDE
 70
    64
  3
__ . . __ . . __ . . __ . . __ . . __ . . __
 72
    65
 73
     6
 40
0.000550
 49
0.000220
 49
-0.000110
 49
0.000000
 49
-0.000110
 49
0.000000
 49
-0.000110
  0
LTYPE
  2
DOTDOT
 70
    64
  3
 . .  . .  . .  . .  . .  . . 
 72
    65
 73
     5
 40
0.000242
 49
-0.000110
 49
0.000000
 49
-0.000110
 49
0.000000
 49
-0.000110
  0
ENDTAB
  0
TABLE
  2
STYLE
 70
     2
  0
STYLE
 70
     0
  2
SN0
 40
0.000000
 41
0.000440
 50
0.000000
 71
     0
 42
0.000000
  3
ROMAND
  0
STYLE
 70
    68
  2
SV0
 40
0.000000
 41
0.000440
 50
0.000000
 71
     0
 42
0.000000
  3
ROMAND
  0
ENDTAB
  0
TABLE
  2
LAYER
 70
     3
  0
LAYER
  2
FOREGROUND
 70
    64
 62
     7
  6
CONTINUOUS
  0
LAYER
  2
BACKGROUND
 70
    65
 62
    -7
  6
CONTINUOUS
  0
LAYER
  2
0
 70
    64
 62
     7
  6
CONTINUOUS
  0
ENDTAB
  0
ENDSEC
  0
SECTION
  2
ENTITIES
  0
POLYLINE
  8
FOREGROUND
  6
CONTINUOUS
 66
     1
 40
0.000000
 41
0.000000
  0
VERTEX
  8
FOREGROUND
  6
CONTINUOUS
 10
0.000000
 20
3.718000
  0
VERTEX
  8
FOREGROUND
  6
CONTINUOUS
 10
8.499920
 20
3.718000
  0
VERTEX
  8
FOREGROUND
  6
CONTINUOUS
 10
8.499920
 20
-7.282000
  0
VERTEX
  8
FOREGROUND
  6
CONTINUOUS
 10
0.000000
 20
-7.282000
  0
VERTEX
  8
FOREGROUND
  6
CONTINUOUS
 10
0.000000
 20
3.718000
  0
SEQEND
  8
0
  0
POLYLINE
  8
FOREGROUND
  6
CONTINUOUS
 66
     1
 40
0.000000
 41
0.000000
  0
VERTEX
  8
FOREGROUND
  6
CONTINUOUS
 10
0.000000
 20
3.718000
  0
VERTEX
  8
FOREGROUND
  6
CONTINUOUS
 10
8.499920
 20
3.718000
  0
VERTEX
  8
FOREGROUND
  6
CONTINUOUS
 10
8.499920
 20
-7.282000
  0
VERTEX
  8
FOREGROUND
  6
CONTINUOUS
 10
0.000000
 20
-7.282000
  0
VERTEX
  8
FOREGROUND
  6
CONTINUOUS
 10
0.000000
 20
3.718000
  0
SEQEND
  8
0
  0
POLYLINE
  8
0
  6
CONTINUOUS
 66
     1
 40
0.014080
 41
0.014080
  0
VERTEX
  8
0
  6
CONTINUOUS
 10
6.133160
 20
3.245880
  0
VERTEX
  8
0
  6
CONTINUOUS
 10
6.185520
 20
3.244120
  0
VERTEX
  8
0
  6
CONTINUOUS
 10
6.209280
 20
3.242360
  0
VERTEX
  8
0
  6
CONTINUOUS
 10
6.272640
 20
3.231800
  0
VERTEX
  8
0
  6
CONTINUOUS
 10
6.308280
 20
3.221240
  0
VERTEX
  8
0
  6
CONTINUOUS
 10
6.339960
 20
3.208920
  0
VERTEX
  8
0
  6
CONTINUOUS
 10
6.380000
 20
3.185600
  0
VERTEX
  8
0
  6
CONTINUOUS
 10
6.413000
 20
3.158760
  0
VERTEX
  8
0
  6
CONTINUOUS
 10
6.432360
 20
3.138960
  0
VERTEX
  8
0
  6
CONTINUOUS
 10
6.466680
 20
3.096280
  0
VERTEX
  8
0
  6
CONTINUOUS
 10
6.534440
 20
3.005640
  0
VERTEX
  8
0
  6
CONTINUOUS
 10
6.575800
 20
2.962520
  0
VERTEX
  8
0
  6
CONTINUOUS
 10
6.596480
 20
2.943600
  0
VERTEX
  8
0
  6
CONTINUOUS
 10
6.637400
 20
2.912800
  0
VERTEX
  8
0
  6
CONTINUOUS
 10
6.677880
 20
2.889040
  0
VERTEX
  8
0
  6
CONTINUOUS
 10
6.717480
 20
2.872320
  0
VERTEX
  8
0
  6
CONTINUOUS
 10
6.757520
 20
2.861320
  0
VERTEX
  8
0
  6
CONTINUOUS
 10
6.797120
 20
2.855160
  0
VERTEX
  8
0
  6
CONTINUOUS
 10
6.837600
 20
2.853400
  0
VERTEX
  8
0
  6
CONTINUOUS
 10
6.878520
 20
2.854280
  0
VERTEX
  8
0
  6
CONTINUOUS
 10
6.878960
 20
2.868360
  0
VERTEX
  8
0
  6
CONTINUOUS
 10
6.883800
 20
2.893000
  0
VERTEX
  8
0
  6
CONTINUOUS
 10
6.892160
 20
2.914120
  0
VERTEX
  8
0
  6
CONTINUOUS
 10
6.904040
 20
2.931720
  0
VERTEX
  8
0
  6
CONTINUOUS
 10
6.918560
 20
2.945360
  0
VERTEX
  8
0
  6
CONTINUOUS
 10
6.935280
 20
2.955480
  0
VERTEX
  8
0
  6
CONTINUOUS
 10
6.963000
 20
2.963840
  0
VERTEX
  8
0
  6
CONTINUOUS
 10
6.982360
 20
2.964720
  0
VERTEX
  8
0
  6
CONTINUOUS
 10
7.001720
 20
2.962520
  0
VERTEX
  8
0
  6
CONTINUOUS
 10
7.020640
 20
2.956800
  0
VERTEX
  8
0
  6
CONTINUOUS
 10
7.038240
 20
2.947560
  0
VERTEX
  8
0
  6
CONTINUOUS
 10
7.053640
 20
2.935240
  0
VERTEX
  8
0
  6
CONTINUOUS
 10
7.067280
 20
2.919400
  0
VERTEX
  8
0
  6
CONTINUOUS
 10
7.077400
 20
2.900480
  0
VERTEX
  8
0
  6
CONTINUOUS
 10
7.084000
 20
2.878480
  0
VERTEX
  8
0
  6
CONTINUOUS
 10
7.085760
 20
2.866600
  0
VERTEX
  8
0
  6
CONTINUOUS
 10
7.086200
 20
2.853400
  0
VERTEX
  8
0
  6
CONTINUOUS
 10
7.262200
 20
2.853400
  0
VERTEX
  8
0
  6
CONTINUOUS
 10
7.262200
 20
2.686200
  0
VERTEX
  8
0
  6
CONTINUOUS
 10
6.130960
 20
2.686200
  0
VERTEX
  8
0
  6
CONTINUOUS
 10
6.130960
 20
3.245880
  0
VERTEX
  8
0
  6
CONTINUOUS
 10
6.133160
 20
3.245880
  0
SEQEND
  8
0
  0
SOLID
  8
0
 62
    15
 10
6.849040
 20
1.050280
 11
6.845960
 21
1.792120
 12
6.889520
 22
1.048080
 13
6.886440
 23
1.790360
  0
POLYLINE
  8
0
  6
CONTINUOUS
 66
     1
 40
0.000000
 41
0.000000
  0
VERTEX
  8
0
  6
CONTINUOUS
 10
6.849040
 20
1.050280
  0
VERTEX
  8
0
  6
CONTINUOUS
 10
6.845960
 20
1.792120
  0
VERTEX
  8
0
  6
CONTINUOUS
 10
6.886440
 20
1.790360
  0
VERTEX
  8
0
  6
CONTINUOUS
 10
6.889520
 20
1.048080
  0
VERTEX
  8
0
  6
CONTINUOUS
 10
6.849040
 20
1.050280
  0
SEQEND
  8
0
  0
SOLID
  8
0
 62
    15
 10
6.237440
 20
1.439240
 11
6.234360
 21
2.181520
 12
6.283640
 22
1.434400
 13
6.280560
 23
2.176680
  0
POLYLINE
  8
0
  6
CONTINUOUS
 66
     1
 40
0.000000
 41
0.000000
  0
VERTEX
  8
0
  6
CONTINUOUS
 10
6.237440
 20
1.439240
  0
VERTEX
  8
0
  6
CONTINUOUS
 10
6.234360
 20
2.181520
  0
VERTEX
  8
0
  6
CONTINUOUS
 10
6.280560
 20
2.176680
  0
VERTEX
  8
0
  6
CONTINUOUS
 10
6.283640
 20
1.434400
  0
VERTEX
  8
0
  6
CONTINUOUS
 10
6.237440
 20
1.439240
  0
SEQEND
  8
0
  0
SOLID
  8
0
 62
    15
 10
6.283640
 20
1.434400
 11
6.280560
 21
2.176680
 12
6.324560
 22
1.426920
 13
6.321480
 23
2.168760
  0
POLYLINE
  8
0
  6
CONTINUOUS
 66
     1
 40
0.000000
 41
0.000000
  0
VERTEX
  8
0
  6
CONTINUOUS
 10
6.283640
 20
1.434400
  0
VERTEX
  8
0
  6
CONTINUOUS
 10
6.280560
 20
2.176680
  0
VERTEX
  8
0
  6
CONTINUOUS
 10
6.321480
 20
2.168760
  0
VERTEX
  8
0
  6
CONTINUOUS
 10
6.324560
 20
1.426920
  0
VERTEX
  8
0
  6
CONTINUOUS
 10
6.283640
 20
1.434400
  0
SEQEND
  8
0
  0
SOLID
  8
0
 62
    15
 10
6.324560
 20
1.426920
 11
6.321480
 21
2.168760
 12
6.360640
 22
1.416360
 13
6.357120
 23
2.158640
  0
POLYLINE
  8
0
  6
CONTINUOUS
 66
     1
 40
0.000000
 41
0.000000
  0
VERTEX
  8
0
  6
CONTINUOUS
 10
6.324560
 20
1.426920
  0
VERTEX
  8
0
  6
CONTINUOUS
 10
6.321480
 20
2.168760
  0
VERTEX
  8
0
  6
CONTINUOUS
 10
6.357120
 20
2.158640
  0
VERTEX
  8
0
  6
CONTINUOUS
 10
6.360640
 20
1.416360
  0
VERTEX
  8
0
  6
CONTINUOUS
 10
6.324560
 20
1.426920
  0
SEQEND
  8
0
  0
SOLID
  8
0
 62
    15
 10
6.360640
 20
1.416360
 11
6.357120
 21
2.158640
 12
6.391880
 22
1.403600
 13
6.388360
 23
2.145880
  0
POLYLINE
  8
0
  6
CONTINUOUS
 66
     1
 40
0.000000
 41
0.000000
  0
VERTEX
  8
0
  6
CONTINUOUS
 10
6.360640
 20
1.416360
  0
VERTEX
  8
0
  6
CONTINUOUS
 10
6.357120
 20
2.158640
  0
VERTEX
  8
0
  6
CONTINUOUS
 10
6.388360
 20
2.145880
  0
VERTEX
  8
0
  6
CONTINUOUS
 10
6.391880
 20
1.403600
  0
VERTEX
  8
0
  6
CONTINUOUS
 10
6.360640
 20
1.416360
  0
SEQEND
  8
0
  0
SOLID
  8
0
 62
    15
 10
6.391880
 20
1.403600
 11
6.388360
 21
2.145880
 12
6.419160
 22
1.389080
 13
6.416080
 23
2.130920
  0
POLYLINE
  8
0
  6
CONTINUOUS
 66
     1
 40
0.000000
 41
0.000000
  0
VERTEX
  8
0
  6
CONTINUOUS
 10
6.391880
 20
1.403600
  0
VERTEX
  8
0
  6
CONTINUOUS
 10
6.388360
 20
2.145880
  0
VERTEX
  8
0
  6
CONTINUOUS
 10
6.416080
 20
2.130920
  0
VERTEX
  8
0
  6
CONTINUOUS
 10
6.419160
 20
1.389080
  0
VERTEX
  8
0
  6
CONTINUOUS
 10
6.391880
 20
1.403600
  0
SEQEND
  8
0
  0
SOLID
  8
0
 62
    15
 10
6.419160
 20
1.389080
 11
6.416080
 21
2.130920
 12
6.443360
 22
1.371920
 13
6.440280
 23
2.114200
  0
POLYLINE
  8
0
  6
CONTINUOUS
 66
     1
 40
0.000000
 41
0.000000
  0
VERTEX
  8
0
  6
CONTINUOUS
 10
6.419160
 20
1.389080
  0
VERTEX
  8
0
  6
CONTINUOUS
 10
6.416080
 20
2.130920
  0
VERTEX
  8
0
  6
CONTINUOUS
 10
6.440280
 20
2.114200
  0
VERTEX
  8
0
  6
CONTINUOUS
 10
6.443360
 20
1.371920
  0
VERTEX
  8
0
  6
CONTINUOUS
 10
6.419160
 20
1.389080
  0
SEQEND
  8
0
  0
SOLID
  8
0
 62
    15
 10
6.443360
 20
1.371920
 11
6.440280
 21
2.114200
 12
6.464920
 22
1.353880
 13
6.461840
 23
2.095720
  0
POLYLINE
  8
0
  6
CONTINUOUS
 66
     1
 40
0.000000
 41
0.000000
  0
VERTEX
  8
0
  6
CONTINUOUS
 10
6.443360
 20
1.371920
  0
VERTEX
  8
0
  6
CONTINUOUS
 10
6.440280
 20
2.114200
  0
VERTEX
  8
0
  6
CONTINUOUS
 10
6.461840
 20
2.095720
  0
VERTEX
  8
0
  6
CONTINUOUS
 10
6.464920
 20
1.353880
  0
VERTEX
  8
0
  6
CONTINUOUS
 10
6.443360
 20
1.371920
  0
SEQEND
  8
0
  0
SOLID
  8
0
 62
    15
 10
6.464920
 20
1.353880
 11
6.461840
 21
2.095720
 12
6.501880
 22
1.312960
 13
6.498800
 23
2.055240
  0
POLYLINE
  8
0
  6
CONTINUOUS
 66
     1
 40
0.000000
 41
0.000000
  0
VERTEX
  8
0
  6
CONTINUOUS
 10
6.464920
 20
1.353880
  0
VERTEX
  8
0
  6
CONTINUOUS
 10
6.461840
 20
2.095720
  0
VERTEX
  8
0
  6
CONTINUOUS
 10
6.498800
 20
2.055240
  0
VERTEX
  8
0
  6
CONTINUOUS
 10
6.501880
 20
1.312960
  0
VERTEX
  8
0
  6
CONTINUOUS
 10
6.464920
 20
1.353880
  0
SEQEND
  8
0
  0
SOLID
  8
0
 62
    15
 10
6.501880
 20
1.312960
 11
6.498800
 21
2.055240
 12
6.534880
 22
1.268960
 13
6.531800
 23
2.010800
  0
POLYLINE
  8
0
  6
CONTINUOUS
 66
     1
 40
0.000000
 41
0.000000
  0
VERTEX
  8
0
  6
CONTINUOUS
 10
6.501880
 20
1.312960
  0
VERTEX
  8
0
  6
CONTINUOUS
 10
6.498800
 20
2.055240
  0
VERTEX
  8
0
  6
CONTINUOUS
 10
6.531800
 20
2.010800
  0
VERTEX
  8
0
  6
CONTINUOUS
 10
6.534880
 20
1.268960
  0
VERTEX
  8
0
  6
CONTINUOUS
 10
6.501880
 20
1.312960
  0
SEQEND
  8
0
  0
SOLID
  8
0
 62
    15
 10
6.534880
 20
1.268960
 11
6.531800
 21
2.010800
 12
6.543240
 22
1.257520
 13
6.539720
 23
1.999360
  0
POLYLINE
  8
0
  6
CONTINUOUS
 66
     1
 40
0.000000
 41
0.000000
  0
VERTEX
  8
0
  6
CONTINUOUS
 10
6.534880
 20
1.268960
  0
VERTEX
  8
0
  6
CONTINUOUS
 10
6.531800
 20
2.010800
  0
VERTEX
  8
0
  6
CONTINUOUS
 10
6.539720
 20
1.999360
  0
VERTEX
  8
0
  6
CONTINUOUS
 10
6.543240
 20
1.257520
  0
VERTEX
  8
0
  6
CONTINUOUS
 10
6.534880
 20
1.268960
  0
SEQEND
  8
0
  0
SOLID
  8
0
 62
    15
 10
6.543240
 20
1.257520
 11
6.539720
 21
1.999360
 12
6.551600
 22
1.246080
 13
6.548080
 23
1.988360
  0
POLYLINE
  8
0
  6
CONTINUOUS
 66
     1
 40
0.000000
 41
0.000000
  0
VERTEX
  8
0
  6
CONTINUOUS
 10
6.543240
 20
1.257520
  0
VERTEX
  8
0
  6
CONTINUOUS
 10
6.539720
 20
1.999360
  0
VERTEX
  8
0
  6
CONTINUOUS
 10
6.548080
 20
1.988360
  0
VERTEX
  8
0
  6
CONTINUOUS
 10
6.551600
 20
1.246080
  0
VERTEX
  8
0
  6
CONTINUOUS
 10
6.543240
 20
1.257520
  0
SEQEND
  8
0
  0
SOLID
  8
0
 62
    15
 10
6.551600
 20
1.246080
 11
6.548080
 21
1.988360
 12
6.568320
 22
1.223200
 13
6.565240
 23
1.965480
  0
POLYLINE
  8
0
  6
CONTINUOUS
 66
     1
 40
0.000000
 41
0.000000
  0
VERTEX
  8
0
  6
CONTINUOUS
 10
6.551600
 20
1.246080
  0
VERTEX
  8
0
  6
CONTINUOUS
 10
6.548080
 20
1.988360
  0
VERTEX
  8
0
  6
CONTINUOUS
 10
6.565240
 20
1.965480
  0
VERTEX
  8
0
  6
CONTINUOUS
 10
6.568320
 20
1.223200
  0
VERTEX
  8
0
  6
CONTINUOUS
 10
6.551600
 20
1.246080
  0
SEQEND
  8
0
  0
SOLID
  8
0
 62
    15
 10
6.568320
 20
1.223200
 11
6.565240
 21
1.965480
 12
6.606600
 22
1.178320
 13
6.603520
 23
1.920160
  0
POLYLINE
  8
0
  6
CONTINUOUS
 66
     1
 40
0.000000
 41
0.000000
  0
VERTEX
  8
0
  6
CONTINUOUS
 10
6.568320
 20
1.223200
  0
VERTEX
  8
0
  6
CONTINUOUS
 10
6.565240
 20
1.965480
  0
VERTEX
  8
0
  6
CONTINUOUS
 10
6.603520
 20
1.920160
  0
VERTEX
  8
0
  6
CONTINUOUS
 10
6.606600
 20
1.178320
  0
VERTEX
  8
0
  6
CONTINUOUS
 10
6.568320
 20
1.223200
  0
SEQEND
  8
0
  0
SOLID
  8
0
 62
    15
 10
6.606600
 20
1.178320
 11
6.603520
 21
1.920160
 12
6.648840
 22
1.138720
 13
6.645320
 23
1.880560
  0
POLYLINE
  8
0
  6
CONTINUOUS
 66
     1
 40
0.000000
 41
0.000000
  0
VERTEX
  8
0
  6
CONTINUOUS
 10
6.606600
 20
1.178320
  0
VERTEX
  8
0
  6
CONTINUOUS
 10
6.603520
 20
1.920160
  0
VERTEX
  8
0
  6
CONTINUOUS
 10
6.645320
 20
1.880560
  0
VERTEX
  8
0
  6
CONTINUOUS
 10
6.648840
 20
1.138720
  0
VERTEX
  8
0
  6
CONTINUOUS
 10
6.606600
 20
1.178320
  0
SEQEND
  8
0
  0
SOLID
  8
0
 62
    15
 10
6.648840
 20
1.138720
 11
6.645320
 21
1.880560
 12
6.689320
 22
1.107480
 13
6.686240
 23
1.849760
  0
POLYLINE
  8
0
  6
CONTINUOUS
 66
     1
 40
0.000000
 41
0.000000
  0
VERTEX
  8
0
  6
CONTINUOUS
 10
6.648840
 20
1.138720
  0
VERTEX
  8
0
  6
CONTINUOUS
 10
6.645320
 20
1.880560
  0
VERTEX
  8
0
  6
CONTINUOUS
 10
6.686240
 20
1.849760
  0
VERTEX
  8
0
  6
CONTINUOUS
 10
6.689320
 20
1.107480
  0
VERTEX
  8
0
  6
CONTINUOUS
 10
6.648840
 20
1.138720
  0
SEQEND
  8
0
  0
SOLID
  8
0
 62
    15
 10
6.689320
 20
1.107480
 11
6.686240
 21
1.849760
 12
6.729800
 22
1.084160
 13
6.726280
 23
1.826000
  0
POLYLINE
  8
0
  6
CONTINUOUS
 66
     1
 40
0.000000
 41
0.000000
  0
VERTEX
  8
0
  6
CONTINUOUS
 10
6.689320
 20
1.107480
  0
VERTEX
  8
0
  6
CONTINUOUS
 10
6.686240
 20
1.849760
  0
VERTEX
  8
0
  6
CONTINUOUS
 10
6.726280
 20
1.826000
  0
VERTEX
  8
0
  6
CONTINUOUS
 10
6.729800
 20
1.084160
  0
VERTEX
  8
0
  6
CONTINUOUS
 10
6.689320
 20
1.107480
  0
SEQEND
  8
0
  0
SOLID
  8
0
 62
    15
 10
6.729800
 20
1.084160
 11
6.726280
 21
1.826000
 12
6.769400
 22
1.067440
 13
6.766320
 23
1.809280
  0
POLYLINE
  8
0
  6
CONTINUOUS
 66
     1
 40
0.000000
 41
0.000000
  0
VERTEX
  8
0
  6
CONTINUOUS
 10
6.729800
 20
1.084160
  0
VERTEX
  8
0
  6
CONTINUOUS
 10
6.726280
 20
1.826000
  0
VERTEX
  8
0
  6
CONTINUOUS
 10
6.766320
 20
1.809280
  0
VERTEX
  8
0
  6
CONTINUOUS
 10
6.769400
 20
1.067440
  0
VERTEX
  8
0
  6
CONTINUOUS
 10
6.729800
 20
1.084160
  0
SEQEND
  8
0
  0
SOLID
  8
0
 62
    15
 10
6.769400
 20
1.067440
 11
6.766320
 21
1.809280
 12
6.809440
 22
1.056440
 13
6.805920
 23
1.798280
  0
POLYLINE
  8
0
  6
CONTINUOUS
 66
     1
 40
0.000000
 41
0.000000
  0
VERTEX
  8
0
  6
CONTINUOUS
 10
6.769400
 20
1.067440
  0
VERTEX
  8
0
  6
CONTINUOUS
 10
6.766320
 20
1.809280
  0
VERTEX
  8
0
  6
CONTINUOUS
 10
6.805920
 20
1.798280
  0
VERTEX
  8
0
  6
CONTINUOUS
 10
6.809440
 20
1.056440
  0
VERTEX
  8
0
  6
CONTINUOUS
 10
6.769400
 20
1.067440
  0
SEQEND
  8
0
  0
SOLID
  8
0
 62
    15
 10
6.809440
 20
1.056440
 11
6.805920
 21
1.798280
 12
6.849040
 22
1.050280
 13
6.845960
 23
1.792120
  0
POLYLINE
  8
0
  6
CONTINUOUS
 66
     1
 40
0.000000
 41
0.000000
  0
VERTEX
  8
0
  6
CONTINUOUS
 10
6.809440
 20
1.056440
  0
VERTEX
  8
0
  6
CONTINUOUS
 10
6.805920
 20
1.798280
  0
VERTEX
  8
0
  6
CONTINUOUS
 10
6.845960
 20
1.792120
  0
VERTEX
  8
0
  6
CONTINUOUS
 10
6.849040
 20
1.050280
  0
VERTEX
  8
0
  6
CONTINUOUS
 10
6.809440
 20
1.056440
  0
SEQEND
  8
0
  0
SOLID
  8
0
 62
    15
 10
6.185080
 20
1.441000
 11
6.181560
 21
2.182840
 12
6.237440
 22
1.439240
 13
6.234360
 23
2.181520
  0
POLYLINE
  8
0
  6
CONTINUOUS
 66
     1
 40
0.000000
 41
0.000000
  0
VERTEX
  8
0
  6
CONTINUOUS
 10
6.185080
 20
1.441000
  0
VERTEX
  8
0
  6
CONTINUOUS
 10
6.181560
 20
2.182840
  0
VERTEX
  8
0
  6
CONTINUOUS
 10
6.234360
 20
2.181520
  0
VERTEX
  8
0
  6
CONTINUOUS
 10
6.237440
 20
1.439240
  0
VERTEX
  8
0
  6
CONTINUOUS
 10
6.185080
 20
1.441000
  0
SEQEND
  8
0
  0
SOLID
  8
0
 62
    15
 10
6.889520
 20
1.048080
 11
6.886440
 21
1.790360
 12
6.930440
 22
1.049400
 13
6.927360
 23
1.791240
  0
POLYLINE
  8
0
  6
CONTINUOUS
 66
     1
 40
0.000000
 41
0.000000
  0
VERTEX
  8
0
  6
CONTINUOUS
 10
6.889520
 20
1.048080
  0
VERTEX
  8
0
  6
CONTINUOUS
 10
6.886440
 20
1.790360
  0
VERTEX
  8
0
  6
CONTINUOUS
 10
6.927360
 20
1.791240
  0
VERTEX
  8
0
  6
CONTINUOUS
 10
6.930440
 20
1.049400
  0
VERTEX
  8
0
  6
CONTINUOUS
 10
6.889520
 20
1.048080
  0
SEQEND
  8
0
  0
SOLID
  8
0
 62
    15
 10
6.930440
 20
1.049400
 11
6.927360
 21
1.791240
 12
6.933080
 22
1.076240
 13
6.929560
 23
1.818080
  0
POLYLINE
  8
0
  6
CONTINUOUS
 66
     1
 40
0.000000
 41
0.000000
  0
VERTEX
  8
0
  6
CONTINUOUS
 10
6.930440
 20
1.049400
  0
VERTEX
  8
0
  6
CONTINUOUS
 10
6.927360
 20
1.791240
  0
VERTEX
  8
0
  6
CONTINUOUS
 10
6.929560
 20
1.818080
  0
VERTEX
  8
0
  6
CONTINUOUS
 10
6.933080
 20
1.076240
  0
VERTEX
  8
0
  6
CONTINUOUS
 10
6.930440
 20
1.049400
  0
SEQEND
  8
0
  0
SOLID
  8
0
 62
    15
 10
6.933080
 20
1.076240
 11
6.929560
 21
1.818080
 12
6.939680
 22
1.099120
 13
6.936160
 23
1.840960
  0
POLYLINE
  8
0
  6
CONTINUOUS
 66
     1
 40
0.000000
 41
0.000000
  0
VERTEX
  8
0
  6
CONTINUOUS
 10
6.933080
 20
1.076240
  0
VERTEX
  8
0
  6
CONTINUOUS
 10
6.929560
 20
1.818080
  0
VERTEX
  8
0
  6
CONTINUOUS
 10
6.936160
 20
1.840960
  0
VERTEX
  8
0
  6
CONTINUOUS
 10
6.939680
 20
1.099120
  0
VERTEX
  8
0
  6
CONTINUOUS
 10
6.933080
 20
1.076240
  0
SEQEND
  8
0
  0
SOLID
  8
0
 62
    15
 10
6.939680
 20
1.099120
 11
6.936160
 21
1.840960
 12
6.949800
 22
1.118480
 13
6.946720
 23
1.860320
  0
POLYLINE
  8
0
  6
CONTINUOUS
 66
     1
 40
0.000000
 41
0.000000
  0
VERTEX
  8
0
  6
CONTINUOUS
 10
6.939680
 20
1.099120
  0
VERTEX
  8
0
  6
CONTINUOUS
 10
6.936160
 20
1.840960
  0
VERTEX
  8
0
  6
CONTINUOUS
 10
6.946720
 20
1.860320
  0
VERTEX
  8
0
  6
CONTINUOUS
 10
6.949800
 20
1.118480
  0
VERTEX
  8
0
  6
CONTINUOUS
 10
6.939680
 20
1.099120
  0
SEQEND
  8
0
  0
SOLID
  8
0
 62
    15
 10
6.949800
 20
1.118480
 11
6.946720
 21
1.860320
 12
6.963000
 22
1.133880
 13
6.959920
 23
1.875720
  0
POLYLINE
  8
0
  6
CONTINUOUS
 66
     1
 40
0.000000
 41
0.000000
  0
VERTEX
  8
0
  6
CONTINUOUS
 10
6.949800
 20
1.118480
  0
VERTEX
  8
0
  6
CONTINUOUS
 10
6.946720
 20
1.860320
  0
VERTEX
  8
0
  6
CONTINUOUS
 10
6.959920
 20
1.875720
  0
VERTEX
  8
0
  6
CONTINUOUS
 10
6.963000
 20
1.133880
  0
VERTEX
  8
0
  6
CONTINUOUS
 10
6.949800
 20
1.118480
  0
SEQEND
  8
0
  0
SOLID
  8
0
 62
    15
 10
6.963000
 20
1.133880
 11
6.959920
 21
1.875720
 12
6.978840
 22
1.145760
 13
6.975760
 23
1.887600
  0
POLYLINE
  8
0
  6
CONTINUOUS
 66
     1
 40
0.000000
 41
0.000000
  0
VERTEX
  8
0
  6
CONTINUOUS
 10
6.963000
 20
1.133880
  0
VERTEX
  8
0
  6
CONTINUOUS
 10
6.959920
 20
1.875720
  0
VERTEX
  8
0
  6
CONTINUOUS
 10
6.975760
 20
1.887600
  0
VERTEX
  8
0
  6
CONTINUOUS
 10
6.978840
 20
1.145760
  0
VERTEX
  8
0
  6
CONTINUOUS
 10
6.963000
 20
1.133880
  0
SEQEND
  8
0
  0
SOLID
  8
0
 62
    15
 10
6.978840
 20
1.145760
 11
6.975760
 21
1.887600
 12
6.996440
 22
1.154120
 13
6.992920
 23
1.895960
  0
POLYLINE
  8
0
  6
CONTINUOUS
 66
     1
 40
0.000000
 41
0.000000
  0
VERTEX
  8
0
  6
CONTINUOUS
 10
6.978840
 20
1.145760
  0
VERTEX
  8
0
  6
CONTINUOUS
 10
6.975760
 20
1.887600
  0
VERTEX
  8
0
  6
CONTINUOUS
 10
6.992920
 20
1.895960
  0
VERTEX
  8
0
  6
CONTINUOUS
 10
6.996440
 20
1.154120
  0
VERTEX
  8
0
  6
CONTINUOUS
 10
6.978840
 20
1.145760
  0
SEQEND
  8
0
  0
SOLID
  8
0
 62
    15
 10
6.996440
 20
1.154120
 11
6.992920
 21
1.895960
 12
7.014920
 22
1.158520
 13
7.011840
 23
1.900360
  0
POLYLINE
  8
0
  6
CONTINUOUS
 66
     1
 40
0.000000
 41
0.000000
  0
VERTEX
  8
0
  6
CONTINUOUS
 10
6.996440
 20
1.154120
  0
VERTEX
  8
0
  6
CONTINUOUS
 10
6.992920
 20
1.895960
  0
VERTEX
  8
0
  6
CONTINUOUS
 10
7.011840
 20
1.900360
  0
VERTEX
  8
0
  6
CONTINUOUS
 10
7.014920
 20
1.158520
  0
VERTEX
  8
0
  6
CONTINUOUS
 10
6.996440
 20
1.154120
  0
SEQEND
  8
0
  0
SOLID
  8
0
 62
    15
 10
7.014920
 20
1.158520
 11
7.011840
 21
1.900360
 12
7.034280
 22
1.159840
 13
7.031200
 23
1.901680
  0
POLYLINE
  8
0
  6
CONTINUOUS
 66
     1
 40
0.000000
 41
0.000000
  0
VERTEX
  8
0
  6
CONTINUOUS
 10
7.014920
 20
1.158520
  0
VERTEX
  8
0
  6
CONTINUOUS
 10
7.011840
 20
1.900360
  0
VERTEX
  8
0
  6
CONTINUOUS
 10
7.031200
 20
1.901680
  0
VERTEX
  8
0
  6
CONTINUOUS
 10
7.034280
 20
1.159840
  0
VERTEX
  8
0
  6
CONTINUOUS
 10
7.014920
 20
1.158520
  0
SEQEND
  8
0
  0
SOLID
  8
0
 62
    15
 10
7.034280
 20
1.159840
 11
7.031200
 21
1.901680
 12
7.053640
 22
1.157200
 13
7.050560
 23
1.899480
  0
POLYLINE
  8
0
  6
CONTINUOUS
 66
     1
 40
0.000000
 41
0.000000
  0
VERTEX
  8
0
  6
CONTINUOUS
 10
7.034280
 20
1.159840
  0
VERTEX
  8
0
  6
CONTINUOUS
 10
7.031200
 20
1.901680
  0
VERTEX
  8
0
  6
CONTINUOUS
 10
7.050560
 20
1.899480
  0
VERTEX
  8
0
  6
CONTINUOUS
 10
7.053640
 20
1.157200
  0
VERTEX
  8
0
  6
CONTINUOUS
 10
7.034280
 20
1.159840
  0
SEQEND
  8
0
  0
SOLID
  8
0
 62
    15
 10
7.053640
 20
1.157200
 11
7.050560
 21
1.899480
 12
7.072560
 22
1.151480
 13
7.069480
 23
1.893760
  0
POLYLINE
  8
0
  6
CONTINUOUS
 66
     1
 40
0.000000
 41
0.000000
  0
VERTEX
  8
0
  6
CONTINUOUS
 10
7.053640
 20
1.157200
  0
VERTEX
  8
0
  6
CONTINUOUS
 10
7.050560
 20
1.899480
  0
VERTEX
  8
0
  6
CONTINUOUS
 10
7.069480
 20
1.893760
  0
VERTEX
  8
0
  6
CONTINUOUS
 10
7.072560
 20
1.151480
  0
VERTEX
  8
0
  6
CONTINUOUS
 10
7.053640
 20
1.157200
  0
SEQEND
  8
0
  0
SOLID
  8
0
 62
    15
 10
7.072560
 20
1.151480
 11
7.069480
 21
1.893760
 12
7.090160
 22
1.142680
 13
7.086640
 23
1.884520
  0
POLYLINE
  8
0
  6
CONTINUOUS
 66
     1
 40
0.000000
 41
0.000000
  0
VERTEX
  8
0
  6
CONTINUOUS
 10
7.072560
 20
1.151480
  0
VERTEX
  8
0
  6
CONTINUOUS
 10
7.069480
 20
1.893760
  0
VERTEX
  8
0
  6
CONTINUOUS
 10
7.086640
 20
1.884520
  0
VERTEX
  8
0
  6
CONTINUOUS
 10
7.090160
 20
1.142680
  0
VERTEX
  8
0
  6
CONTINUOUS
 10
7.072560
 20
1.151480
  0
SEQEND
  8
0
  0
SOLID
  8
0
 62
    15
 10
7.090160
 20
1.142680
 11
7.086640
 21
1.884520
 12
7.106000
 22
1.129920
 13
7.102480
 23
1.872200
  0
POLYLINE
  8
0
  6
CONTINUOUS
 66
     1
 40
0.000000
 41
0.000000
  0
VERTEX
  8
0
  6
CONTINUOUS
 10
7.090160
 20
1.142680
  0
VERTEX
  8
0
  6
CONTINUOUS
 10
7.086640
 20
1.884520
  0
VERTEX
  8
0
  6
CONTINUOUS
 10
7.102480
 20
1.872200
  0
VERTEX
  8
0
  6
CONTINUOUS
 10
7.106000
 20
1.129920
  0
VERTEX
  8
0
  6
CONTINUOUS
 10
7.090160
 20
1.142680
  0
SEQEND
  8
0
  0
SOLID
  8
0
 62
    15
 10
7.106000
 20
1.129920
 11
7.102480
 21
1.872200
 12
7.119200
 22
1.114520
 13
7.115680
 23
1.856360
  0
POLYLINE
  8
0
  6
CONTINUOUS
 66
     1
 40
0.000000
 41
0.000000
  0
VERTEX
  8
0
  6
CONTINUOUS
 10
7.106000
 20
1.129920
  0
VERTEX
  8
0
  6
CONTINUOUS
 10
7.102480
 20
1.872200
  0
VERTEX
  8
0
  6
CONTINUOUS
 10
7.115680
 20
1.856360
  0
VERTEX
  8
0
  6
CONTINUOUS
 10
7.119200
 20
1.114520
  0
VERTEX
  8
0
  6
CONTINUOUS
 10
7.106000
 20
1.129920
  0
SEQEND
  8
0
  0
SOLID
  8
0
 62
    15
 10
7.119200
 20
1.114520
 11
7.115680
 21
1.856360
 12
7.129320
 22
1.095600
 13
7.126240
 23
1.837440
  0
POLYLINE
  8
0
  6
CONTINUOUS
 66
     1
 40
0.000000
 41
0.000000
  0
VERTEX
  8
0
  6
CONTINUOUS
 10
7.119200
 20
1.114520
  0
VERTEX
  8
0
  6
CONTINUOUS
 10
7.115680
 20
1.856360
  0
VERTEX
  8
0
  6
CONTINUOUS
 10
7.126240
 20
1.837440
  0
VERTEX
  8
0
  6
CONTINUOUS
 10
7.129320
 20
1.095600
  0
VERTEX
  8
0
  6
CONTINUOUS
 10
7.119200
 20
1.114520
  0
SEQEND
  8
0
  0
SOLID
  8
0
 62
    15
 10
7.129320
 20
1.095600
 11
7.126240
 21
1.837440
 12
7.135920
 22
1.073160
 13
7.132840
 23
1.815440
  0
POLYLINE
  8
0
  6
CONTINUOUS
 66
     1
 40
0.000000
 41
0.000000
  0
VERTEX
  8
0
  6
CONTINUOUS
 10
7.129320
 20
1.095600
  0
VERTEX
  8
0
  6
CONTINUOUS
 10
7.126240
 20
1.837440
  0
VERTEX
  8
0
  6
CONTINUOUS
 10
7.132840
 20
1.815440
  0
VERTEX
  8
0
  6
CONTINUOUS
 10
7.135920
 20
1.073160
  0
VERTEX
  8
0
  6
CONTINUOUS
 10
7.129320
 20
1.095600
  0
SEQEND
  8
0
  0
SOLID
  8
0
 62
    15
 10
7.135920
 20
1.073160
 11
7.132840
 21
1.815440
 12
7.138120
 22
1.048080
 13
7.135040
 23
1.789920
  0
POLYLINE
  8
0
  6
CONTINUOUS
 66
     1
 40
0.000000
 41
0.000000
  0
VERTEX
  8
0
  6
CONTINUOUS
 10
7.135920
 20
1.073160
  0
VERTEX
  8
0
  6
CONTINUOUS
 10
7.132840
 20
1.815440
  0
VERTEX
  8
0
  6
CONTINUOUS
 10
7.135040
 20
1.789920
  0
VERTEX
  8
0
  6
CONTINUOUS
 10
7.138120
 20
1.048080
  0
VERTEX
  8
0
  6
CONTINUOUS
 10
7.135920
 20
1.073160
  0
SEQEND
  8
0
  0
SOLID
  8
0
 62
    15
 10
7.138120
 20
1.048080
 11
7.135040
 21
1.789920
 12
7.314120
 22
1.048080
 13
7.311040
 23
1.789920
  0
POLYLINE
  8
0
  6
CONTINUOUS
 66
     1
 40
0.000000
 41
0.000000
  0
VERTEX
  8
0
  6
CONTINUOUS
 10
7.138120
 20
1.048080
  0
VERTEX
  8
0
  6
CONTINUOUS
 10
7.135040
 20
1.789920
  0
VERTEX
  8
0
  6
CONTINUOUS
 10
7.311040
 20
1.789920
  0
VERTEX
  8
0
  6
CONTINUOUS
 10
7.314120
 20
1.048080
  0
VERTEX
  8
0
  6
CONTINUOUS
 10
7.138120
 20
1.048080
  0
SEQEND
  8
0
  0
SOLID
  8
0
 62
    15
 10
6.182880
 20
0.880880
 11
6.179360
 21
1.622720
 12
6.182880
 22
1.441000
 13
6.179360
 23
2.182840
  0
POLYLINE
  8
0
  6
CONTINUOUS
 66
     1
 40
0.000000
 41
0.000000
  0
VERTEX
  8
0
  6
CONTINUOUS
 10
6.182880
 20
0.880880
  0
VERTEX
  8
0
  6
CONTINUOUS
 10
6.179360
 20
1.622720
  0
VERTEX
  8
0
  6
CONTINUOUS
 10
6.179360
 20
2.182840
  0
VERTEX
  8
0
  6
CONTINUOUS
 10
6.182880
 20
1.441000
  0
VERTEX
  8
0
  6
CONTINUOUS
 10
6.182880
 20
0.880880
  0
SEQEND
  8
0
  0
SOLID
  8
0
 62
    15
 10
6.182880
 20
1.441000
 11
6.179360
 21
2.182840
 12
6.185080
 22
1.441000
 13
6.181560
 23
2.182840
  0
POLYLINE
  8
0
  6
CONTINUOUS
 66
     1
 40
0.000000
 41
0.000000
  0
VERTEX
  8
0
  6
CONTINUOUS
 10
6.182880
 20
1.441000
  0
VERTEX
  8
0
  6
CONTINUOUS
 10
6.179360
 20
2.182840
  0
VERTEX
  8
0
  6
CONTINUOUS
 10
6.181560
 20
2.182840
  0
VERTEX
  8
0
  6
CONTINUOUS
 10
6.185080
 20
1.441000
  0
VERTEX
  8
0
  6
CONTINUOUS
 10
6.182880
 20
1.441000
  0
SEQEND
  8
0
  0
POLYLINE
  8
0
  6
CONTINUOUS
 66
     1
 40
0.000000
 41
0.000000
  0
VERTEX
  8
0
  6
CONTINUOUS
 10
6.185080
 20
1.441000
  0
VERTEX
  8
0
  6
CONTINUOUS
 10
6.237440
 20
1.439240
  0
VERTEX
  8
0
  6
CONTINUOUS
 10
6.283640
 20
1.434400
  0
VERTEX
  8
0
  6
CONTINUOUS
 10
6.324560
 20
1.426920
  0
VERTEX
  8
0
  6
CONTINUOUS
 10
6.360640
 20
1.416360
  0
VERTEX
  8
0
  6
CONTINUOUS
 10
6.391880
 20
1.403600
  0
VERTEX
  8
0
  6
CONTINUOUS
 10
6.419160
 20
1.389080
  0
VERTEX
  8
0
  6
CONTINUOUS
 10
6.443360
 20
1.371920
  0
VERTEX
  8
0
  6
CONTINUOUS
 10
6.464920
 20
1.353880
  0
VERTEX
  8
0
  6
CONTINUOUS
 10
6.501880
 20
1.312960
  0
VERTEX
  8
0
  6
CONTINUOUS
 10
6.534880
 20
1.268960
  0
VERTEX
  8
0
  6
CONTINUOUS
 10
6.543240
 20
1.257520
  0
VERTEX
  8
0
  6
CONTINUOUS
 10
6.551600
 20
1.246080
  0
VERTEX
  8
0
  6
CONTINUOUS
 10
6.568320
 20
1.223200
  0
VERTEX
  8
0
  6
CONTINUOUS
 10
6.606600
 20
1.178320
  0
VERTEX
  8
0
  6
CONTINUOUS
 10
6.648840
 20
1.138720
  0
VERTEX
  8
0
  6
CONTINUOUS
 10
6.689320
 20
1.107480
  0
VERTEX
  8
0
  6
CONTINUOUS
 10
6.729800
 20
1.084160
  0
VERTEX
  8
0
  6
CONTINUOUS
 10
6.769400
 20
1.067440
  0
VERTEX
  8
0
  6
CONTINUOUS
 10
6.809440
 20
1.056440
  0
VERTEX
  8
0
  6
CONTINUOUS
 10
6.849040
 20
1.050280
  0
VERTEX
  8
0
  6
CONTINUOUS
 10
6.889520
 20
1.048080
  0
VERTEX
  8
0
  6
CONTINUOUS
 10
6.930440
 20
1.049400
  0
VERTEX
  8
0
  6
CONTINUOUS
 10
6.933080
 20
1.076240
  0
VERTEX
  8
0
  6
CONTINUOUS
 10
6.939680
 20
1.099120
  0
VERTEX
  8
0
  6
CONTINUOUS
 10
6.949800
 20
1.118480
  0
VERTEX
  8
0
  6
CONTINUOUS
 10
6.963000
 20
1.133880
  0
VERTEX
  8
0
  6
CONTINUOUS
 10
6.978840
 20
1.145760
  0
VERTEX
  8
0
  6
CONTINUOUS
 10
6.996440
 20
1.154120
  0
VERTEX
  8
0
  6
CONTINUOUS
 10
7.014920
 20
1.158520
  0
VERTEX
  8
0
  6
CONTINUOUS
 10
7.034280
 20
1.159840
  0
VERTEX
  8
0
  6
CONTINUOUS
 10
7.053640
 20
1.157200
  0
VERTEX
  8
0
  6
CONTINUOUS
 10
7.072560
 20
1.151480
  0
VERTEX
  8
0
  6
CONTINUOUS
 10
7.090160
 20
1.142680
  0
VERTEX
  8
0
  6
CONTINUOUS
 10
7.106000
 20
1.129920
  0
VERTEX
  8
0
  6
CONTINUOUS
 10
7.119200
 20
1.114520
  0
VERTEX
  8
0
  6
CONTINUOUS
 10
7.129320
 20
1.095600
  0
VERTEX
  8
0
  6
CONTINUOUS
 10
7.135920
 20
1.073160
  0
VERTEX
  8
0
  6
CONTINUOUS
 10
7.138120
 20
1.048080
  0
VERTEX
  8
0
  6
CONTINUOUS
 10
7.314120
 20
1.048080
  0
VERTEX
  8
0
  6
CONTINUOUS
 10
7.314120
 20
0.880880
  0
VERTEX
  8
0
  6
CONTINUOUS
 10
6.182880
 20
0.880880
  0
VERTEX
  8
0
  6
CONTINUOUS
 10
6.182880
 20
1.441000
  0
VERTEX
  8
0
  6
CONTINUOUS
 10
6.185080
 20
1.441000
  0
SEQEND
  8
0
  0
TEXT
  8
0
 10
6.501000
 20
0.660000
 40
0.115075
  1
BA  447
 41
1.000000
  7
SN0
 71
     0
 72
     5
 11
6.991830
 21
0.660000
  0
TEXT
  8
0
 10
6.332480
 20
0.500280
 40
0.115075
  1
9/16" x 1-1/8"
 41
1.000000
  7
SN0
 71
     0
 72
     5
 11
7.157783
 21
0.500280
  0
ENDSEC
  0
EOF
