  0
SECTION
  2
HEADER
  9
$ACADVER
  1
AC1006
  9
$EXTMIN
 10
4.242040
 20
0.437800
  9
$EXTMAX
 10
7.257360
 20
4.082320
  9
$LTSCALE
 40
0.044000
  9
$PDMODE
 70
    35
  9
$PDSIZE
 40
0.035200
  0
ENDSEC
  0
SECTION
  2
TABLES
  0
TABLE
  2
LTYPE
 70
     9
  0
LTYPE
  2
CONTINUOUS
 70
    64
  3
Solid line
 72
    65
 73
     0
 40
0.000000
  0
LTYPE
  2
DASHED
 70
    64
  3
__ __ __ __ __ __ __ __ __ __ __ __ __ __ __
 72
    65
 73
     2
 40
0.000330
 49
0.000220
 49
-0.000110
  0
LTYPE
  2
HIDDEN
 70
    64
  3
 _ _ _ _ _ _ _ _ _ _ _ _ _ _ _ _ _ _ _ _ _ _
 72
    65
 73
     2
 40
0.000165
 49
0.000110
 49
-0.000055
  0
LTYPE
  2
CENTER
 70
    64
  3
____ _ ____ _ ____ _ ____ _ ____ _ ____ _ ____
 72
    65
 73
     4
 40
0.000880
 49
0.000550
 49
-0.000110
 49
0.000110
 49
-0.000110
  0
LTYPE
  2
PHANTOM
 70
    64
  3
_____ _ _ _____ _ _ _____ _ _ _____ _ _ ____
 72
    65
 73
     6
 40
0.001100
 49
0.000550
 49
-0.000110
 49
0.000110
 49
-0.000110
 49
0.000110
 49
-0.000110
  0
LTYPE
  2
DOT
 70
    64
  3
...............................................
 72
    65
 73
     2
 40
0.000110
 49
0.000000
 49
-0.000110
  0
LTYPE
  2
DASHDOT
 70
    64
  3
__ . __ . __ . __ . __ . __ . __ . __ . __ . __
 72
    65
 73
     4
 40
0.000440
 49
0.000220
 49
-0.000110
 49
0.000000
 49
-0.000110
  0
LTYPE
  2
BORDER
 70
    64
  3
__ __ . __ __ . __ __ . __ __ . __ __ . __ __
 72
    65
 73
     6
 40
0.000770
 49
0.000220
 49
-0.000110
 49
0.000220
 49
-0.000110
 49
0.000000
 49
-0.000110
  0
LTYPE
  2
DIVIDE
 70
    64
  3
__ . . __ . . __ . . __ . . __ . . __ . . __
 72
    65
 73
     6
 40
0.000550
 49
0.000220
 49
-0.000110
 49
0.000000
 49
-0.000110
 49
0.000000
 49
-0.000110
  0
LTYPE
  2
DOTDOT
 70
    64
  3
 . .  . .  . .  . .  . .  . . 
 72
    65
 73
     5
 40
0.000242
 49
-0.000110
 49
0.000000
 49
-0.000110
 49
0.000000
 49
-0.000110
  0
ENDTAB
  0
TABLE
  2
STYLE
 70
     2
  0
STYLE
 70
     0
  2
SN0
 40
0.000000
 41
0.000440
 50
0.000000
 71
     0
 42
0.000000
  3
ROMAND
  0
STYLE
 70
    68
  2
SV0
 40
0.000000
 41
0.000440
 50
0.000000
 71
     0
 42
0.000000
  3
ROMAND
  0
ENDTAB
  0
TABLE
  2
LAYER
 70
     3
  0
LAYER
  2
FOREGROUND
 70
    64
 62
     7
  6
CONTINUOUS
  0
LAYER
  2
BACKGROUND
 70
    65
 62
    -7
  6
CONTINUOUS
  0
LAYER
  2
0
 70
    64
 62
     7
  6
CONTINUOUS
  0
ENDTAB
  0
ENDSEC
  0
SECTION
  2
ENTITIES
  0
POLYLINE
  8
FOREGROUND
  6
CONTINUOUS
 66
     1
 40
0.000000
 41
0.000000
  0
VERTEX
  8
FOREGROUND
  6
CONTINUOUS
 10
0.000000
 20
4.520120
  0
VERTEX
  8
FOREGROUND
  6
CONTINUOUS
 10
8.499920
 20
4.520120
  0
VERTEX
  8
FOREGROUND
  6
CONTINUOUS
 10
8.499920
 20
-6.479880
  0
VERTEX
  8
FOREGROUND
  6
CONTINUOUS
 10
0.000000
 20
-6.479880
  0
VERTEX
  8
FOREGROUND
  6
CONTINUOUS
 10
0.000000
 20
4.520120
  0
SEQEND
  8
0
  0
POLYLINE
  8
FOREGROUND
  6
CONTINUOUS
 66
     1
 40
0.000000
 41
0.000000
  0
VERTEX
  8
FOREGROUND
  6
CONTINUOUS
 10
0.000000
 20
4.520120
  0
VERTEX
  8
FOREGROUND
  6
CONTINUOUS
 10
8.499920
 20
4.520120
  0
VERTEX
  8
FOREGROUND
  6
CONTINUOUS
 10
8.499920
 20
-6.479880
  0
VERTEX
  8
FOREGROUND
  6
CONTINUOUS
 10
0.000000
 20
-6.479880
  0
VERTEX
  8
FOREGROUND
  6
CONTINUOUS
 10
0.000000
 20
4.520120
  0
SEQEND
  8
0
  0
POLYLINE
  8
0
  6
CONTINUOUS
 66
     1
 40
0.014080
 41
0.014080
  0
VERTEX
  8
0
  6
CONTINUOUS
 10
4.250400
 20
3.282400
  0
VERTEX
  8
0
  6
CONTINUOUS
 10
4.277240
 20
3.289000
  0
VERTEX
  8
0
  6
CONTINUOUS
 10
4.302760
 20
3.300880
  0
VERTEX
  8
0
  6
CONTINUOUS
 10
4.326960
 20
3.316720
  0
VERTEX
  8
0
  6
CONTINUOUS
 10
4.349400
 20
3.336520
  0
VERTEX
  8
0
  6
CONTINUOUS
 10
4.370520
 20
3.359400
  0
VERTEX
  8
0
  6
CONTINUOUS
 10
4.398680
 20
3.399440
  0
VERTEX
  8
0
  6
CONTINUOUS
 10
4.422880
 20
3.444760
  0
VERTEX
  8
0
  6
CONTINUOUS
 10
4.436960
 20
3.476880
  0
VERTEX
  8
0
  6
CONTINUOUS
 10
4.448840
 20
3.510320
  0
VERTEX
  8
0
  6
CONTINUOUS
 10
4.467320
 20
3.578520
  0
VERTEX
  8
0
  6
CONTINUOUS
 10
4.473040
 20
3.612400
  0
VERTEX
  8
0
  6
CONTINUOUS
 10
4.477880
 20
3.662120
  0
VERTEX
  8
0
  6
CONTINUOUS
 10
4.477880
 20
3.708320
  0
VERTEX
  8
0
  6
CONTINUOUS
 10
4.679840
 20
3.708320
  0
VERTEX
  8
0
  6
CONTINUOUS
 10
4.681600
 20
3.752320
  0
VERTEX
  8
0
  6
CONTINUOUS
 10
4.686880
 20
3.793240
  0
VERTEX
  8
0
  6
CONTINUOUS
 10
4.695240
 20
3.831960
  0
VERTEX
  8
0
  6
CONTINUOUS
 10
4.706680
 20
3.867600
  0
VERTEX
  8
0
  6
CONTINUOUS
 10
4.720320
 20
3.900160
  0
VERTEX
  8
0
  6
CONTINUOUS
 10
4.745840
 20
3.944160
  0
VERTEX
  8
0
  6
CONTINUOUS
 10
4.776200
 20
3.981560
  0
VERTEX
  8
0
  6
CONTINUOUS
 10
4.798640
 20
4.003120
  0
VERTEX
  8
0
  6
CONTINUOUS
 10
4.822400
 20
4.022040
  0
VERTEX
  8
0
  6
CONTINUOUS
 10
4.861120
 20
4.044920
  0
VERTEX
  8
0
  6
CONTINUOUS
 10
4.901600
 20
4.061200
  0
VERTEX
  8
0
  6
CONTINUOUS
 10
4.943840
 20
4.070880
  0
VERTEX
  8
0
  6
CONTINUOUS
 10
4.972440
 20
4.073960
  0
VERTEX
  8
0
  6
CONTINUOUS
 10
5.001040
 20
4.074400
  0
VERTEX
  8
0
  6
CONTINUOUS
 10
5.029640
 20
4.071760
  0
VERTEX
  8
0
  6
CONTINUOUS
 10
5.043720
 20
4.069560
  0
VERTEX
  8
0
  6
CONTINUOUS
 10
5.071880
 20
4.062520
  0
VERTEX
  8
0
  6
CONTINUOUS
 10
5.112360
 20
4.046680
  0
VERTEX
  8
0
  6
CONTINUOUS
 10
5.138320
 20
4.032600
  0
VERTEX
  8
0
  6
CONTINUOUS
 10
5.174840
 20
4.005760
  0
VERTEX
  8
0
  6
CONTINUOUS
 10
5.197280
 20
3.984200
  0
VERTEX
  8
0
  6
CONTINUOUS
 10
5.217960
 20
3.960000
  0
VERTEX
  8
0
  6
CONTINUOUS
 10
5.244800
 20
3.918200
  0
VERTEX
  8
0
  6
CONTINUOUS
 10
5.259760
 20
3.886520
  0
VERTEX
  8
0
  6
CONTINUOUS
 10
5.272520
 20
3.852200
  0
VERTEX
  8
0
  6
CONTINUOUS
 10
5.282200
 20
3.814800
  0
VERTEX
  8
0
  6
CONTINUOUS
 10
5.288800
 20
3.774320
  0
VERTEX
  8
0
  6
CONTINUOUS
 10
5.292320
 20
3.731200
  0
VERTEX
  8
0
  6
CONTINUOUS
 10
5.292760
 20
3.708320
  0
VERTEX
  8
0
  6
CONTINUOUS
 10
5.465680
 20
3.708320
  0
VERTEX
  8
0
  6
CONTINUOUS
 10
5.497800
 20
3.665640
  0
VERTEX
  8
0
  6
CONTINUOUS
 10
5.530360
 20
3.631760
  0
VERTEX
  8
0
  6
CONTINUOUS
 10
5.565120
 20
3.605800
  0
VERTEX
  8
0
  6
CONTINUOUS
 10
5.591080
 20
3.592600
  0
VERTEX
  8
0
  6
CONTINUOUS
 10
5.619240
 20
3.582920
  0
VERTEX
  8
0
  6
CONTINUOUS
 10
5.650920
 20
3.575880
  0
VERTEX
  8
0
  6
CONTINUOUS
 10
5.686120
 20
3.571920
  0
VERTEX
  8
0
  6
CONTINUOUS
 10
5.725720
 20
3.571040
  0
VERTEX
  8
0
  6
CONTINUOUS
 10
5.794800
 20
3.574120
  0
VERTEX
  8
0
  6
CONTINUOUS
 10
5.907880
 20
3.586880
  0
VERTEX
  8
0
  6
CONTINUOUS
 10
6.089600
 20
3.614600
  0
VERTEX
  8
0
  6
CONTINUOUS
 10
6.435000
 20
3.672680
  0
VERTEX
  8
0
  6
CONTINUOUS
 10
6.503640
 20
3.681040
  0
VERTEX
  8
0
  6
CONTINUOUS
 10
6.541920
 20
3.683240
  0
VERTEX
  8
0
  6
CONTINUOUS
 10
6.575360
 20
3.682800
  0
VERTEX
  8
0
  6
CONTINUOUS
 10
6.604840
 20
3.678400
  0
VERTEX
  8
0
  6
CONTINUOUS
 10
6.631240
 20
3.670920
  0
VERTEX
  8
0
  6
CONTINUOUS
 10
6.654560
 20
3.659480
  0
VERTEX
  8
0
  6
CONTINUOUS
 10
6.676120
 20
3.644080
  0
VERTEX
  8
0
  6
CONTINUOUS
 10
6.696360
 20
3.623840
  0
VERTEX
  8
0
  6
CONTINUOUS
 10
6.725840
 20
3.584680
  0
VERTEX
  8
0
  6
CONTINUOUS
 10
6.756200
 20
3.534080
  0
VERTEX
  8
0
  6
CONTINUOUS
 10
6.771160
 20
3.534080
  0
SEQEND
  8
0
  0
POLYLINE
  8
0
  6
CONTINUOUS
 66
     1
 40
0.014080
 41
0.014080
  0
VERTEX
  8
0
  6
CONTINUOUS
 10
6.772040
 20
3.534080
  0
VERTEX
  8
0
  6
CONTINUOUS
 10
6.778640
 20
3.550360
  0
VERTEX
  8
0
  6
CONTINUOUS
 10
6.786120
 20
3.565760
  0
VERTEX
  8
0
  6
CONTINUOUS
 10
6.794480
 20
3.579840
  0
VERTEX
  8
0
  6
CONTINUOUS
 10
6.803720
 20
3.593040
  0
VERTEX
  8
0
  6
CONTINUOUS
 10
6.813400
 20
3.605360
  0
VERTEX
  8
0
  6
CONTINUOUS
 10
6.823520
 20
3.616800
  0
VERTEX
  8
0
  6
CONTINUOUS
 10
6.834520
 20
3.626920
  0
VERTEX
  8
0
  6
CONTINUOUS
 10
6.845520
 20
3.635720
  0
VERTEX
  8
0
  6
CONTINUOUS
 10
6.857400
 20
3.643640
  0
VERTEX
  8
0
  6
CONTINUOUS
 10
6.869280
 20
3.650680
  0
VERTEX
  8
0
  6
CONTINUOUS
 10
6.881160
 20
3.655960
  0
VERTEX
  8
0
  6
CONTINUOUS
 10
6.893920
 20
3.660800
  0
VERTEX
  8
0
  6
CONTINUOUS
 10
6.906240
 20
3.663880
  0
VERTEX
  8
0
  6
CONTINUOUS
 10
6.919000
 20
3.666080
  0
VERTEX
  8
0
  6
CONTINUOUS
 10
6.931320
 20
3.667400
  0
VERTEX
  8
0
  6
CONTINUOUS
 10
6.944080
 20
3.666960
  0
VERTEX
  8
0
  6
CONTINUOUS
 10
6.956400
 20
3.665640
  0
VERTEX
  8
0
  6
CONTINUOUS
 10
6.968280
 20
3.663000
  0
VERTEX
  8
0
  6
CONTINUOUS
 10
6.980160
 20
3.659040
  0
VERTEX
  8
0
  6
CONTINUOUS
 10
6.991600
 20
3.653760
  0
VERTEX
  8
0
  6
CONTINUOUS
 10
7.002600
 20
3.647600
  0
VERTEX
  8
0
  6
CONTINUOUS
 10
7.013160
 20
3.639680
  0
VERTEX
  8
0
  6
CONTINUOUS
 10
7.023280
 20
3.630880
  0
VERTEX
  8
0
  6
CONTINUOUS
 10
7.032960
 20
3.620320
  0
VERTEX
  8
0
  6
CONTINUOUS
 10
7.041760
 20
3.608440
  0
VERTEX
  8
0
  6
CONTINUOUS
 10
7.049680
 20
3.595680
  0
VERTEX
  8
0
  6
CONTINUOUS
 10
7.057160
 20
3.581160
  0
VERTEX
  8
0
  6
CONTINUOUS
 10
7.063320
 20
3.565320
  0
VERTEX
  8
0
  6
CONTINUOUS
 10
7.068600
 20
3.548160
  0
VERTEX
  8
0
  6
CONTINUOUS
 10
7.073000
 20
3.529240
  0
VERTEX
  8
0
  6
CONTINUOUS
 10
7.076520
 20
3.509440
  0
VERTEX
  8
0
  6
CONTINUOUS
 10
7.078720
 20
3.487880
  0
VERTEX
  8
0
  6
CONTINUOUS
 10
7.217320
 20
3.487880
  0
VERTEX
  8
0
  6
CONTINUOUS
 10
7.217320
 20
3.190440
  0
VERTEX
  8
0
  6
CONTINUOUS
 10
4.311120
 20
3.190440
  0
VERTEX
  8
0
  6
CONTINUOUS
 10
4.249520
 20
3.190440
  0
VERTEX
  8
0
  6
CONTINUOUS
 10
4.249520
 20
3.279320
  0
SEQEND
  8
0
  0
SOLID
  8
0
 62
    15
 10
5.885880
 20
1.301520
 11
5.887640
 21
2.052160
 12
5.945720
 22
1.309440
 13
5.947480
 23
2.059640
  0
POLYLINE
  8
0
  6
CONTINUOUS
 66
     1
 40
0.000000
 41
0.000000
  0
VERTEX
  8
0
  6
CONTINUOUS
 10
5.885880
 20
1.301520
  0
VERTEX
  8
0
  6
CONTINUOUS
 10
5.887640
 20
2.052160
  0
VERTEX
  8
0
  6
CONTINUOUS
 10
5.947480
 20
2.059640
  0
VERTEX
  8
0
  6
CONTINUOUS
 10
5.945720
 20
1.309440
  0
VERTEX
  8
0
  6
CONTINUOUS
 10
5.885880
 20
1.301520
  0
SEQEND
  8
0
  0
SOLID
  8
0
 62
    15
 10
4.315520
 20
1.011560
 11
4.317280
 21
1.761760
 12
4.341040
 22
1.023000
 13
4.342800
 23
1.773640
  0
POLYLINE
  8
0
  6
CONTINUOUS
 66
     1
 40
0.000000
 41
0.000000
  0
VERTEX
  8
0
  6
CONTINUOUS
 10
4.315520
 20
1.011560
  0
VERTEX
  8
0
  6
CONTINUOUS
 10
4.317280
 20
1.761760
  0
VERTEX
  8
0
  6
CONTINUOUS
 10
4.342800
 20
1.773640
  0
VERTEX
  8
0
  6
CONTINUOUS
 10
4.341040
 20
1.023000
  0
VERTEX
  8
0
  6
CONTINUOUS
 10
4.315520
 20
1.011560
  0
SEQEND
  8
0
  0
SOLID
  8
0
 62
    15
 10
4.341040
 20
1.023000
 11
4.342800
 21
1.773640
 12
4.364800
 22
1.038840
 13
4.366560
 23
1.789480
  0
POLYLINE
  8
0
  6
CONTINUOUS
 66
     1
 40
0.000000
 41
0.000000
  0
VERTEX
  8
0
  6
CONTINUOUS
 10
4.341040
 20
1.023000
  0
VERTEX
  8
0
  6
CONTINUOUS
 10
4.342800
 20
1.773640
  0
VERTEX
  8
0
  6
CONTINUOUS
 10
4.366560
 20
1.789480
  0
VERTEX
  8
0
  6
CONTINUOUS
 10
4.364800
 20
1.038840
  0
VERTEX
  8
0
  6
CONTINUOUS
 10
4.341040
 20
1.023000
  0
SEQEND
  8
0
  0
SOLID
  8
0
 62
    15
 10
4.364800
 20
1.038840
 11
4.366560
 21
1.789480
 12
4.387680
 22
1.058640
 13
4.389440
 23
1.808840
  0
POLYLINE
  8
0
  6
CONTINUOUS
 66
     1
 40
0.000000
 41
0.000000
  0
VERTEX
  8
0
  6
CONTINUOUS
 10
4.364800
 20
1.038840
  0
VERTEX
  8
0
  6
CONTINUOUS
 10
4.366560
 20
1.789480
  0
VERTEX
  8
0
  6
CONTINUOUS
 10
4.389440
 20
1.808840
  0
VERTEX
  8
0
  6
CONTINUOUS
 10
4.387680
 20
1.058640
  0
VERTEX
  8
0
  6
CONTINUOUS
 10
4.364800
 20
1.038840
  0
SEQEND
  8
0
  0
SOLID
  8
0
 62
    15
 10
4.387680
 20
1.058640
 11
4.389440
 21
1.808840
 12
4.427720
 22
1.107920
 13
4.429480
 23
1.858560
  0
POLYLINE
  8
0
  6
CONTINUOUS
 66
     1
 40
0.000000
 41
0.000000
  0
VERTEX
  8
0
  6
CONTINUOUS
 10
4.387680
 20
1.058640
  0
VERTEX
  8
0
  6
CONTINUOUS
 10
4.389440
 20
1.808840
  0
VERTEX
  8
0
  6
CONTINUOUS
 10
4.429480
 20
1.858560
  0
VERTEX
  8
0
  6
CONTINUOUS
 10
4.427720
 20
1.107920
  0
VERTEX
  8
0
  6
CONTINUOUS
 10
4.387680
 20
1.058640
  0
SEQEND
  8
0
  0
SOLID
  8
0
 62
    15
 10
4.427720
 20
1.107920
 11
4.429480
 21
1.858560
 12
4.461160
 22
1.167320
 13
4.462920
 23
1.917520
  0
POLYLINE
  8
0
  6
CONTINUOUS
 66
     1
 40
0.000000
 41
0.000000
  0
VERTEX
  8
0
  6
CONTINUOUS
 10
4.427720
 20
1.107920
  0
VERTEX
  8
0
  6
CONTINUOUS
 10
4.429480
 20
1.858560
  0
VERTEX
  8
0
  6
CONTINUOUS
 10
4.462920
 20
1.917520
  0
VERTEX
  8
0
  6
CONTINUOUS
 10
4.461160
 20
1.167320
  0
VERTEX
  8
0
  6
CONTINUOUS
 10
4.427720
 20
1.107920
  0
SEQEND
  8
0
  0
SOLID
  8
0
 62
    15
 10
4.461160
 20
1.167320
 11
4.462920
 21
1.917520
 12
4.487120
 22
1.232880
 13
4.488880
 23
1.983080
  0
POLYLINE
  8
0
  6
CONTINUOUS
 66
     1
 40
0.000000
 41
0.000000
  0
VERTEX
  8
0
  6
CONTINUOUS
 10
4.461160
 20
1.167320
  0
VERTEX
  8
0
  6
CONTINUOUS
 10
4.462920
 20
1.917520
  0
VERTEX
  8
0
  6
CONTINUOUS
 10
4.488880
 20
1.983080
  0
VERTEX
  8
0
  6
CONTINUOUS
 10
4.487120
 20
1.232880
  0
VERTEX
  8
0
  6
CONTINUOUS
 10
4.461160
 20
1.167320
  0
SEQEND
  8
0
  0
SOLID
  8
0
 62
    15
 10
4.487120
 20
1.232880
 11
4.488880
 21
1.983080
 12
4.505160
 22
1.301080
 13
4.506920
 23
2.051280
  0
POLYLINE
  8
0
  6
CONTINUOUS
 66
     1
 40
0.000000
 41
0.000000
  0
VERTEX
  8
0
  6
CONTINUOUS
 10
4.487120
 20
1.232880
  0
VERTEX
  8
0
  6
CONTINUOUS
 10
4.488880
 20
1.983080
  0
VERTEX
  8
0
  6
CONTINUOUS
 10
4.506920
 20
2.051280
  0
VERTEX
  8
0
  6
CONTINUOUS
 10
4.505160
 20
1.301080
  0
VERTEX
  8
0
  6
CONTINUOUS
 10
4.487120
 20
1.232880
  0
SEQEND
  8
0
  0
SOLID
  8
0
 62
    15
 10
4.505160
 20
1.301080
 11
4.506920
 21
2.051280
 12
4.514840
 22
1.367960
 13
4.516600
 23
2.118600
  0
POLYLINE
  8
0
  6
CONTINUOUS
 66
     1
 40
0.000000
 41
0.000000
  0
VERTEX
  8
0
  6
CONTINUOUS
 10
4.505160
 20
1.301080
  0
VERTEX
  8
0
  6
CONTINUOUS
 10
4.506920
 20
2.051280
  0
VERTEX
  8
0
  6
CONTINUOUS
 10
4.516600
 20
2.118600
  0
VERTEX
  8
0
  6
CONTINUOUS
 10
4.514840
 20
1.367960
  0
VERTEX
  8
0
  6
CONTINUOUS
 10
4.505160
 20
1.301080
  0
SEQEND
  8
0
  0
SOLID
  8
0
 62
    15
 10
4.514840
 20
1.367960
 11
4.516600
 21
2.118600
 12
4.516160
 22
1.430440
 13
4.517480
 23
2.181080
  0
POLYLINE
  8
0
  6
CONTINUOUS
 66
     1
 40
0.000000
 41
0.000000
  0
VERTEX
  8
0
  6
CONTINUOUS
 10
4.514840
 20
1.367960
  0
VERTEX
  8
0
  6
CONTINUOUS
 10
4.516600
 20
2.118600
  0
VERTEX
  8
0
  6
CONTINUOUS
 10
4.517480
 20
2.181080
  0
VERTEX
  8
0
  6
CONTINUOUS
 10
4.516160
 20
1.430440
  0
VERTEX
  8
0
  6
CONTINUOUS
 10
4.514840
 20
1.367960
  0
SEQEND
  8
0
  0
SOLID
  8
0
 62
    15
 10
4.516160
 20
1.430440
 11
4.517480
 21
2.181080
 12
4.717680
 22
1.430440
 13
4.719440
 23
2.181080
  0
POLYLINE
  8
0
  6
CONTINUOUS
 66
     1
 40
0.000000
 41
0.000000
  0
VERTEX
  8
0
  6
CONTINUOUS
 10
4.516160
 20
1.430440
  0
VERTEX
  8
0
  6
CONTINUOUS
 10
4.517480
 20
2.181080
  0
VERTEX
  8
0
  6
CONTINUOUS
 10
4.719440
 20
2.181080
  0
VERTEX
  8
0
  6
CONTINUOUS
 10
4.717680
 20
1.430440
  0
VERTEX
  8
0
  6
CONTINUOUS
 10
4.516160
 20
1.430440
  0
SEQEND
  8
0
  0
SOLID
  8
0
 62
    15
 10
4.717680
 20
1.430440
 11
4.719440
 21
2.181080
 12
4.719440
 22
1.474440
 13
4.721200
 23
2.225080
  0
POLYLINE
  8
0
  6
CONTINUOUS
 66
     1
 40
0.000000
 41
0.000000
  0
VERTEX
  8
0
  6
CONTINUOUS
 10
4.717680
 20
1.430440
  0
VERTEX
  8
0
  6
CONTINUOUS
 10
4.719440
 20
2.181080
  0
VERTEX
  8
0
  6
CONTINUOUS
 10
4.721200
 20
2.225080
  0
VERTEX
  8
0
  6
CONTINUOUS
 10
4.719440
 20
1.474440
  0
VERTEX
  8
0
  6
CONTINUOUS
 10
4.717680
 20
1.430440
  0
SEQEND
  8
0
  0
SOLID
  8
0
 62
    15
 10
4.719440
 20
1.474440
 11
4.721200
 21
2.225080
 12
4.724720
 22
1.515800
 13
4.726480
 23
2.266000
  0
POLYLINE
  8
0
  6
CONTINUOUS
 66
     1
 40
0.000000
 41
0.000000
  0
VERTEX
  8
0
  6
CONTINUOUS
 10
4.719440
 20
1.474440
  0
VERTEX
  8
0
  6
CONTINUOUS
 10
4.721200
 20
2.225080
  0
VERTEX
  8
0
  6
CONTINUOUS
 10
4.726480
 20
2.266000
  0
VERTEX
  8
0
  6
CONTINUOUS
 10
4.724720
 20
1.515800
  0
VERTEX
  8
0
  6
CONTINUOUS
 10
4.719440
 20
1.474440
  0
SEQEND
  8
0
  0
SOLID
  8
0
 62
    15
 10
4.724720
 20
1.515800
 11
4.726480
 21
2.266000
 12
4.744520
 22
1.589720
 13
4.746280
 23
2.339920
  0
POLYLINE
  8
0
  6
CONTINUOUS
 66
     1
 40
0.000000
 41
0.000000
  0
VERTEX
  8
0
  6
CONTINUOUS
 10
4.724720
 20
1.515800
  0
VERTEX
  8
0
  6
CONTINUOUS
 10
4.726480
 20
2.266000
  0
VERTEX
  8
0
  6
CONTINUOUS
 10
4.746280
 20
2.339920
  0
VERTEX
  8
0
  6
CONTINUOUS
 10
4.744520
 20
1.589720
  0
VERTEX
  8
0
  6
CONTINUOUS
 10
4.724720
 20
1.515800
  0
SEQEND
  8
0
  0
SOLID
  8
0
 62
    15
 10
4.744520
 20
1.589720
 11
4.746280
 21
2.339920
 12
4.774880
 22
1.652200
 13
4.776640
 23
2.402840
  0
POLYLINE
  8
0
  6
CONTINUOUS
 66
     1
 40
0.000000
 41
0.000000
  0
VERTEX
  8
0
  6
CONTINUOUS
 10
4.744520
 20
1.589720
  0
VERTEX
  8
0
  6
CONTINUOUS
 10
4.746280
 20
2.339920
  0
VERTEX
  8
0
  6
CONTINUOUS
 10
4.776640
 20
2.402840
  0
VERTEX
  8
0
  6
CONTINUOUS
 10
4.774880
 20
1.652200
  0
VERTEX
  8
0
  6
CONTINUOUS
 10
4.744520
 20
1.589720
  0
SEQEND
  8
0
  0
SOLID
  8
0
 62
    15
 10
4.774880
 20
1.652200
 11
4.776640
 21
2.402840
 12
4.814040
 22
1.703680
 13
4.815800
 23
2.454320
  0
POLYLINE
  8
0
  6
CONTINUOUS
 66
     1
 40
0.000000
 41
0.000000
  0
VERTEX
  8
0
  6
CONTINUOUS
 10
4.774880
 20
1.652200
  0
VERTEX
  8
0
  6
CONTINUOUS
 10
4.776640
 20
2.402840
  0
VERTEX
  8
0
  6
CONTINUOUS
 10
4.815800
 20
2.454320
  0
VERTEX
  8
0
  6
CONTINUOUS
 10
4.814040
 20
1.703680
  0
VERTEX
  8
0
  6
CONTINUOUS
 10
4.774880
 20
1.652200
  0
SEQEND
  8
0
  0
SOLID
  8
0
 62
    15
 10
4.814040
 20
1.703680
 11
4.815800
 21
2.454320
 12
4.860680
 22
1.744160
 13
4.862440
 23
2.494360
  0
POLYLINE
  8
0
  6
CONTINUOUS
 66
     1
 40
0.000000
 41
0.000000
  0
VERTEX
  8
0
  6
CONTINUOUS
 10
4.814040
 20
1.703680
  0
VERTEX
  8
0
  6
CONTINUOUS
 10
4.815800
 20
2.454320
  0
VERTEX
  8
0
  6
CONTINUOUS
 10
4.862440
 20
2.494360
  0
VERTEX
  8
0
  6
CONTINUOUS
 10
4.860680
 20
1.744160
  0
VERTEX
  8
0
  6
CONTINUOUS
 10
4.814040
 20
1.703680
  0
SEQEND
  8
0
  0
SOLID
  8
0
 62
    15
 10
4.860680
 20
1.744160
 11
4.862440
 21
2.494360
 12
4.912600
 22
1.773200
 13
4.913920
 23
2.523400
  0
POLYLINE
  8
0
  6
CONTINUOUS
 66
     1
 40
0.000000
 41
0.000000
  0
VERTEX
  8
0
  6
CONTINUOUS
 10
4.860680
 20
1.744160
  0
VERTEX
  8
0
  6
CONTINUOUS
 10
4.862440
 20
2.494360
  0
VERTEX
  8
0
  6
CONTINUOUS
 10
4.913920
 20
2.523400
  0
VERTEX
  8
0
  6
CONTINUOUS
 10
4.912600
 20
1.773200
  0
VERTEX
  8
0
  6
CONTINUOUS
 10
4.860680
 20
1.744160
  0
SEQEND
  8
0
  0
SOLID
  8
0
 62
    15
 10
4.912600
 20
1.773200
 11
4.913920
 21
2.523400
 12
4.967600
 22
1.790800
 13
4.969360
 23
2.541000
  0
POLYLINE
  8
0
  6
CONTINUOUS
 66
     1
 40
0.000000
 41
0.000000
  0
VERTEX
  8
0
  6
CONTINUOUS
 10
4.912600
 20
1.773200
  0
VERTEX
  8
0
  6
CONTINUOUS
 10
4.913920
 20
2.523400
  0
VERTEX
  8
0
  6
CONTINUOUS
 10
4.969360
 20
2.541000
  0
VERTEX
  8
0
  6
CONTINUOUS
 10
4.967600
 20
1.790800
  0
VERTEX
  8
0
  6
CONTINUOUS
 10
4.912600
 20
1.773200
  0
SEQEND
  8
0
  0
SOLID
  8
0
 62
    15
 10
4.967600
 20
1.790800
 11
4.969360
 21
2.541000
 12
5.024800
 22
1.796960
 13
5.026560
 23
2.547160
  0
POLYLINE
  8
0
  6
CONTINUOUS
 66
     1
 40
0.000000
 41
0.000000
  0
VERTEX
  8
0
  6
CONTINUOUS
 10
4.967600
 20
1.790800
  0
VERTEX
  8
0
  6
CONTINUOUS
 10
4.969360
 20
2.541000
  0
VERTEX
  8
0
  6
CONTINUOUS
 10
5.026560
 20
2.547160
  0
VERTEX
  8
0
  6
CONTINUOUS
 10
5.024800
 20
1.796960
  0
VERTEX
  8
0
  6
CONTINUOUS
 10
4.967600
 20
1.790800
  0
SEQEND
  8
0
  0
SOLID
  8
0
 62
    15
 10
5.024800
 20
1.796960
 11
5.026560
 21
2.547160
 12
5.082000
 22
1.791680
 13
5.083760
 23
2.541880
  0
POLYLINE
  8
0
  6
CONTINUOUS
 66
     1
 40
0.000000
 41
0.000000
  0
VERTEX
  8
0
  6
CONTINUOUS
 10
5.024800
 20
1.796960
  0
VERTEX
  8
0
  6
CONTINUOUS
 10
5.026560
 20
2.547160
  0
VERTEX
  8
0
  6
CONTINUOUS
 10
5.083760
 20
2.541880
  0
VERTEX
  8
0
  6
CONTINUOUS
 10
5.082000
 20
1.791680
  0
VERTEX
  8
0
  6
CONTINUOUS
 10
5.024800
 20
1.796960
  0
SEQEND
  8
0
  0
SOLID
  8
0
 62
    15
 10
5.082000
 20
1.791680
 11
5.083760
 21
2.541880
 12
5.137440
 22
1.774960
 13
5.139200
 23
2.525160
  0
POLYLINE
  8
0
  6
CONTINUOUS
 66
     1
 40
0.000000
 41
0.000000
  0
VERTEX
  8
0
  6
CONTINUOUS
 10
5.082000
 20
1.791680
  0
VERTEX
  8
0
  6
CONTINUOUS
 10
5.083760
 20
2.541880
  0
VERTEX
  8
0
  6
CONTINUOUS
 10
5.139200
 20
2.525160
  0
VERTEX
  8
0
  6
CONTINUOUS
 10
5.137440
 20
1.774960
  0
VERTEX
  8
0
  6
CONTINUOUS
 10
5.082000
 20
1.791680
  0
SEQEND
  8
0
  0
SOLID
  8
0
 62
    15
 10
5.137440
 20
1.774960
 11
5.139200
 21
2.525160
 12
5.188920
 22
1.746360
 13
5.190680
 23
2.497000
  0
POLYLINE
  8
0
  6
CONTINUOUS
 66
     1
 40
0.000000
 41
0.000000
  0
VERTEX
  8
0
  6
CONTINUOUS
 10
5.137440
 20
1.774960
  0
VERTEX
  8
0
  6
CONTINUOUS
 10
5.139200
 20
2.525160
  0
VERTEX
  8
0
  6
CONTINUOUS
 10
5.190680
 20
2.497000
  0
VERTEX
  8
0
  6
CONTINUOUS
 10
5.188920
 20
1.746360
  0
VERTEX
  8
0
  6
CONTINUOUS
 10
5.137440
 20
1.774960
  0
SEQEND
  8
0
  0
SOLID
  8
0
 62
    15
 10
5.188920
 20
1.746360
 11
5.190680
 21
2.497000
 12
5.235120
 22
1.706760
 13
5.236880
 23
2.456960
  0
POLYLINE
  8
0
  6
CONTINUOUS
 66
     1
 40
0.000000
 41
0.000000
  0
VERTEX
  8
0
  6
CONTINUOUS
 10
5.188920
 20
1.746360
  0
VERTEX
  8
0
  6
CONTINUOUS
 10
5.190680
 20
2.497000
  0
VERTEX
  8
0
  6
CONTINUOUS
 10
5.236880
 20
2.456960
  0
VERTEX
  8
0
  6
CONTINUOUS
 10
5.235120
 20
1.706760
  0
VERTEX
  8
0
  6
CONTINUOUS
 10
5.188920
 20
1.746360
  0
SEQEND
  8
0
  0
SOLID
  8
0
 62
    15
 10
5.235120
 20
1.706760
 11
5.236880
 21
2.456960
 12
5.274280
 22
1.655280
 13
5.276040
 23
2.405480
  0
POLYLINE
  8
0
  6
CONTINUOUS
 66
     1
 40
0.000000
 41
0.000000
  0
VERTEX
  8
0
  6
CONTINUOUS
 10
5.235120
 20
1.706760
  0
VERTEX
  8
0
  6
CONTINUOUS
 10
5.236880
 20
2.456960
  0
VERTEX
  8
0
  6
CONTINUOUS
 10
5.276040
 20
2.405480
  0
VERTEX
  8
0
  6
CONTINUOUS
 10
5.274280
 20
1.655280
  0
VERTEX
  8
0
  6
CONTINUOUS
 10
5.235120
 20
1.706760
  0
SEQEND
  8
0
  0
SOLID
  8
0
 62
    15
 10
5.274280
 20
1.655280
 11
5.276040
 21
2.405480
 12
5.304640
 22
1.591920
 13
5.306400
 23
2.342560
  0
POLYLINE
  8
0
  6
CONTINUOUS
 66
     1
 40
0.000000
 41
0.000000
  0
VERTEX
  8
0
  6
CONTINUOUS
 10
5.274280
 20
1.655280
  0
VERTEX
  8
0
  6
CONTINUOUS
 10
5.276040
 20
2.405480
  0
VERTEX
  8
0
  6
CONTINUOUS
 10
5.306400
 20
2.342560
  0
VERTEX
  8
0
  6
CONTINUOUS
 10
5.304640
 20
1.591920
  0
VERTEX
  8
0
  6
CONTINUOUS
 10
5.274280
 20
1.655280
  0
SEQEND
  8
0
  0
SOLID
  8
0
 62
    15
 10
5.304640
 20
1.591920
 11
5.306400
 21
2.342560
 12
5.324000
 22
1.517120
 13
5.325760
 23
2.267760
  0
POLYLINE
  8
0
  6
CONTINUOUS
 66
     1
 40
0.000000
 41
0.000000
  0
VERTEX
  8
0
  6
CONTINUOUS
 10
5.304640
 20
1.591920
  0
VERTEX
  8
0
  6
CONTINUOUS
 10
5.306400
 20
2.342560
  0
VERTEX
  8
0
  6
CONTINUOUS
 10
5.325760
 20
2.267760
  0
VERTEX
  8
0
  6
CONTINUOUS
 10
5.324000
 20
1.517120
  0
VERTEX
  8
0
  6
CONTINUOUS
 10
5.304640
 20
1.591920
  0
SEQEND
  8
0
  0
SOLID
  8
0
 62
    15
 10
5.324000
 20
1.517120
 11
5.325760
 21
2.267760
 12
5.329280
 22
1.475320
 13
5.331040
 23
2.225960
  0
POLYLINE
  8
0
  6
CONTINUOUS
 66
     1
 40
0.000000
 41
0.000000
  0
VERTEX
  8
0
  6
CONTINUOUS
 10
5.324000
 20
1.517120
  0
VERTEX
  8
0
  6
CONTINUOUS
 10
5.325760
 20
2.267760
  0
VERTEX
  8
0
  6
CONTINUOUS
 10
5.331040
 20
2.225960
  0
VERTEX
  8
0
  6
CONTINUOUS
 10
5.329280
 20
1.475320
  0
VERTEX
  8
0
  6
CONTINUOUS
 10
5.324000
 20
1.517120
  0
SEQEND
  8
0
  0
SOLID
  8
0
 62
    15
 10
5.329280
 20
1.475320
 11
5.331040
 21
2.225960
 12
5.331040
 22
1.430440
 13
5.332800
 23
2.181080
  0
POLYLINE
  8
0
  6
CONTINUOUS
 66
     1
 40
0.000000
 41
0.000000
  0
VERTEX
  8
0
  6
CONTINUOUS
 10
5.329280
 20
1.475320
  0
VERTEX
  8
0
  6
CONTINUOUS
 10
5.331040
 20
2.225960
  0
VERTEX
  8
0
  6
CONTINUOUS
 10
5.332800
 20
2.181080
  0
VERTEX
  8
0
  6
CONTINUOUS
 10
5.331040
 20
1.430440
  0
VERTEX
  8
0
  6
CONTINUOUS
 10
5.329280
 20
1.475320
  0
SEQEND
  8
0
  0
SOLID
  8
0
 62
    15
 10
5.331040
 20
1.430440
 11
5.332800
 21
2.181080
 12
5.503960
 22
1.430440
 13
5.505720
 23
2.181080
  0
POLYLINE
  8
0
  6
CONTINUOUS
 66
     1
 40
0.000000
 41
0.000000
  0
VERTEX
  8
0
  6
CONTINUOUS
 10
5.331040
 20
1.430440
  0
VERTEX
  8
0
  6
CONTINUOUS
 10
5.332800
 20
2.181080
  0
VERTEX
  8
0
  6
CONTINUOUS
 10
5.505720
 20
2.181080
  0
VERTEX
  8
0
  6
CONTINUOUS
 10
5.503960
 20
1.430440
  0
VERTEX
  8
0
  6
CONTINUOUS
 10
5.331040
 20
1.430440
  0
SEQEND
  8
0
  0
SOLID
  8
0
 62
    15
 10
5.503960
 20
1.430440
 11
5.505720
 21
2.181080
 12
5.546640
 22
1.375880
 13
5.548400
 23
2.126520
  0
POLYLINE
  8
0
  6
CONTINUOUS
 66
     1
 40
0.000000
 41
0.000000
  0
VERTEX
  8
0
  6
CONTINUOUS
 10
5.503960
 20
1.430440
  0
VERTEX
  8
0
  6
CONTINUOUS
 10
5.505720
 20
2.181080
  0
VERTEX
  8
0
  6
CONTINUOUS
 10
5.548400
 20
2.126520
  0
VERTEX
  8
0
  6
CONTINUOUS
 10
5.546640
 20
1.375880
  0
VERTEX
  8
0
  6
CONTINUOUS
 10
5.503960
 20
1.430440
  0
SEQEND
  8
0
  0
SOLID
  8
0
 62
    15
 10
5.546640
 20
1.375880
 11
5.548400
 21
2.126520
 12
5.591080
 22
1.335840
 13
5.592840
 23
2.086480
  0
POLYLINE
  8
0
  6
CONTINUOUS
 66
     1
 40
0.000000
 41
0.000000
  0
VERTEX
  8
0
  6
CONTINUOUS
 10
5.546640
 20
1.375880
  0
VERTEX
  8
0
  6
CONTINUOUS
 10
5.548400
 20
2.126520
  0
VERTEX
  8
0
  6
CONTINUOUS
 10
5.592840
 20
2.086480
  0
VERTEX
  8
0
  6
CONTINUOUS
 10
5.591080
 20
1.335840
  0
VERTEX
  8
0
  6
CONTINUOUS
 10
5.546640
 20
1.375880
  0
SEQEND
  8
0
  0
SOLID
  8
0
 62
    15
 10
5.591080
 20
1.335840
 11
5.592840
 21
2.086480
 12
5.642560
 22
1.309880
 13
5.644320
 23
2.060080
  0
POLYLINE
  8
0
  6
CONTINUOUS
 66
     1
 40
0.000000
 41
0.000000
  0
VERTEX
  8
0
  6
CONTINUOUS
 10
5.591080
 20
1.335840
  0
VERTEX
  8
0
  6
CONTINUOUS
 10
5.592840
 20
2.086480
  0
VERTEX
  8
0
  6
CONTINUOUS
 10
5.644320
 20
2.060080
  0
VERTEX
  8
0
  6
CONTINUOUS
 10
5.642560
 20
1.309880
  0
VERTEX
  8
0
  6
CONTINUOUS
 10
5.591080
 20
1.335840
  0
SEQEND
  8
0
  0
SOLID
  8
0
 62
    15
 10
5.642560
 20
1.309880
 11
5.644320
 21
2.060080
 12
5.672480
 22
1.301520
 13
5.674240
 23
2.051720
  0
POLYLINE
  8
0
  6
CONTINUOUS
 66
     1
 40
0.000000
 41
0.000000
  0
VERTEX
  8
0
  6
CONTINUOUS
 10
5.642560
 20
1.309880
  0
VERTEX
  8
0
  6
CONTINUOUS
 10
5.644320
 20
2.060080
  0
VERTEX
  8
0
  6
CONTINUOUS
 10
5.674240
 20
2.051720
  0
VERTEX
  8
0
  6
CONTINUOUS
 10
5.672480
 20
1.301520
  0
VERTEX
  8
0
  6
CONTINUOUS
 10
5.642560
 20
1.309880
  0
SEQEND
  8
0
  0
SOLID
  8
0
 62
    15
 10
5.672480
 20
1.301520
 11
5.674240
 21
2.051720
 12
5.705920
 22
1.296240
 13
5.707680
 23
2.046440
  0
POLYLINE
  8
0
  6
CONTINUOUS
 66
     1
 40
0.000000
 41
0.000000
  0
VERTEX
  8
0
  6
CONTINUOUS
 10
5.672480
 20
1.301520
  0
VERTEX
  8
0
  6
CONTINUOUS
 10
5.674240
 20
2.051720
  0
VERTEX
  8
0
  6
CONTINUOUS
 10
5.707680
 20
2.046440
  0
VERTEX
  8
0
  6
CONTINUOUS
 10
5.705920
 20
1.296240
  0
VERTEX
  8
0
  6
CONTINUOUS
 10
5.672480
 20
1.301520
  0
SEQEND
  8
0
  0
SOLID
  8
0
 62
    15
 10
5.705920
 20
1.296240
 11
5.707680
 21
2.046440
 12
5.743320
 22
1.293600
 13
5.745080
 23
2.043800
  0
POLYLINE
  8
0
  6
CONTINUOUS
 66
     1
 40
0.000000
 41
0.000000
  0
VERTEX
  8
0
  6
CONTINUOUS
 10
5.705920
 20
1.296240
  0
VERTEX
  8
0
  6
CONTINUOUS
 10
5.707680
 20
2.046440
  0
VERTEX
  8
0
  6
CONTINUOUS
 10
5.745080
 20
2.043800
  0
VERTEX
  8
0
  6
CONTINUOUS
 10
5.743320
 20
1.293600
  0
VERTEX
  8
0
  6
CONTINUOUS
 10
5.705920
 20
1.296240
  0
SEQEND
  8
0
  0
SOLID
  8
0
 62
    15
 10
5.743320
 20
1.293600
 11
5.745080
 21
2.043800
 12
5.785560
 22
1.293600
 13
5.787320
 23
2.044240
  0
POLYLINE
  8
0
  6
CONTINUOUS
 66
     1
 40
0.000000
 41
0.000000
  0
VERTEX
  8
0
  6
CONTINUOUS
 10
5.743320
 20
1.293600
  0
VERTEX
  8
0
  6
CONTINUOUS
 10
5.745080
 20
2.043800
  0
VERTEX
  8
0
  6
CONTINUOUS
 10
5.787320
 20
2.044240
  0
VERTEX
  8
0
  6
CONTINUOUS
 10
5.785560
 20
1.293600
  0
VERTEX
  8
0
  6
CONTINUOUS
 10
5.743320
 20
1.293600
  0
SEQEND
  8
0
  0
SOLID
  8
0
 62
    15
 10
5.785560
 20
1.293600
 11
5.787320
 21
2.044240
 12
5.832640
 22
1.296680
 13
5.834400
 23
2.046880
  0
POLYLINE
  8
0
  6
CONTINUOUS
 66
     1
 40
0.000000
 41
0.000000
  0
VERTEX
  8
0
  6
CONTINUOUS
 10
5.785560
 20
1.293600
  0
VERTEX
  8
0
  6
CONTINUOUS
 10
5.787320
 20
2.044240
  0
VERTEX
  8
0
  6
CONTINUOUS
 10
5.834400
 20
2.046880
  0
VERTEX
  8
0
  6
CONTINUOUS
 10
5.832640
 20
1.296680
  0
VERTEX
  8
0
  6
CONTINUOUS
 10
5.785560
 20
1.293600
  0
SEQEND
  8
0
  0
SOLID
  8
0
 62
    15
 10
5.832640
 20
1.296680
 11
5.834400
 21
2.046880
 12
5.885880
 22
1.301520
 13
5.887640
 23
2.052160
  0
POLYLINE
  8
0
  6
CONTINUOUS
 66
     1
 40
0.000000
 41
0.000000
  0
VERTEX
  8
0
  6
CONTINUOUS
 10
5.832640
 20
1.296680
  0
VERTEX
  8
0
  6
CONTINUOUS
 10
5.834400
 20
2.046880
  0
VERTEX
  8
0
  6
CONTINUOUS
 10
5.887640
 20
2.052160
  0
VERTEX
  8
0
  6
CONTINUOUS
 10
5.885880
 20
1.301520
  0
VERTEX
  8
0
  6
CONTINUOUS
 10
5.832640
 20
1.296680
  0
SEQEND
  8
0
  0
SOLID
  8
0
 62
    15
 10
4.288680
 20
1.004520
 11
4.290440
 21
1.755160
 12
4.315520
 22
1.011560
 13
4.317280
 23
1.761760
  0
POLYLINE
  8
0
  6
CONTINUOUS
 66
     1
 40
0.000000
 41
0.000000
  0
VERTEX
  8
0
  6
CONTINUOUS
 10
4.288680
 20
1.004520
  0
VERTEX
  8
0
  6
CONTINUOUS
 10
4.290440
 20
1.755160
  0
VERTEX
  8
0
  6
CONTINUOUS
 10
4.317280
 20
1.761760
  0
VERTEX
  8
0
  6
CONTINUOUS
 10
4.315520
 20
1.011560
  0
VERTEX
  8
0
  6
CONTINUOUS
 10
4.288680
 20
1.004520
  0
SEQEND
  8
0
  0
SOLID
  8
0
 62
    15
 10
5.945720
 20
1.309440
 11
5.947480
 21
2.059640
 12
6.012600
 22
1.318680
 13
6.014360
 23
2.069320
  0
POLYLINE
  8
0
  6
CONTINUOUS
 66
     1
 40
0.000000
 41
0.000000
  0
VERTEX
  8
0
  6
CONTINUOUS
 10
5.945720
 20
1.309440
  0
VERTEX
  8
0
  6
CONTINUOUS
 10
5.947480
 20
2.059640
  0
VERTEX
  8
0
  6
CONTINUOUS
 10
6.014360
 20
2.069320
  0
VERTEX
  8
0
  6
CONTINUOUS
 10
6.012600
 20
1.318680
  0
VERTEX
  8
0
  6
CONTINUOUS
 10
5.945720
 20
1.309440
  0
SEQEND
  8
0
  0
SOLID
  8
0
 62
    15
 10
6.012600
 20
1.318680
 11
6.014360
 21
2.069320
 12
6.086960
 22
1.330560
 13
6.088720
 23
2.081200
  0
POLYLINE
  8
0
  6
CONTINUOUS
 66
     1
 40
0.000000
 41
0.000000
  0
VERTEX
  8
0
  6
CONTINUOUS
 10
6.012600
 20
1.318680
  0
VERTEX
  8
0
  6
CONTINUOUS
 10
6.014360
 20
2.069320
  0
VERTEX
  8
0
  6
CONTINUOUS
 10
6.088720
 20
2.081200
  0
VERTEX
  8
0
  6
CONTINUOUS
 10
6.086960
 20
1.330560
  0
VERTEX
  8
0
  6
CONTINUOUS
 10
6.012600
 20
1.318680
  0
SEQEND
  8
0
  0
SOLID
  8
0
 62
    15
 10
6.086960
 20
1.330560
 11
6.088720
 21
2.081200
 12
6.169680
 22
1.344200
 13
6.171440
 23
2.094400
  0
POLYLINE
  8
0
  6
CONTINUOUS
 66
     1
 40
0.000000
 41
0.000000
  0
VERTEX
  8
0
  6
CONTINUOUS
 10
6.086960
 20
1.330560
  0
VERTEX
  8
0
  6
CONTINUOUS
 10
6.088720
 20
2.081200
  0
VERTEX
  8
0
  6
CONTINUOUS
 10
6.171440
 20
2.094400
  0
VERTEX
  8
0
  6
CONTINUOUS
 10
6.169680
 20
1.344200
  0
VERTEX
  8
0
  6
CONTINUOUS
 10
6.086960
 20
1.330560
  0
SEQEND
  8
0
  0
SOLID
  8
0
 62
    15
 10
6.169680
 20
1.344200
 11
6.171440
 21
2.094400
 12
6.251960
 22
1.357840
 13
6.253720
 23
2.108480
  0
POLYLINE
  8
0
  6
CONTINUOUS
 66
     1
 40
0.000000
 41
0.000000
  0
VERTEX
  8
0
  6
CONTINUOUS
 10
6.169680
 20
1.344200
  0
VERTEX
  8
0
  6
CONTINUOUS
 10
6.171440
 20
2.094400
  0
VERTEX
  8
0
  6
CONTINUOUS
 10
6.253720
 20
2.108480
  0
VERTEX
  8
0
  6
CONTINUOUS
 10
6.251960
 20
1.357840
  0
VERTEX
  8
0
  6
CONTINUOUS
 10
6.169680
 20
1.344200
  0
SEQEND
  8
0
  0
SOLID
  8
0
 62
    15
 10
6.251960
 20
1.357840
 11
6.253720
 21
2.108480
 12
6.325440
 22
1.370600
 13
6.327200
 23
2.121240
  0
POLYLINE
  8
0
  6
CONTINUOUS
 66
     1
 40
0.000000
 41
0.000000
  0
VERTEX
  8
0
  6
CONTINUOUS
 10
6.251960
 20
1.357840
  0
VERTEX
  8
0
  6
CONTINUOUS
 10
6.253720
 20
2.108480
  0
VERTEX
  8
0
  6
CONTINUOUS
 10
6.327200
 20
2.121240
  0
VERTEX
  8
0
  6
CONTINUOUS
 10
6.325440
 20
1.370600
  0
VERTEX
  8
0
  6
CONTINUOUS
 10
6.251960
 20
1.357840
  0
SEQEND
  8
0
  0
SOLID
  8
0
 62
    15
 10
6.325440
 20
1.370600
 11
6.327200
 21
2.121240
 12
6.390120
 22
1.382040
 13
6.391880
 23
2.132240
  0
POLYLINE
  8
0
  6
CONTINUOUS
 66
     1
 40
0.000000
 41
0.000000
  0
VERTEX
  8
0
  6
CONTINUOUS
 10
6.325440
 20
1.370600
  0
VERTEX
  8
0
  6
CONTINUOUS
 10
6.327200
 20
2.121240
  0
VERTEX
  8
0
  6
CONTINUOUS
 10
6.391880
 20
2.132240
  0
VERTEX
  8
0
  6
CONTINUOUS
 10
6.390120
 20
1.382040
  0
VERTEX
  8
0
  6
CONTINUOUS
 10
6.325440
 20
1.370600
  0
SEQEND
  8
0
  0
SOLID
  8
0
 62
    15
 10
6.390120
 20
1.382040
 11
6.391880
 21
2.132240
 12
6.447320
 22
1.391280
 13
6.449080
 23
2.141920
  0
POLYLINE
  8
0
  6
CONTINUOUS
 66
     1
 40
0.000000
 41
0.000000
  0
VERTEX
  8
0
  6
CONTINUOUS
 10
6.390120
 20
1.382040
  0
VERTEX
  8
0
  6
CONTINUOUS
 10
6.391880
 20
2.132240
  0
VERTEX
  8
0
  6
CONTINUOUS
 10
6.449080
 20
2.141920
  0
VERTEX
  8
0
  6
CONTINUOUS
 10
6.447320
 20
1.391280
  0
VERTEX
  8
0
  6
CONTINUOUS
 10
6.390120
 20
1.382040
  0
SEQEND
  8
0
  0
SOLID
  8
0
 62
    15
 10
6.447320
 20
1.391280
 11
6.449080
 21
2.141920
 12
6.497480
 22
1.398760
 13
6.499240
 23
2.148960
  0
POLYLINE
  8
0
  6
CONTINUOUS
 66
     1
 40
0.000000
 41
0.000000
  0
VERTEX
  8
0
  6
CONTINUOUS
 10
6.447320
 20
1.391280
  0
VERTEX
  8
0
  6
CONTINUOUS
 10
6.449080
 20
2.141920
  0
VERTEX
  8
0
  6
CONTINUOUS
 10
6.499240
 20
2.148960
  0
VERTEX
  8
0
  6
CONTINUOUS
 10
6.497480
 20
1.398760
  0
VERTEX
  8
0
  6
CONTINUOUS
 10
6.447320
 20
1.391280
  0
SEQEND
  8
0
  0
SOLID
  8
0
 62
    15
 10
6.497480
 20
1.398760
 11
6.499240
 21
2.148960
 12
6.541480
 22
1.403600
 13
6.543240
 23
2.153800
  0
POLYLINE
  8
0
  6
CONTINUOUS
 66
     1
 40
0.000000
 41
0.000000
  0
VERTEX
  8
0
  6
CONTINUOUS
 10
6.497480
 20
1.398760
  0
VERTEX
  8
0
  6
CONTINUOUS
 10
6.499240
 20
2.148960
  0
VERTEX
  8
0
  6
CONTINUOUS
 10
6.543240
 20
2.153800
  0
VERTEX
  8
0
  6
CONTINUOUS
 10
6.541480
 20
1.403600
  0
VERTEX
  8
0
  6
CONTINUOUS
 10
6.497480
 20
1.398760
  0
SEQEND
  8
0
  0
SOLID
  8
0
 62
    15
 10
6.541480
 20
1.403600
 11
6.543240
 21
2.153800
 12
6.579760
 22
1.405800
 13
6.581520
 23
2.156000
  0
POLYLINE
  8
0
  6
CONTINUOUS
 66
     1
 40
0.000000
 41
0.000000
  0
VERTEX
  8
0
  6
CONTINUOUS
 10
6.541480
 20
1.403600
  0
VERTEX
  8
0
  6
CONTINUOUS
 10
6.543240
 20
2.153800
  0
VERTEX
  8
0
  6
CONTINUOUS
 10
6.581520
 20
2.156000
  0
VERTEX
  8
0
  6
CONTINUOUS
 10
6.579760
 20
1.405800
  0
VERTEX
  8
0
  6
CONTINUOUS
 10
6.541480
 20
1.403600
  0
SEQEND
  8
0
  0
SOLID
  8
0
 62
    15
 10
6.579760
 20
1.405800
 11
6.581520
 21
2.156000
 12
6.613640
 22
1.404920
 13
6.615400
 23
2.155560
  0
POLYLINE
  8
0
  6
CONTINUOUS
 66
     1
 40
0.000000
 41
0.000000
  0
VERTEX
  8
0
  6
CONTINUOUS
 10
6.579760
 20
1.405800
  0
VERTEX
  8
0
  6
CONTINUOUS
 10
6.581520
 20
2.156000
  0
VERTEX
  8
0
  6
CONTINUOUS
 10
6.615400
 20
2.155560
  0
VERTEX
  8
0
  6
CONTINUOUS
 10
6.613640
 20
1.404920
  0
VERTEX
  8
0
  6
CONTINUOUS
 10
6.579760
 20
1.405800
  0
SEQEND
  8
0
  0
SOLID
  8
0
 62
    15
 10
6.613640
 20
1.404920
 11
6.615400
 21
2.155560
 12
6.643120
 22
1.400960
 13
6.644880
 23
2.151160
  0
POLYLINE
  8
0
  6
CONTINUOUS
 66
     1
 40
0.000000
 41
0.000000
  0
VERTEX
  8
0
  6
CONTINUOUS
 10
6.613640
 20
1.404920
  0
VERTEX
  8
0
  6
CONTINUOUS
 10
6.615400
 20
2.155560
  0
VERTEX
  8
0
  6
CONTINUOUS
 10
6.644880
 20
2.151160
  0
VERTEX
  8
0
  6
CONTINUOUS
 10
6.643120
 20
1.400960
  0
VERTEX
  8
0
  6
CONTINUOUS
 10
6.613640
 20
1.404920
  0
SEQEND
  8
0
  0
SOLID
  8
0
 62
    15
 10
6.643120
 20
1.400960
 11
6.644880
 21
2.151160
 12
6.669080
 22
1.393480
 13
6.670840
 23
2.143680
  0
POLYLINE
  8
0
  6
CONTINUOUS
 66
     1
 40
0.000000
 41
0.000000
  0
VERTEX
  8
0
  6
CONTINUOUS
 10
6.643120
 20
1.400960
  0
VERTEX
  8
0
  6
CONTINUOUS
 10
6.644880
 20
2.151160
  0
VERTEX
  8
0
  6
CONTINUOUS
 10
6.670840
 20
2.143680
  0
VERTEX
  8
0
  6
CONTINUOUS
 10
6.669080
 20
1.393480
  0
VERTEX
  8
0
  6
CONTINUOUS
 10
6.643120
 20
1.400960
  0
SEQEND
  8
0
  0
SOLID
  8
0
 62
    15
 10
6.669080
 20
1.393480
 11
6.670840
 21
2.143680
 12
6.692400
 22
1.382040
 13
6.694160
 23
2.132240
  0
POLYLINE
  8
0
  6
CONTINUOUS
 66
     1
 40
0.000000
 41
0.000000
  0
VERTEX
  8
0
  6
CONTINUOUS
 10
6.669080
 20
1.393480
  0
VERTEX
  8
0
  6
CONTINUOUS
 10
6.670840
 20
2.143680
  0
VERTEX
  8
0
  6
CONTINUOUS
 10
6.694160
 20
2.132240
  0
VERTEX
  8
0
  6
CONTINUOUS
 10
6.692400
 20
1.382040
  0
VERTEX
  8
0
  6
CONTINUOUS
 10
6.669080
 20
1.393480
  0
SEQEND
  8
0
  0
SOLID
  8
0
 62
    15
 10
6.692400
 20
1.382040
 11
6.694160
 21
2.132240
 12
6.713960
 22
1.366200
 13
6.715720
 23
2.116840
  0
POLYLINE
  8
0
  6
CONTINUOUS
 66
     1
 40
0.000000
 41
0.000000
  0
VERTEX
  8
0
  6
CONTINUOUS
 10
6.692400
 20
1.382040
  0
VERTEX
  8
0
  6
CONTINUOUS
 10
6.694160
 20
2.132240
  0
VERTEX
  8
0
  6
CONTINUOUS
 10
6.715720
 20
2.116840
  0
VERTEX
  8
0
  6
CONTINUOUS
 10
6.713960
 20
1.366200
  0
VERTEX
  8
0
  6
CONTINUOUS
 10
6.692400
 20
1.382040
  0
SEQEND
  8
0
  0
SOLID
  8
0
 62
    15
 10
6.713960
 20
1.366200
 11
6.715720
 21
2.116840
 12
6.734200
 22
1.346400
 13
6.735960
 23
2.096600
  0
POLYLINE
  8
0
  6
CONTINUOUS
 66
     1
 40
0.000000
 41
0.000000
  0
VERTEX
  8
0
  6
CONTINUOUS
 10
6.713960
 20
1.366200
  0
VERTEX
  8
0
  6
CONTINUOUS
 10
6.715720
 20
2.116840
  0
VERTEX
  8
0
  6
CONTINUOUS
 10
6.735960
 20
2.096600
  0
VERTEX
  8
0
  6
CONTINUOUS
 10
6.734200
 20
1.346400
  0
VERTEX
  8
0
  6
CONTINUOUS
 10
6.713960
 20
1.366200
  0
SEQEND
  8
0
  0
SOLID
  8
0
 62
    15
 10
6.734200
 20
1.346400
 11
6.735960
 21
2.096600
 12
6.753560
 22
1.321320
 13
6.755320
 23
2.071960
  0
POLYLINE
  8
0
  6
CONTINUOUS
 66
     1
 40
0.000000
 41
0.000000
  0
VERTEX
  8
0
  6
CONTINUOUS
 10
6.734200
 20
1.346400
  0
VERTEX
  8
0
  6
CONTINUOUS
 10
6.735960
 20
2.096600
  0
VERTEX
  8
0
  6
CONTINUOUS
 10
6.755320
 20
2.071960
  0
VERTEX
  8
0
  6
CONTINUOUS
 10
6.753560
 20
1.321320
  0
VERTEX
  8
0
  6
CONTINUOUS
 10
6.734200
 20
1.346400
  0
SEQEND
  8
0
  0
SOLID
  8
0
 62
    15
 10
6.753560
 20
1.321320
 11
6.755320
 21
2.071960
 12
6.773360
 22
1.291400
 13
6.775120
 23
2.042040
  0
POLYLINE
  8
0
  6
CONTINUOUS
 66
     1
 40
0.000000
 41
0.000000
  0
VERTEX
  8
0
  6
CONTINUOUS
 10
6.753560
 20
1.321320
  0
VERTEX
  8
0
  6
CONTINUOUS
 10
6.755320
 20
2.071960
  0
VERTEX
  8
0
  6
CONTINUOUS
 10
6.775120
 20
2.042040
  0
VERTEX
  8
0
  6
CONTINUOUS
 10
6.773360
 20
1.291400
  0
VERTEX
  8
0
  6
CONTINUOUS
 10
6.753560
 20
1.321320
  0
SEQEND
  8
0
  0
SOLID
  8
0
 62
    15
 10
6.773360
 20
1.291400
 11
6.775120
 21
2.042040
 12
6.794040
 22
1.256640
 13
6.795800
 23
2.006840
  0
POLYLINE
  8
0
  6
CONTINUOUS
 66
     1
 40
0.000000
 41
0.000000
  0
VERTEX
  8
0
  6
CONTINUOUS
 10
6.773360
 20
1.291400
  0
VERTEX
  8
0
  6
CONTINUOUS
 10
6.775120
 20
2.042040
  0
VERTEX
  8
0
  6
CONTINUOUS
 10
6.795800
 20
2.006840
  0
VERTEX
  8
0
  6
CONTINUOUS
 10
6.794040
 20
1.256640
  0
VERTEX
  8
0
  6
CONTINUOUS
 10
6.773360
 20
1.291400
  0
SEQEND
  8
0
  0
SOLID
  8
0
 62
    15
 10
6.794040
 20
1.256640
 11
6.795800
 21
2.006840
 12
6.809880
 22
1.256640
 13
6.811640
 23
2.006840
  0
POLYLINE
  8
0
  6
CONTINUOUS
 66
     1
 40
0.000000
 41
0.000000
  0
VERTEX
  8
0
  6
CONTINUOUS
 10
6.794040
 20
1.256640
  0
VERTEX
  8
0
  6
CONTINUOUS
 10
6.795800
 20
2.006840
  0
VERTEX
  8
0
  6
CONTINUOUS
 10
6.811640
 20
2.006840
  0
VERTEX
  8
0
  6
CONTINUOUS
 10
6.809880
 20
1.256640
  0
VERTEX
  8
0
  6
CONTINUOUS
 10
6.794040
 20
1.256640
  0
SEQEND
  8
0
  0
SOLID
  8
0
 62
    15
 10
6.809880
 20
1.256640
 11
6.811640
 21
2.006840
 12
6.823960
 22
1.287880
 13
6.825720
 23
2.038520
  0
POLYLINE
  8
0
  6
CONTINUOUS
 66
     1
 40
0.000000
 41
0.000000
  0
VERTEX
  8
0
  6
CONTINUOUS
 10
6.809880
 20
1.256640
  0
VERTEX
  8
0
  6
CONTINUOUS
 10
6.811640
 20
2.006840
  0
VERTEX
  8
0
  6
CONTINUOUS
 10
6.825720
 20
2.038520
  0
VERTEX
  8
0
  6
CONTINUOUS
 10
6.823960
 20
1.287880
  0
VERTEX
  8
0
  6
CONTINUOUS
 10
6.809880
 20
1.256640
  0
SEQEND
  8
0
  0
SOLID
  8
0
 62
    15
 10
6.823960
 20
1.287880
 11
6.825720
 21
2.038520
 12
6.841560
 22
1.315600
 13
6.843320
 23
2.066240
  0
POLYLINE
  8
0
  6
CONTINUOUS
 66
     1
 40
0.000000
 41
0.000000
  0
VERTEX
  8
0
  6
CONTINUOUS
 10
6.823960
 20
1.287880
  0
VERTEX
  8
0
  6
CONTINUOUS
 10
6.825720
 20
2.038520
  0
VERTEX
  8
0
  6
CONTINUOUS
 10
6.843320
 20
2.066240
  0
VERTEX
  8
0
  6
CONTINUOUS
 10
6.841560
 20
1.315600
  0
VERTEX
  8
0
  6
CONTINUOUS
 10
6.823960
 20
1.287880
  0
SEQEND
  8
0
  0
SOLID
  8
0
 62
    15
 10
6.841560
 20
1.315600
 11
6.843320
 21
2.066240
 12
6.861360
 22
1.338920
 13
6.863120
 23
2.089560
  0
POLYLINE
  8
0
  6
CONTINUOUS
 66
     1
 40
0.000000
 41
0.000000
  0
VERTEX
  8
0
  6
CONTINUOUS
 10
6.841560
 20
1.315600
  0
VERTEX
  8
0
  6
CONTINUOUS
 10
6.843320
 20
2.066240
  0
VERTEX
  8
0
  6
CONTINUOUS
 10
6.863120
 20
2.089560
  0
VERTEX
  8
0
  6
CONTINUOUS
 10
6.861360
 20
1.338920
  0
VERTEX
  8
0
  6
CONTINUOUS
 10
6.841560
 20
1.315600
  0
SEQEND
  8
0
  0
SOLID
  8
0
 62
    15
 10
6.861360
 20
1.338920
 11
6.863120
 21
2.089560
 12
6.883360
 22
1.357840
 13
6.885120
 23
2.108480
  0
POLYLINE
  8
0
  6
CONTINUOUS
 66
     1
 40
0.000000
 41
0.000000
  0
VERTEX
  8
0
  6
CONTINUOUS
 10
6.861360
 20
1.338920
  0
VERTEX
  8
0
  6
CONTINUOUS
 10
6.863120
 20
2.089560
  0
VERTEX
  8
0
  6
CONTINUOUS
 10
6.885120
 20
2.108480
  0
VERTEX
  8
0
  6
CONTINUOUS
 10
6.883360
 20
1.357840
  0
VERTEX
  8
0
  6
CONTINUOUS
 10
6.861360
 20
1.338920
  0
SEQEND
  8
0
  0
SOLID
  8
0
 62
    15
 10
6.883360
 20
1.357840
 11
6.885120
 21
2.108480
 12
6.907120
 22
1.372800
 13
6.908880
 23
2.123440
  0
POLYLINE
  8
0
  6
CONTINUOUS
 66
     1
 40
0.000000
 41
0.000000
  0
VERTEX
  8
0
  6
CONTINUOUS
 10
6.883360
 20
1.357840
  0
VERTEX
  8
0
  6
CONTINUOUS
 10
6.885120
 20
2.108480
  0
VERTEX
  8
0
  6
CONTINUOUS
 10
6.908880
 20
2.123440
  0
VERTEX
  8
0
  6
CONTINUOUS
 10
6.907120
 20
1.372800
  0
VERTEX
  8
0
  6
CONTINUOUS
 10
6.883360
 20
1.357840
  0
SEQEND
  8
0
  0
SOLID
  8
0
 62
    15
 10
6.907120
 20
1.372800
 11
6.908880
 21
2.123440
 12
6.931760
 22
1.382920
 13
6.933520
 23
2.133560
  0
POLYLINE
  8
0
  6
CONTINUOUS
 66
     1
 40
0.000000
 41
0.000000
  0
VERTEX
  8
0
  6
CONTINUOUS
 10
6.907120
 20
1.372800
  0
VERTEX
  8
0
  6
CONTINUOUS
 10
6.908880
 20
2.123440
  0
VERTEX
  8
0
  6
CONTINUOUS
 10
6.933520
 20
2.133560
  0
VERTEX
  8
0
  6
CONTINUOUS
 10
6.931760
 20
1.382920
  0
VERTEX
  8
0
  6
CONTINUOUS
 10
6.907120
 20
1.372800
  0
SEQEND
  8
0
  0
SOLID
  8
0
 62
    15
 10
6.931760
 20
1.382920
 11
6.933520
 21
2.133560
 12
6.956840
 22
1.388640
 13
6.958600
 23
2.138840
  0
POLYLINE
  8
0
  6
CONTINUOUS
 66
     1
 40
0.000000
 41
0.000000
  0
VERTEX
  8
0
  6
CONTINUOUS
 10
6.931760
 20
1.382920
  0
VERTEX
  8
0
  6
CONTINUOUS
 10
6.933520
 20
2.133560
  0
VERTEX
  8
0
  6
CONTINUOUS
 10
6.958600
 20
2.138840
  0
VERTEX
  8
0
  6
CONTINUOUS
 10
6.956840
 20
1.388640
  0
VERTEX
  8
0
  6
CONTINUOUS
 10
6.931760
 20
1.382920
  0
SEQEND
  8
0
  0
SOLID
  8
0
 62
    15
 10
6.956840
 20
1.388640
 11
6.958600
 21
2.138840
 12
6.981920
 22
1.389520
 13
6.983680
 23
2.139720
  0
POLYLINE
  8
0
  6
CONTINUOUS
 66
     1
 40
0.000000
 41
0.000000
  0
VERTEX
  8
0
  6
CONTINUOUS
 10
6.956840
 20
1.388640
  0
VERTEX
  8
0
  6
CONTINUOUS
 10
6.958600
 20
2.138840
  0
VERTEX
  8
0
  6
CONTINUOUS
 10
6.983680
 20
2.139720
  0
VERTEX
  8
0
  6
CONTINUOUS
 10
6.981920
 20
1.389520
  0
VERTEX
  8
0
  6
CONTINUOUS
 10
6.956840
 20
1.388640
  0
SEQEND
  8
0
  0
SOLID
  8
0
 62
    15
 10
6.981920
 20
1.389520
 11
6.983680
 21
2.139720
 12
7.006120
 22
1.385120
 13
7.007880
 23
2.135760
  0
POLYLINE
  8
0
  6
CONTINUOUS
 66
     1
 40
0.000000
 41
0.000000
  0
VERTEX
  8
0
  6
CONTINUOUS
 10
6.981920
 20
1.389520
  0
VERTEX
  8
0
  6
CONTINUOUS
 10
6.983680
 20
2.139720
  0
VERTEX
  8
0
  6
CONTINUOUS
 10
7.007880
 20
2.135760
  0
VERTEX
  8
0
  6
CONTINUOUS
 10
7.006120
 20
1.385120
  0
VERTEX
  8
0
  6
CONTINUOUS
 10
6.981920
 20
1.389520
  0
SEQEND
  8
0
  0
SOLID
  8
0
 62
    15
 10
7.006120
 20
1.385120
 11
7.007880
 21
2.135760
 12
7.029440
 22
1.376320
 13
7.031200
 23
2.126520
  0
POLYLINE
  8
0
  6
CONTINUOUS
 66
     1
 40
0.000000
 41
0.000000
  0
VERTEX
  8
0
  6
CONTINUOUS
 10
7.006120
 20
1.385120
  0
VERTEX
  8
0
  6
CONTINUOUS
 10
7.007880
 20
2.135760
  0
VERTEX
  8
0
  6
CONTINUOUS
 10
7.031200
 20
2.126520
  0
VERTEX
  8
0
  6
CONTINUOUS
 10
7.029440
 20
1.376320
  0
VERTEX
  8
0
  6
CONTINUOUS
 10
7.006120
 20
1.385120
  0
SEQEND
  8
0
  0
SOLID
  8
0
 62
    15
 10
7.029440
 20
1.376320
 11
7.031200
 21
2.126520
 12
7.051440
 22
1.362240
 13
7.053200
 23
2.112440
  0
POLYLINE
  8
0
  6
CONTINUOUS
 66
     1
 40
0.000000
 41
0.000000
  0
VERTEX
  8
0
  6
CONTINUOUS
 10
7.029440
 20
1.376320
  0
VERTEX
  8
0
  6
CONTINUOUS
 10
7.031200
 20
2.126520
  0
VERTEX
  8
0
  6
CONTINUOUS
 10
7.053200
 20
2.112440
  0
VERTEX
  8
0
  6
CONTINUOUS
 10
7.051440
 20
1.362240
  0
VERTEX
  8
0
  6
CONTINUOUS
 10
7.029440
 20
1.376320
  0
SEQEND
  8
0
  0
SOLID
  8
0
 62
    15
 10
7.051440
 20
1.362240
 11
7.053200
 21
2.112440
 12
7.070800
 22
1.342880
 13
7.072560
 23
2.093080
  0
POLYLINE
  8
0
  6
CONTINUOUS
 66
     1
 40
0.000000
 41
0.000000
  0
VERTEX
  8
0
  6
CONTINUOUS
 10
7.051440
 20
1.362240
  0
VERTEX
  8
0
  6
CONTINUOUS
 10
7.053200
 20
2.112440
  0
VERTEX
  8
0
  6
CONTINUOUS
 10
7.072560
 20
2.093080
  0
VERTEX
  8
0
  6
CONTINUOUS
 10
7.070800
 20
1.342880
  0
VERTEX
  8
0
  6
CONTINUOUS
 10
7.051440
 20
1.362240
  0
SEQEND
  8
0
  0
SOLID
  8
0
 62
    15
 10
7.070800
 20
1.342880
 11
7.072560
 21
2.093080
 12
7.087520
 22
1.317800
 13
7.089280
 23
2.068440
  0
POLYLINE
  8
0
  6
CONTINUOUS
 66
     1
 40
0.000000
 41
0.000000
  0
VERTEX
  8
0
  6
CONTINUOUS
 10
7.070800
 20
1.342880
  0
VERTEX
  8
0
  6
CONTINUOUS
 10
7.072560
 20
2.093080
  0
VERTEX
  8
0
  6
CONTINUOUS
 10
7.089280
 20
2.068440
  0
VERTEX
  8
0
  6
CONTINUOUS
 10
7.087520
 20
1.317800
  0
VERTEX
  8
0
  6
CONTINUOUS
 10
7.070800
 20
1.342880
  0
SEQEND
  8
0
  0
SOLID
  8
0
 62
    15
 10
7.087520
 20
1.317800
 11
7.089280
 21
2.068440
 12
7.101160
 22
1.287880
 13
7.102920
 23
2.038080
  0
POLYLINE
  8
0
  6
CONTINUOUS
 66
     1
 40
0.000000
 41
0.000000
  0
VERTEX
  8
0
  6
CONTINUOUS
 10
7.087520
 20
1.317800
  0
VERTEX
  8
0
  6
CONTINUOUS
 10
7.089280
 20
2.068440
  0
VERTEX
  8
0
  6
CONTINUOUS
 10
7.102920
 20
2.038080
  0
VERTEX
  8
0
  6
CONTINUOUS
 10
7.101160
 20
1.287880
  0
VERTEX
  8
0
  6
CONTINUOUS
 10
7.087520
 20
1.317800
  0
SEQEND
  8
0
  0
SOLID
  8
0
 62
    15
 10
7.255160
 20
1.210440
 11
7.256920
 21
1.960640
 12
7.255160
 22
0.912560
 13
7.256920
 23
1.663200
  0
POLYLINE
  8
0
  6
CONTINUOUS
 66
     1
 40
0.000000
 41
0.000000
  0
VERTEX
  8
0
  6
CONTINUOUS
 10
7.255160
 20
1.210440
  0
VERTEX
  8
0
  6
CONTINUOUS
 10
7.256920
 20
1.960640
  0
VERTEX
  8
0
  6
CONTINUOUS
 10
7.256920
 20
1.663200
  0
VERTEX
  8
0
  6
CONTINUOUS
 10
7.255160
 20
0.912560
  0
VERTEX
  8
0
  6
CONTINUOUS
 10
7.255160
 20
1.210440
  0
SEQEND
  8
0
  0
SOLID
  8
0
 62
    15
 10
7.117000
 20
1.210440
 11
7.118760
 21
1.960640
 12
7.255160
 22
1.210440
 13
7.256920
 23
1.960640
  0
POLYLINE
  8
0
  6
CONTINUOUS
 66
     1
 40
0.000000
 41
0.000000
  0
VERTEX
  8
0
  6
CONTINUOUS
 10
7.117000
 20
1.210440
  0
VERTEX
  8
0
  6
CONTINUOUS
 10
7.118760
 20
1.960640
  0
VERTEX
  8
0
  6
CONTINUOUS
 10
7.256920
 20
1.960640
  0
VERTEX
  8
0
  6
CONTINUOUS
 10
7.255160
 20
1.210440
  0
VERTEX
  8
0
  6
CONTINUOUS
 10
7.117000
 20
1.210440
  0
SEQEND
  8
0
  0
SOLID
  8
0
 62
    15
 10
7.111280
 20
1.251800
 11
7.113040
 21
2.002440
 12
7.117000
 22
1.210440
 13
7.118760
 23
1.960640
  0
POLYLINE
  8
0
  6
CONTINUOUS
 66
     1
 40
0.000000
 41
0.000000
  0
VERTEX
  8
0
  6
CONTINUOUS
 10
7.111280
 20
1.251800
  0
VERTEX
  8
0
  6
CONTINUOUS
 10
7.113040
 20
2.002440
  0
VERTEX
  8
0
  6
CONTINUOUS
 10
7.118760
 20
1.960640
  0
VERTEX
  8
0
  6
CONTINUOUS
 10
7.117000
 20
1.210440
  0
VERTEX
  8
0
  6
CONTINUOUS
 10
7.111280
 20
1.251800
  0
SEQEND
  8
0
  0
SOLID
  8
0
 62
    15
 10
7.101160
 20
1.287880
 11
7.102920
 21
2.038080
 12
7.111280
 22
1.251800
 13
7.113040
 23
2.002440
  0
POLYLINE
  8
0
  6
CONTINUOUS
 66
     1
 40
0.000000
 41
0.000000
  0
VERTEX
  8
0
  6
CONTINUOUS
 10
7.101160
 20
1.287880
  0
VERTEX
  8
0
  6
CONTINUOUS
 10
7.102920
 20
2.038080
  0
VERTEX
  8
0
  6
CONTINUOUS
 10
7.113040
 20
2.002440
  0
VERTEX
  8
0
  6
CONTINUOUS
 10
7.111280
 20
1.251800
  0
VERTEX
  8
0
  6
CONTINUOUS
 10
7.101160
 20
1.287880
  0
SEQEND
  8
0
  0
SOLID
  8
0
 62
    15
 10
4.287800
 20
1.001440
 11
4.289560
 21
1.752080
 12
4.288680
 22
1.004520
 13
4.290440
 23
1.755160
  0
POLYLINE
  8
0
  6
CONTINUOUS
 66
     1
 40
0.000000
 41
0.000000
  0
VERTEX
  8
0
  6
CONTINUOUS
 10
4.287800
 20
1.001440
  0
VERTEX
  8
0
  6
CONTINUOUS
 10
4.289560
 20
1.752080
  0
VERTEX
  8
0
  6
CONTINUOUS
 10
4.290440
 20
1.755160
  0
VERTEX
  8
0
  6
CONTINUOUS
 10
4.288680
 20
1.004520
  0
VERTEX
  8
0
  6
CONTINUOUS
 10
4.287800
 20
1.001440
  0
SEQEND
  8
0
  0
POLYLINE
  8
0
  6
CONTINUOUS
 66
     1
 40
0.000000
 41
0.000000
  0
VERTEX
  8
0
  6
CONTINUOUS
 10
4.288680
 20
1.004520
  0
VERTEX
  8
0
  6
CONTINUOUS
 10
4.315520
 20
1.011560
  0
VERTEX
  8
0
  6
CONTINUOUS
 10
4.341040
 20
1.023000
  0
VERTEX
  8
0
  6
CONTINUOUS
 10
4.364800
 20
1.038840
  0
VERTEX
  8
0
  6
CONTINUOUS
 10
4.387680
 20
1.058640
  0
VERTEX
  8
0
  6
CONTINUOUS
 10
4.427720
 20
1.107920
  0
VERTEX
  8
0
  6
CONTINUOUS
 10
4.461160
 20
1.167320
  0
VERTEX
  8
0
  6
CONTINUOUS
 10
4.487120
 20
1.232880
  0
VERTEX
  8
0
  6
CONTINUOUS
 10
4.505160
 20
1.301080
  0
VERTEX
  8
0
  6
CONTINUOUS
 10
4.514840
 20
1.367960
  0
VERTEX
  8
0
  6
CONTINUOUS
 10
4.516160
 20
1.430440
  0
VERTEX
  8
0
  6
CONTINUOUS
 10
4.717680
 20
1.430440
  0
VERTEX
  8
0
  6
CONTINUOUS
 10
4.719440
 20
1.474440
  0
VERTEX
  8
0
  6
CONTINUOUS
 10
4.724720
 20
1.515800
  0
VERTEX
  8
0
  6
CONTINUOUS
 10
4.744520
 20
1.589720
  0
VERTEX
  8
0
  6
CONTINUOUS
 10
4.774880
 20
1.652200
  0
VERTEX
  8
0
  6
CONTINUOUS
 10
4.814040
 20
1.703680
  0
VERTEX
  8
0
  6
CONTINUOUS
 10
4.860680
 20
1.744160
  0
VERTEX
  8
0
  6
CONTINUOUS
 10
4.912600
 20
1.773200
  0
VERTEX
  8
0
  6
CONTINUOUS
 10
4.967600
 20
1.790800
  0
VERTEX
  8
0
  6
CONTINUOUS
 10
5.024800
 20
1.796960
  0
VERTEX
  8
0
  6
CONTINUOUS
 10
5.082000
 20
1.791680
  0
VERTEX
  8
0
  6
CONTINUOUS
 10
5.137440
 20
1.774960
  0
VERTEX
  8
0
  6
CONTINUOUS
 10
5.188920
 20
1.746360
  0
VERTEX
  8
0
  6
CONTINUOUS
 10
5.235120
 20
1.706760
  0
VERTEX
  8
0
  6
CONTINUOUS
 10
5.274280
 20
1.655280
  0
VERTEX
  8
0
  6
CONTINUOUS
 10
5.304640
 20
1.591920
  0
VERTEX
  8
0
  6
CONTINUOUS
 10
5.324000
 20
1.517120
  0
VERTEX
  8
0
  6
CONTINUOUS
 10
5.329280
 20
1.475320
  0
VERTEX
  8
0
  6
CONTINUOUS
 10
5.331040
 20
1.430440
  0
VERTEX
  8
0
  6
CONTINUOUS
 10
5.503960
 20
1.430440
  0
VERTEX
  8
0
  6
CONTINUOUS
 10
5.546640
 20
1.375880
  0
VERTEX
  8
0
  6
CONTINUOUS
 10
5.591080
 20
1.335840
  0
VERTEX
  8
0
  6
CONTINUOUS
 10
5.642560
 20
1.309880
  0
VERTEX
  8
0
  6
CONTINUOUS
 10
5.672480
 20
1.301520
  0
VERTEX
  8
0
  6
CONTINUOUS
 10
5.705920
 20
1.296240
  0
VERTEX
  8
0
  6
CONTINUOUS
 10
5.743320
 20
1.293600
  0
VERTEX
  8
0
  6
CONTINUOUS
 10
5.785560
 20
1.293600
  0
VERTEX
  8
0
  6
CONTINUOUS
 10
5.885880
 20
1.301520
  0
VERTEX
  8
0
  6
CONTINUOUS
 10
6.012600
 20
1.318680
  0
VERTEX
  8
0
  6
CONTINUOUS
 10
6.325440
 20
1.370600
  0
VERTEX
  8
0
  6
CONTINUOUS
 10
6.447320
 20
1.391280
  0
VERTEX
  8
0
  6
CONTINUOUS
 10
6.497480
 20
1.398760
  0
VERTEX
  8
0
  6
CONTINUOUS
 10
6.541480
 20
1.403600
  0
VERTEX
  8
0
  6
CONTINUOUS
 10
6.579760
 20
1.405800
  0
VERTEX
  8
0
  6
CONTINUOUS
 10
6.613640
 20
1.404920
  0
VERTEX
  8
0
  6
CONTINUOUS
 10
6.643120
 20
1.400960
  0
VERTEX
  8
0
  6
CONTINUOUS
 10
6.669080
 20
1.393480
  0
VERTEX
  8
0
  6
CONTINUOUS
 10
6.692400
 20
1.382040
  0
VERTEX
  8
0
  6
CONTINUOUS
 10
6.713960
 20
1.366200
  0
VERTEX
  8
0
  6
CONTINUOUS
 10
6.734200
 20
1.346400
  0
VERTEX
  8
0
  6
CONTINUOUS
 10
6.753560
 20
1.321320
  0
VERTEX
  8
0
  6
CONTINUOUS
 10
6.773360
 20
1.291400
  0
VERTEX
  8
0
  6
CONTINUOUS
 10
6.794040
 20
1.256640
  0
VERTEX
  8
0
  6
CONTINUOUS
 10
6.809880
 20
1.256640
  0
VERTEX
  8
0
  6
CONTINUOUS
 10
6.823960
 20
1.287880
  0
VERTEX
  8
0
  6
CONTINUOUS
 10
6.841560
 20
1.315600
  0
VERTEX
  8
0
  6
CONTINUOUS
 10
6.861360
 20
1.338920
  0
VERTEX
  8
0
  6
CONTINUOUS
 10
6.883360
 20
1.357840
  0
VERTEX
  8
0
  6
CONTINUOUS
 10
6.907120
 20
1.372800
  0
VERTEX
  8
0
  6
CONTINUOUS
 10
6.931760
 20
1.382920
  0
VERTEX
  8
0
  6
CONTINUOUS
 10
6.956840
 20
1.388640
  0
VERTEX
  8
0
  6
CONTINUOUS
 10
6.981920
 20
1.389520
  0
VERTEX
  8
0
  6
CONTINUOUS
 10
7.006120
 20
1.385120
  0
VERTEX
  8
0
  6
CONTINUOUS
 10
7.029440
 20
1.376320
  0
VERTEX
  8
0
  6
CONTINUOUS
 10
7.051440
 20
1.362240
  0
VERTEX
  8
0
  6
CONTINUOUS
 10
7.070800
 20
1.342880
  0
VERTEX
  8
0
  6
CONTINUOUS
 10
7.087520
 20
1.317800
  0
VERTEX
  8
0
  6
CONTINUOUS
 10
7.101160
 20
1.287880
  0
VERTEX
  8
0
  6
CONTINUOUS
 10
7.111280
 20
1.251800
  0
VERTEX
  8
0
  6
CONTINUOUS
 10
7.117000
 20
1.210440
  0
VERTEX
  8
0
  6
CONTINUOUS
 10
7.255160
 20
1.210440
  0
VERTEX
  8
0
  6
CONTINUOUS
 10
7.255160
 20
0.912560
  0
VERTEX
  8
0
  6
CONTINUOUS
 10
4.287800
 20
0.912560
  0
VERTEX
  8
0
  6
CONTINUOUS
 10
4.287800
 20
1.001440
  0
VERTEX
  8
0
  6
CONTINUOUS
 10
4.288680
 20
1.004520
  0
SEQEND
  8
0
  0
TEXT
  8
0
 10
5.475800
 20
0.672320
 40
0.138148
  1
BA  446
 41
1.000000
  7
SN0
 71
     0
 72
     5
 11
6.065848
 21
0.672320
  0
TEXT
  8
0
 10
5.463040
 20
0.480480
 40
0.138148
  1
7/8" x 3"
 41
1.000000
  7
SN0
 71
     0
 72
     5
 11
6.078053
 21
0.480480
  0
ENDSEC
  0
EOF
