  0
SECTION
  2
HEADER
  9
$ACADVER
  1
AC1006
  9
$EXTMIN
 10
3.069000
 20
0.429880
  9
$EXTMAX
 10
7.166720
 20
4.737480
  9
$LTSCALE
 40
0.044000
  9
$PDMODE
 70
    35
  9
$PDSIZE
 40
0.035200
  0
ENDSEC
  0
SECTION
  2
TABLES
  0
TABLE
  2
LTYPE
 70
     9
  0
LTYPE
  2
CONTINUOUS
 70
    64
  3
Solid line
 72
    65
 73
     0
 40
0.000000
  0
LTYPE
  2
DASHED
 70
    64
  3
__ __ __ __ __ __ __ __ __ __ __ __ __ __ __
 72
    65
 73
     2
 40
0.000330
 49
0.000220
 49
-0.000110
  0
LTYPE
  2
HIDDEN
 70
    64
  3
 _ _ _ _ _ _ _ _ _ _ _ _ _ _ _ _ _ _ _ _ _ _
 72
    65
 73
     2
 40
0.000165
 49
0.000110
 49
-0.000055
  0
LTYPE
  2
CENTER
 70
    64
  3
____ _ ____ _ ____ _ ____ _ ____ _ ____ _ ____
 72
    65
 73
     4
 40
0.000880
 49
0.000550
 49
-0.000110
 49
0.000110
 49
-0.000110
  0
LTYPE
  2
PHANTOM
 70
    64
  3
_____ _ _ _____ _ _ _____ _ _ _____ _ _ ____
 72
    65
 73
     6
 40
0.001100
 49
0.000550
 49
-0.000110
 49
0.000110
 49
-0.000110
 49
0.000110
 49
-0.000110
  0
LTYPE
  2
DOT
 70
    64
  3
...............................................
 72
    65
 73
     2
 40
0.000110
 49
0.000000
 49
-0.000110
  0
LTYPE
  2
DASHDOT
 70
    64
  3
__ . __ . __ . __ . __ . __ . __ . __ . __ . __
 72
    65
 73
     4
 40
0.000440
 49
0.000220
 49
-0.000110
 49
0.000000
 49
-0.000110
  0
LTYPE
  2
BORDER
 70
    64
  3
__ __ . __ __ . __ __ . __ __ . __ __ . __ __
 72
    65
 73
     6
 40
0.000770
 49
0.000220
 49
-0.000110
 49
0.000220
 49
-0.000110
 49
0.000000
 49
-0.000110
  0
LTYPE
  2
DIVIDE
 70
    64
  3
__ . . __ . . __ . . __ . . __ . . __ . . __
 72
    65
 73
     6
 40
0.000550
 49
0.000220
 49
-0.000110
 49
0.000000
 49
-0.000110
 49
0.000000
 49
-0.000110
  0
LTYPE
  2
DOTDOT
 70
    64
  3
 . .  . .  . .  . .  . .  . . 
 72
    65
 73
     5
 40
0.000242
 49
-0.000110
 49
0.000000
 49
-0.000110
 49
0.000000
 49
-0.000110
  0
ENDTAB
  0
TABLE
  2
STYLE
 70
     4
  0
STYLE
 70
     0
  2
SN0
 40
0.000000
 41
0.000440
 50
0.000000
 71
     0
 42
0.000000
  3
ROMAND
  0
STYLE
 70
    68
  2
SV0
 40
0.000000
 41
0.000440
 50
0.000000
 71
     0
 42
0.000000
  3
ROMAND
  0
STYLE
 70
     0
  2
SN1
 40
0.000000
 41
0.000440
 50
0.000000
 71
     0
 42
0.000000
  3
ROMAND
  0
STYLE
 70
    68
  2
SV1
 40
0.000000
 41
0.000440
 50
0.000000
 71
     0
 42
0.000000
  3
ROMAND
  0
ENDTAB
  0
TABLE
  2
LAYER
 70
     3
  0
LAYER
  2
FOREGROUND
 70
    64
 62
     7
  6
CONTINUOUS
  0
LAYER
  2
BACKGROUND
 70
    65
 62
    -7
  6
CONTINUOUS
  0
LAYER
  2
0
 70
    64
 62
     7
  6
CONTINUOUS
  0
ENDTAB
  0
ENDSEC
  0
SECTION
  2
ENTITIES
  0
POLYLINE
  8
FOREGROUND
  6
CONTINUOUS
 66
     1
 40
0.000000
 41
0.000000
  0
VERTEX
  8
FOREGROUND
  6
CONTINUOUS
 10
0.000000
 20
5.167360
  0
VERTEX
  8
FOREGROUND
  6
CONTINUOUS
 10
8.499920
 20
5.167360
  0
VERTEX
  8
FOREGROUND
  6
CONTINUOUS
 10
8.499920
 20
-5.832640
  0
VERTEX
  8
FOREGROUND
  6
CONTINUOUS
 10
0.000000
 20
-5.832640
  0
VERTEX
  8
FOREGROUND
  6
CONTINUOUS
 10
0.000000
 20
5.167360
  0
SEQEND
  8
0
  0
POLYLINE
  8
FOREGROUND
  6
CONTINUOUS
 66
     1
 40
0.000000
 41
0.000000
  0
VERTEX
  8
FOREGROUND
  6
CONTINUOUS
 10
0.000000
 20
5.167360
  0
VERTEX
  8
FOREGROUND
  6
CONTINUOUS
 10
8.499920
 20
5.167360
  0
VERTEX
  8
FOREGROUND
  6
CONTINUOUS
 10
8.499920
 20
-5.832640
  0
VERTEX
  8
FOREGROUND
  6
CONTINUOUS
 10
0.000000
 20
-5.832640
  0
VERTEX
  8
FOREGROUND
  6
CONTINUOUS
 10
0.000000
 20
5.167360
  0
SEQEND
  8
0
  0
POLYLINE
  8
0
  6
CONTINUOUS
 66
     1
 40
0.014080
 41
0.014080
  0
VERTEX
  8
0
  6
CONTINUOUS
 10
5.416840
 20
4.719440
  0
VERTEX
  8
0
  6
CONTINUOUS
 10
5.416840
 20
4.469520
  0
VERTEX
  8
0
  6
CONTINUOUS
 10
5.166480
 20
4.469520
  0
VERTEX
  8
0
  6
CONTINUOUS
 10
5.166480
 20
4.219600
  0
VERTEX
  8
0
  6
CONTINUOUS
 10
4.916560
 20
4.219600
  0
VERTEX
  8
0
  6
CONTINUOUS
 10
4.916560
 20
3.969240
  0
VERTEX
  8
0
  6
CONTINUOUS
 10
4.666640
 20
3.969240
  0
VERTEX
  8
0
  6
CONTINUOUS
 10
4.666640
 20
3.719320
  0
VERTEX
  8
0
  6
CONTINUOUS
 10
4.416720
 20
3.719320
  0
VERTEX
  8
0
  6
CONTINUOUS
 10
4.416720
 20
3.469400
  0
VERTEX
  8
0
  6
CONTINUOUS
 10
4.166800
 20
3.469400
  0
VERTEX
  8
0
  6
CONTINUOUS
 10
4.166800
 20
3.219480
  0
VERTEX
  8
0
  6
CONTINUOUS
 10
3.249840
 20
3.219480
  0
VERTEX
  8
0
  6
CONTINUOUS
 10
3.249840
 20
4.719440
  0
VERTEX
  8
0
  6
CONTINUOUS
 10
3.249840
 20
4.730000
  0
VERTEX
  8
0
  6
CONTINUOUS
 10
5.416840
 20
4.730000
  0
VERTEX
  8
0
  6
CONTINUOUS
 10
5.416840
 20
4.719440
  0
SEQEND
  8
0
  0
SOLID
  8
0
 62
     7
 10
3.985960
 20
1.150160
 11
4.638920
 21
1.530760
 12
3.985960
 22
0.899800
 13
4.638920
 23
1.280840
  0
POLYLINE
  8
0
  6
CONTINUOUS
 66
     1
 40
0.000000
 41
0.000000
  0
VERTEX
  8
0
  6
CONTINUOUS
 10
3.985960
 20
1.150160
  0
VERTEX
  8
0
  6
CONTINUOUS
 10
4.638920
 20
1.530760
  0
VERTEX
  8
0
  6
CONTINUOUS
 10
4.638920
 20
1.280840
  0
VERTEX
  8
0
  6
CONTINUOUS
 10
3.985960
 20
0.899800
  0
VERTEX
  8
0
  6
CONTINUOUS
 10
3.985960
 20
1.150160
  0
SEQEND
  8
0
  0
SOLID
  8
0
 62
     7
 10
4.236320
 20
1.400080
 11
4.888840
 21
1.781120
 12
4.236320
 22
1.150160
 13
4.888840
 23
1.530760
  0
POLYLINE
  8
0
  6
CONTINUOUS
 66
     1
 40
0.000000
 41
0.000000
  0
VERTEX
  8
0
  6
CONTINUOUS
 10
4.236320
 20
1.400080
  0
VERTEX
  8
0
  6
CONTINUOUS
 10
4.888840
 20
1.781120
  0
VERTEX
  8
0
  6
CONTINUOUS
 10
4.888840
 20
1.530760
  0
VERTEX
  8
0
  6
CONTINUOUS
 10
4.236320
 20
1.150160
  0
VERTEX
  8
0
  6
CONTINUOUS
 10
4.236320
 20
1.400080
  0
SEQEND
  8
0
  0
SOLID
  8
0
 62
     7
 10
4.486240
 20
1.650000
 11
5.138760
 21
2.031040
 12
4.486240
 22
1.400080
 13
5.138760
 23
1.781120
  0
POLYLINE
  8
0
  6
CONTINUOUS
 66
     1
 40
0.000000
 41
0.000000
  0
VERTEX
  8
0
  6
CONTINUOUS
 10
4.486240
 20
1.650000
  0
VERTEX
  8
0
  6
CONTINUOUS
 10
5.138760
 20
2.031040
  0
VERTEX
  8
0
  6
CONTINUOUS
 10
5.138760
 20
1.781120
  0
VERTEX
  8
0
  6
CONTINUOUS
 10
4.486240
 20
1.400080
  0
VERTEX
  8
0
  6
CONTINUOUS
 10
4.486240
 20
1.650000
  0
SEQEND
  8
0
  0
SOLID
  8
0
 62
    15
 10
4.736160
 20
1.899920
 11
5.388680
 21
2.280960
 12
4.736160
 22
1.650000
 13
5.388680
 23
2.031040
  0
POLYLINE
  8
0
  6
CONTINUOUS
 66
     1
 40
0.000000
 41
0.000000
  0
VERTEX
  8
0
  6
CONTINUOUS
 10
4.736160
 20
1.899920
  0
VERTEX
  8
0
  6
CONTINUOUS
 10
5.388680
 20
2.280960
  0
VERTEX
  8
0
  6
CONTINUOUS
 10
5.388680
 20
2.031040
  0
VERTEX
  8
0
  6
CONTINUOUS
 10
4.736160
 20
1.650000
  0
VERTEX
  8
0
  6
CONTINUOUS
 10
4.736160
 20
1.899920
  0
SEQEND
  8
0
  0
SOLID
  8
0
 62
    15
 10
4.986080
 20
2.149840
 11
5.639040
 21
2.530880
 12
4.986080
 22
1.899920
 13
5.639040
 23
2.280960
  0
POLYLINE
  8
0
  6
CONTINUOUS
 66
     1
 40
0.000000
 41
0.000000
  0
VERTEX
  8
0
  6
CONTINUOUS
 10
4.986080
 20
2.149840
  0
VERTEX
  8
0
  6
CONTINUOUS
 10
5.639040
 20
2.530880
  0
VERTEX
  8
0
  6
CONTINUOUS
 10
5.639040
 20
2.280960
  0
VERTEX
  8
0
  6
CONTINUOUS
 10
4.986080
 20
1.899920
  0
VERTEX
  8
0
  6
CONTINUOUS
 10
4.986080
 20
2.149840
  0
SEQEND
  8
0
  0
SOLID
  8
0
 62
    15
 10
3.069440
 20
2.410320
 11
3.722400
 21
2.791360
 12
5.236000
 22
2.410320
 13
5.888960
 23
2.791360
  0
POLYLINE
  8
0
  6
CONTINUOUS
 66
     1
 40
0.000000
 41
0.000000
  0
VERTEX
  8
0
  6
CONTINUOUS
 10
3.069440
 20
2.410320
  0
VERTEX
  8
0
  6
CONTINUOUS
 10
3.722400
 20
2.791360
  0
VERTEX
  8
0
  6
CONTINUOUS
 10
5.888960
 20
2.791360
  0
VERTEX
  8
0
  6
CONTINUOUS
 10
5.236000
 20
2.410320
  0
VERTEX
  8
0
  6
CONTINUOUS
 10
3.069440
 20
2.410320
  0
SEQEND
  8
0
  0
SOLID
  8
0
 62
    15
 10
5.236000
 20
2.410320
 11
5.888960
 21
2.791360
 12
5.236000
 22
2.399760
 13
5.888960
 23
2.780800
  0
POLYLINE
  8
0
  6
CONTINUOUS
 66
     1
 40
0.000000
 41
0.000000
  0
VERTEX
  8
0
  6
CONTINUOUS
 10
5.236000
 20
2.410320
  0
VERTEX
  8
0
  6
CONTINUOUS
 10
5.888960
 20
2.791360
  0
VERTEX
  8
0
  6
CONTINUOUS
 10
5.888960
 20
2.780800
  0
VERTEX
  8
0
  6
CONTINUOUS
 10
5.236000
 20
2.399760
  0
VERTEX
  8
0
  6
CONTINUOUS
 10
5.236000
 20
2.410320
  0
SEQEND
  8
0
  0
SOLID
  8
0
 62
    15
 10
5.236000
 20
2.399760
 11
5.888960
 21
2.780800
 12
5.236000
 22
2.149840
 13
5.888960
 23
2.530880
  0
POLYLINE
  8
0
  6
CONTINUOUS
 66
     1
 40
0.000000
 41
0.000000
  0
VERTEX
  8
0
  6
CONTINUOUS
 10
5.236000
 20
2.399760
  0
VERTEX
  8
0
  6
CONTINUOUS
 10
5.888960
 20
2.780800
  0
VERTEX
  8
0
  6
CONTINUOUS
 10
5.888960
 20
2.530880
  0
VERTEX
  8
0
  6
CONTINUOUS
 10
5.236000
 20
2.149840
  0
VERTEX
  8
0
  6
CONTINUOUS
 10
5.236000
 20
2.399760
  0
SEQEND
  8
0
  0
POLYLINE
  8
0
  6
CONTINUOUS
 66
     1
 40
0.000000
 41
0.000000
  0
VERTEX
  8
0
  6
CONTINUOUS
 10
5.236000
 20
2.399760
  0
VERTEX
  8
0
  6
CONTINUOUS
 10
5.236000
 20
2.149840
  0
VERTEX
  8
0
  6
CONTINUOUS
 10
4.986080
 20
2.149840
  0
VERTEX
  8
0
  6
CONTINUOUS
 10
4.986080
 20
1.899920
  0
VERTEX
  8
0
  6
CONTINUOUS
 10
4.736160
 20
1.899920
  0
VERTEX
  8
0
  6
CONTINUOUS
 10
4.736160
 20
1.650000
  0
VERTEX
  8
0
  6
CONTINUOUS
 10
4.486240
 20
1.650000
  0
VERTEX
  8
0
  6
CONTINUOUS
 10
4.486240
 20
1.400080
  0
VERTEX
  8
0
  6
CONTINUOUS
 10
4.236320
 20
1.400080
  0
VERTEX
  8
0
  6
CONTINUOUS
 10
4.236320
 20
1.150160
  0
VERTEX
  8
0
  6
CONTINUOUS
 10
3.985960
 20
1.150160
  0
VERTEX
  8
0
  6
CONTINUOUS
 10
3.985960
 20
0.899800
  0
VERTEX
  8
0
  6
CONTINUOUS
 10
3.069440
 20
0.899800
  0
VERTEX
  8
0
  6
CONTINUOUS
 10
3.069440
 20
2.410320
  0
VERTEX
  8
0
  6
CONTINUOUS
 10
5.236000
 20
2.410320
  0
VERTEX
  8
0
  6
CONTINUOUS
 10
5.236000
 20
2.399760
  0
SEQEND
  8
0
  0
TEXT
  8
0
 10
4.339720
 20
0.660000
 40
0.138207
  1
444
 41
1.000000
  7
SN0
 71
     0
 72
     5
 11
4.616699
 21
0.660000
  0
TEXT
  8
0
 10
3.906760
 20
0.468160
 40
0.138207
  1
1-1/2" x 2-3/16"
 41
1.000000
  7
SN0
 71
     0
 72
     5
 11
5.045905
 21
0.468160
  0
TEXT
  8
0
 10
6.937480
 20
4.278120
 40
0.114515
  1
trim
 41
1.000000
  7
SN1
 71
     0
 72
     5
 11
7.165998
 21
4.278120
  0
TEXT
  8
0
 10
6.937480
 20
4.118400
 40
0.114515
  1
444
 41
1.000000
  7
SN1
 71
     0
 72
     5
 11
7.166644
 21
4.118400
  0
ENDSEC
  0
EOF
