  0
SECTION
  2
HEADER
  9
$ACADVER
  1
AC1006
  9
$EXTMIN
 10
1.888040
 20
0.634040
  9
$EXTMAX
 10
7.792400
 20
4.799960
  9
$LTSCALE
 40
0.044000
  9
$PDMODE
 70
    35
  9
$PDSIZE
 40
0.035200
  0
ENDSEC
  0
SECTION
  2
TABLES
  0
TABLE
  2
LTYPE
 70
     9
  0
LTYPE
  2
CONTINUOUS
 70
    64
  3
Solid line
 72
    65
 73
     0
 40
0.000000
  0
LTYPE
  2
DASHED
 70
    64
  3
__ __ __ __ __ __ __ __ __ __ __ __ __ __ __
 72
    65
 73
     2
 40
0.000330
 49
0.000220
 49
-0.000110
  0
LTYPE
  2
HIDDEN
 70
    64
  3
 _ _ _ _ _ _ _ _ _ _ _ _ _ _ _ _ _ _ _ _ _ _
 72
    65
 73
     2
 40
0.000165
 49
0.000110
 49
-0.000055
  0
LTYPE
  2
CENTER
 70
    64
  3
____ _ ____ _ ____ _ ____ _ ____ _ ____ _ ____
 72
    65
 73
     4
 40
0.000880
 49
0.000550
 49
-0.000110
 49
0.000110
 49
-0.000110
  0
LTYPE
  2
PHANTOM
 70
    64
  3
_____ _ _ _____ _ _ _____ _ _ _____ _ _ ____
 72
    65
 73
     6
 40
0.001100
 49
0.000550
 49
-0.000110
 49
0.000110
 49
-0.000110
 49
0.000110
 49
-0.000110
  0
LTYPE
  2
DOT
 70
    64
  3
...............................................
 72
    65
 73
     2
 40
0.000110
 49
0.000000
 49
-0.000110
  0
LTYPE
  2
DASHDOT
 70
    64
  3
__ . __ . __ . __ . __ . __ . __ . __ . __ . __
 72
    65
 73
     4
 40
0.000440
 49
0.000220
 49
-0.000110
 49
0.000000
 49
-0.000110
  0
LTYPE
  2
BORDER
 70
    64
  3
__ __ . __ __ . __ __ . __ __ . __ __ . __ __
 72
    65
 73
     6
 40
0.000770
 49
0.000220
 49
-0.000110
 49
0.000220
 49
-0.000110
 49
0.000000
 49
-0.000110
  0
LTYPE
  2
DIVIDE
 70
    64
  3
__ . . __ . . __ . . __ . . __ . . __ . . __
 72
    65
 73
     6
 40
0.000550
 49
0.000220
 49
-0.000110
 49
0.000000
 49
-0.000110
 49
0.000000
 49
-0.000110
  0
LTYPE
  2
DOTDOT
 70
    64
  3
 . .  . .  . .  . .  . .  . . 
 72
    65
 73
     5
 40
0.000242
 49
-0.000110
 49
0.000000
 49
-0.000110
 49
0.000000
 49
-0.000110
  0
ENDTAB
  0
TABLE
  2
STYLE
 70
     2
  0
STYLE
 70
     0
  2
SN0
 40
0.000000
 41
0.000440
 50
0.000000
 71
     0
 42
0.000000
  3
ROMAND
  0
STYLE
 70
    68
  2
SV0
 40
0.000000
 41
0.000440
 50
0.000000
 71
     0
 42
0.000000
  3
ROMAND
  0
ENDTAB
  0
TABLE
  2
LAYER
 70
     3
  0
LAYER
  2
FOREGROUND
 70
    64
 62
     7
  6
CONTINUOUS
  0
LAYER
  2
BACKGROUND
 70
    65
 62
    -7
  6
CONTINUOUS
  0
LAYER
  2
0
 70
    64
 62
     7
  6
CONTINUOUS
  0
ENDTAB
  0
ENDSEC
  0
SECTION
  2
ENTITIES
  0
POLYLINE
  8
FOREGROUND
  6
CONTINUOUS
 66
     1
 40
0.000000
 41
0.000000
  0
VERTEX
  8
FOREGROUND
  6
CONTINUOUS
 10
0.000000
 20
5.434000
  0
VERTEX
  8
FOREGROUND
  6
CONTINUOUS
 10
8.499920
 20
5.434000
  0
VERTEX
  8
FOREGROUND
  6
CONTINUOUS
 10
8.499920
 20
-5.566000
  0
VERTEX
  8
FOREGROUND
  6
CONTINUOUS
 10
0.000000
 20
-5.566000
  0
VERTEX
  8
FOREGROUND
  6
CONTINUOUS
 10
0.000000
 20
5.434000
  0
SEQEND
  8
0
  0
POLYLINE
  8
FOREGROUND
  6
CONTINUOUS
 66
     1
 40
0.000000
 41
0.000000
  0
VERTEX
  8
FOREGROUND
  6
CONTINUOUS
 10
0.000000
 20
5.434000
  0
VERTEX
  8
FOREGROUND
  6
CONTINUOUS
 10
8.499920
 20
5.434000
  0
VERTEX
  8
FOREGROUND
  6
CONTINUOUS
 10
8.499920
 20
-5.566000
  0
VERTEX
  8
FOREGROUND
  6
CONTINUOUS
 10
0.000000
 20
-5.566000
  0
VERTEX
  8
FOREGROUND
  6
CONTINUOUS
 10
0.000000
 20
5.434000
  0
SEQEND
  8
0
  0
SOLID
  8
0
 62
    15
 10
2.191640
 20
1.184040
 11
2.921160
 21
1.188440
 12
2.189000
 22
1.153680
 13
2.918520
 23
1.158080
  0
POLYLINE
  8
0
  6
CONTINUOUS
 66
     1
 40
0.000000
 41
0.000000
  0
VERTEX
  8
0
  6
CONTINUOUS
 10
2.191640
 20
1.184040
  0
VERTEX
  8
0
  6
CONTINUOUS
 10
2.921160
 20
1.188440
  0
VERTEX
  8
0
  6
CONTINUOUS
 10
2.918520
 20
1.158080
  0
VERTEX
  8
0
  6
CONTINUOUS
 10
2.189000
 20
1.153680
  0
VERTEX
  8
0
  6
CONTINUOUS
 10
2.191640
 20
1.184040
  0
SEQEND
  8
0
  0
SOLID
  8
0
 62
    15
 10
2.625920
 20
2.926880
 11
3.355880
 21
2.931280
 12
2.618880
 22
2.860880
 13
3.348840
 23
2.865280
  0
POLYLINE
  8
0
  6
CONTINUOUS
 66
     1
 40
0.000000
 41
0.000000
  0
VERTEX
  8
0
  6
CONTINUOUS
 10
2.625920
 20
2.926880
  0
VERTEX
  8
0
  6
CONTINUOUS
 10
3.355880
 20
2.931280
  0
VERTEX
  8
0
  6
CONTINUOUS
 10
3.348840
 20
2.865280
  0
VERTEX
  8
0
  6
CONTINUOUS
 10
2.618880
 20
2.860880
  0
VERTEX
  8
0
  6
CONTINUOUS
 10
2.625920
 20
2.926880
  0
SEQEND
  8
0
  0
SOLID
  8
0
 62
    15
 10
2.618880
 20
2.860880
 11
3.348840
 21
2.865280
 12
2.608760
 22
2.797960
 13
3.338280
 23
2.802360
  0
POLYLINE
  8
0
  6
CONTINUOUS
 66
     1
 40
0.000000
 41
0.000000
  0
VERTEX
  8
0
  6
CONTINUOUS
 10
2.618880
 20
2.860880
  0
VERTEX
  8
0
  6
CONTINUOUS
 10
3.348840
 20
2.865280
  0
VERTEX
  8
0
  6
CONTINUOUS
 10
3.338280
 20
2.802360
  0
VERTEX
  8
0
  6
CONTINUOUS
 10
2.608760
 20
2.797960
  0
VERTEX
  8
0
  6
CONTINUOUS
 10
2.618880
 20
2.860880
  0
SEQEND
  8
0
  0
SOLID
  8
0
 62
    15
 10
2.608760
 20
2.797960
 11
3.338280
 21
2.802360
 12
2.596000
 22
2.738120
 13
3.325520
 23
2.742520
  0
POLYLINE
  8
0
  6
CONTINUOUS
 66
     1
 40
0.000000
 41
0.000000
  0
VERTEX
  8
0
  6
CONTINUOUS
 10
2.608760
 20
2.797960
  0
VERTEX
  8
0
  6
CONTINUOUS
 10
3.338280
 20
2.802360
  0
VERTEX
  8
0
  6
CONTINUOUS
 10
3.325520
 20
2.742520
  0
VERTEX
  8
0
  6
CONTINUOUS
 10
2.596000
 20
2.738120
  0
VERTEX
  8
0
  6
CONTINUOUS
 10
2.608760
 20
2.797960
  0
SEQEND
  8
0
  0
SOLID
  8
0
 62
    15
 10
2.596000
 20
2.738120
 11
3.325520
 21
2.742520
 12
2.567400
 22
2.626360
 13
3.296920
 23
2.630760
  0
POLYLINE
  8
0
  6
CONTINUOUS
 66
     1
 40
0.000000
 41
0.000000
  0
VERTEX
  8
0
  6
CONTINUOUS
 10
2.596000
 20
2.738120
  0
VERTEX
  8
0
  6
CONTINUOUS
 10
3.325520
 20
2.742520
  0
VERTEX
  8
0
  6
CONTINUOUS
 10
3.296920
 20
2.630760
  0
VERTEX
  8
0
  6
CONTINUOUS
 10
2.567400
 20
2.626360
  0
VERTEX
  8
0
  6
CONTINUOUS
 10
2.596000
 20
2.738120
  0
SEQEND
  8
0
  0
SOLID
  8
0
 62
    15
 10
2.567400
 20
2.626360
 11
3.296920
 21
2.630760
 12
2.560360
 22
2.600400
 13
3.289880
 23
2.604800
  0
POLYLINE
  8
0
  6
CONTINUOUS
 66
     1
 40
0.000000
 41
0.000000
  0
VERTEX
  8
0
  6
CONTINUOUS
 10
2.567400
 20
2.626360
  0
VERTEX
  8
0
  6
CONTINUOUS
 10
3.296920
 20
2.630760
  0
VERTEX
  8
0
  6
CONTINUOUS
 10
3.289880
 20
2.604800
  0
VERTEX
  8
0
  6
CONTINUOUS
 10
2.560360
 20
2.600400
  0
VERTEX
  8
0
  6
CONTINUOUS
 10
2.567400
 20
2.626360
  0
SEQEND
  8
0
  0
SOLID
  8
0
 62
    15
 10
2.560360
 20
2.600400
 11
3.289880
 21
2.604800
 12
2.553760
 22
2.574880
 13
3.283280
 23
2.579280
  0
POLYLINE
  8
0
  6
CONTINUOUS
 66
     1
 40
0.000000
 41
0.000000
  0
VERTEX
  8
0
  6
CONTINUOUS
 10
2.560360
 20
2.600400
  0
VERTEX
  8
0
  6
CONTINUOUS
 10
3.289880
 20
2.604800
  0
VERTEX
  8
0
  6
CONTINUOUS
 10
3.283280
 20
2.579280
  0
VERTEX
  8
0
  6
CONTINUOUS
 10
2.553760
 20
2.574880
  0
VERTEX
  8
0
  6
CONTINUOUS
 10
2.560360
 20
2.600400
  0
SEQEND
  8
0
  0
SOLID
  8
0
 62
    15
 10
2.553760
 20
2.574880
 11
3.283280
 21
2.579280
 12
2.541880
 22
2.526040
 13
3.271400
 23
2.530440
  0
POLYLINE
  8
0
  6
CONTINUOUS
 66
     1
 40
0.000000
 41
0.000000
  0
VERTEX
  8
0
  6
CONTINUOUS
 10
2.553760
 20
2.574880
  0
VERTEX
  8
0
  6
CONTINUOUS
 10
3.283280
 20
2.579280
  0
VERTEX
  8
0
  6
CONTINUOUS
 10
3.271400
 20
2.530440
  0
VERTEX
  8
0
  6
CONTINUOUS
 10
2.541880
 20
2.526040
  0
VERTEX
  8
0
  6
CONTINUOUS
 10
2.553760
 20
2.574880
  0
SEQEND
  8
0
  0
SOLID
  8
0
 62
    15
 10
2.541880
 20
2.526040
 11
3.271400
 21
2.530440
 12
2.532640
 22
2.479840
 13
3.262160
 23
2.484240
  0
POLYLINE
  8
0
  6
CONTINUOUS
 66
     1
 40
0.000000
 41
0.000000
  0
VERTEX
  8
0
  6
CONTINUOUS
 10
2.541880
 20
2.526040
  0
VERTEX
  8
0
  6
CONTINUOUS
 10
3.271400
 20
2.530440
  0
VERTEX
  8
0
  6
CONTINUOUS
 10
3.262160
 20
2.484240
  0
VERTEX
  8
0
  6
CONTINUOUS
 10
2.532640
 20
2.479840
  0
VERTEX
  8
0
  6
CONTINUOUS
 10
2.541880
 20
2.526040
  0
SEQEND
  8
0
  0
SOLID
  8
0
 62
    15
 10
2.532640
 20
2.479840
 11
3.262160
 21
2.484240
 12
2.527360
 22
2.435840
 13
3.256880
 23
2.440240
  0
POLYLINE
  8
0
  6
CONTINUOUS
 66
     1
 40
0.000000
 41
0.000000
  0
VERTEX
  8
0
  6
CONTINUOUS
 10
2.532640
 20
2.479840
  0
VERTEX
  8
0
  6
CONTINUOUS
 10
3.262160
 20
2.484240
  0
VERTEX
  8
0
  6
CONTINUOUS
 10
3.256880
 20
2.440240
  0
VERTEX
  8
0
  6
CONTINUOUS
 10
2.527360
 20
2.435840
  0
VERTEX
  8
0
  6
CONTINUOUS
 10
2.532640
 20
2.479840
  0
SEQEND
  8
0
  0
SOLID
  8
0
 62
    15
 10
2.527360
 20
2.435840
 11
3.256880
 21
2.440240
 12
2.526920
 22
2.394480
 13
3.256440
 23
2.398880
  0
POLYLINE
  8
0
  6
CONTINUOUS
 66
     1
 40
0.000000
 41
0.000000
  0
VERTEX
  8
0
  6
CONTINUOUS
 10
2.527360
 20
2.435840
  0
VERTEX
  8
0
  6
CONTINUOUS
 10
3.256880
 20
2.440240
  0
VERTEX
  8
0
  6
CONTINUOUS
 10
3.256440
 20
2.398880
  0
VERTEX
  8
0
  6
CONTINUOUS
 10
2.526920
 20
2.394480
  0
VERTEX
  8
0
  6
CONTINUOUS
 10
2.527360
 20
2.435840
  0
SEQEND
  8
0
  0
SOLID
  8
0
 62
    15
 10
2.526920
 20
2.394480
 11
3.256440
 21
2.398880
 12
2.532200
 22
2.355760
 13
3.261720
 23
2.360160
  0
POLYLINE
  8
0
  6
CONTINUOUS
 66
     1
 40
0.000000
 41
0.000000
  0
VERTEX
  8
0
  6
CONTINUOUS
 10
2.526920
 20
2.394480
  0
VERTEX
  8
0
  6
CONTINUOUS
 10
3.256440
 20
2.398880
  0
VERTEX
  8
0
  6
CONTINUOUS
 10
3.261720
 20
2.360160
  0
VERTEX
  8
0
  6
CONTINUOUS
 10
2.532200
 20
2.355760
  0
VERTEX
  8
0
  6
CONTINUOUS
 10
2.526920
 20
2.394480
  0
SEQEND
  8
0
  0
SOLID
  8
0
 62
    15
 10
2.532200
 20
2.355760
 11
3.261720
 21
2.360160
 12
2.544520
 22
2.319240
 13
3.274040
 23
2.323640
  0
POLYLINE
  8
0
  6
CONTINUOUS
 66
     1
 40
0.000000
 41
0.000000
  0
VERTEX
  8
0
  6
CONTINUOUS
 10
2.532200
 20
2.355760
  0
VERTEX
  8
0
  6
CONTINUOUS
 10
3.261720
 20
2.360160
  0
VERTEX
  8
0
  6
CONTINUOUS
 10
3.274040
 20
2.323640
  0
VERTEX
  8
0
  6
CONTINUOUS
 10
2.544520
 20
2.319240
  0
VERTEX
  8
0
  6
CONTINUOUS
 10
2.532200
 20
2.355760
  0
SEQEND
  8
0
  0
SOLID
  8
0
 62
    15
 10
2.544520
 20
2.319240
 11
3.274040
 21
2.323640
 12
2.564760
 22
2.284920
 13
3.294280
 23
2.289320
  0
POLYLINE
  8
0
  6
CONTINUOUS
 66
     1
 40
0.000000
 41
0.000000
  0
VERTEX
  8
0
  6
CONTINUOUS
 10
2.544520
 20
2.319240
  0
VERTEX
  8
0
  6
CONTINUOUS
 10
3.274040
 20
2.323640
  0
VERTEX
  8
0
  6
CONTINUOUS
 10
3.294280
 20
2.289320
  0
VERTEX
  8
0
  6
CONTINUOUS
 10
2.564760
 20
2.284920
  0
VERTEX
  8
0
  6
CONTINUOUS
 10
2.544520
 20
2.319240
  0
SEQEND
  8
0
  0
SOLID
  8
0
 62
    15
 10
2.564760
 20
2.284920
 11
3.294280
 21
2.289320
 12
2.593800
 22
2.253240
 13
3.323760
 23
2.257640
  0
POLYLINE
  8
0
  6
CONTINUOUS
 66
     1
 40
0.000000
 41
0.000000
  0
VERTEX
  8
0
  6
CONTINUOUS
 10
2.564760
 20
2.284920
  0
VERTEX
  8
0
  6
CONTINUOUS
 10
3.294280
 20
2.289320
  0
VERTEX
  8
0
  6
CONTINUOUS
 10
3.323760
 20
2.257640
  0
VERTEX
  8
0
  6
CONTINUOUS
 10
2.593800
 20
2.253240
  0
VERTEX
  8
0
  6
CONTINUOUS
 10
2.564760
 20
2.284920
  0
SEQEND
  8
0
  0
SOLID
  8
0
 62
    15
 10
2.593800
 20
2.253240
 11
3.323760
 21
2.257640
 12
2.633400
 22
2.223320
 13
3.362920
 23
2.227720
  0
POLYLINE
  8
0
  6
CONTINUOUS
 66
     1
 40
0.000000
 41
0.000000
  0
VERTEX
  8
0
  6
CONTINUOUS
 10
2.593800
 20
2.253240
  0
VERTEX
  8
0
  6
CONTINUOUS
 10
3.323760
 20
2.257640
  0
VERTEX
  8
0
  6
CONTINUOUS
 10
3.362920
 20
2.227720
  0
VERTEX
  8
0
  6
CONTINUOUS
 10
2.633400
 20
2.223320
  0
VERTEX
  8
0
  6
CONTINUOUS
 10
2.593800
 20
2.253240
  0
SEQEND
  8
0
  0
SOLID
  8
0
 62
    15
 10
2.633400
 20
2.223320
 11
3.362920
 21
2.227720
 12
2.633400
 22
1.969440
 13
3.362920
 23
1.973840
  0
POLYLINE
  8
0
  6
CONTINUOUS
 66
     1
 40
0.000000
 41
0.000000
  0
VERTEX
  8
0
  6
CONTINUOUS
 10
2.633400
 20
2.223320
  0
VERTEX
  8
0
  6
CONTINUOUS
 10
3.362920
 20
2.227720
  0
VERTEX
  8
0
  6
CONTINUOUS
 10
3.362920
 20
1.973840
  0
VERTEX
  8
0
  6
CONTINUOUS
 10
2.633400
 20
1.969440
  0
VERTEX
  8
0
  6
CONTINUOUS
 10
2.633400
 20
2.223320
  0
SEQEND
  8
0
  0
SOLID
  8
0
 62
    15
 10
2.633400
 20
1.969440
 11
3.362920
 21
1.973840
 12
2.514160
 22
1.902120
 13
3.244120
 23
1.906520
  0
POLYLINE
  8
0
  6
CONTINUOUS
 66
     1
 40
0.000000
 41
0.000000
  0
VERTEX
  8
0
  6
CONTINUOUS
 10
2.633400
 20
1.969440
  0
VERTEX
  8
0
  6
CONTINUOUS
 10
3.362920
 20
1.973840
  0
VERTEX
  8
0
  6
CONTINUOUS
 10
3.244120
 20
1.906520
  0
VERTEX
  8
0
  6
CONTINUOUS
 10
2.514160
 20
1.902120
  0
VERTEX
  8
0
  6
CONTINUOUS
 10
2.633400
 20
1.969440
  0
SEQEND
  8
0
  0
SOLID
  8
0
 62
    15
 10
2.514160
 20
1.902120
 11
3.244120
 21
1.906520
 12
2.514160
 22
1.882760
 13
3.244120
 23
1.887160
  0
POLYLINE
  8
0
  6
CONTINUOUS
 66
     1
 40
0.000000
 41
0.000000
  0
VERTEX
  8
0
  6
CONTINUOUS
 10
2.514160
 20
1.902120
  0
VERTEX
  8
0
  6
CONTINUOUS
 10
3.244120
 20
1.906520
  0
VERTEX
  8
0
  6
CONTINUOUS
 10
3.244120
 20
1.887160
  0
VERTEX
  8
0
  6
CONTINUOUS
 10
2.514160
 20
1.882760
  0
VERTEX
  8
0
  6
CONTINUOUS
 10
2.514160
 20
1.902120
  0
SEQEND
  8
0
  0
SOLID
  8
0
 62
    15
 10
2.514160
 20
1.882760
 11
3.244120
 21
1.887160
 12
2.555520
 22
1.851960
 13
3.285040
 23
1.856360
  0
POLYLINE
  8
0
  6
CONTINUOUS
 66
     1
 40
0.000000
 41
0.000000
  0
VERTEX
  8
0
  6
CONTINUOUS
 10
2.514160
 20
1.882760
  0
VERTEX
  8
0
  6
CONTINUOUS
 10
3.244120
 20
1.887160
  0
VERTEX
  8
0
  6
CONTINUOUS
 10
3.285040
 20
1.856360
  0
VERTEX
  8
0
  6
CONTINUOUS
 10
2.555520
 20
1.851960
  0
VERTEX
  8
0
  6
CONTINUOUS
 10
2.514160
 20
1.882760
  0
SEQEND
  8
0
  0
SOLID
  8
0
 62
    15
 10
2.555520
 20
1.851960
 11
3.285040
 21
1.856360
 12
2.585880
 22
1.821160
 13
3.315400
 23
1.825560
  0
POLYLINE
  8
0
  6
CONTINUOUS
 66
     1
 40
0.000000
 41
0.000000
  0
VERTEX
  8
0
  6
CONTINUOUS
 10
2.555520
 20
1.851960
  0
VERTEX
  8
0
  6
CONTINUOUS
 10
3.285040
 20
1.856360
  0
VERTEX
  8
0
  6
CONTINUOUS
 10
3.315400
 20
1.825560
  0
VERTEX
  8
0
  6
CONTINUOUS
 10
2.585880
 20
1.821160
  0
VERTEX
  8
0
  6
CONTINUOUS
 10
2.555520
 20
1.851960
  0
SEQEND
  8
0
  0
SOLID
  8
0
 62
    15
 10
2.585880
 20
1.821160
 11
3.315400
 21
1.825560
 12
2.605680
 22
1.790800
 13
3.335640
 23
1.795200
  0
POLYLINE
  8
0
  6
CONTINUOUS
 66
     1
 40
0.000000
 41
0.000000
  0
VERTEX
  8
0
  6
CONTINUOUS
 10
2.585880
 20
1.821160
  0
VERTEX
  8
0
  6
CONTINUOUS
 10
3.315400
 20
1.825560
  0
VERTEX
  8
0
  6
CONTINUOUS
 10
3.335640
 20
1.795200
  0
VERTEX
  8
0
  6
CONTINUOUS
 10
2.605680
 20
1.790800
  0
VERTEX
  8
0
  6
CONTINUOUS
 10
2.585880
 20
1.821160
  0
SEQEND
  8
0
  0
SOLID
  8
0
 62
    15
 10
2.605680
 20
1.790800
 11
3.335640
 21
1.795200
 12
2.616680
 22
1.761320
 13
3.346640
 23
1.765720
  0
POLYLINE
  8
0
  6
CONTINUOUS
 66
     1
 40
0.000000
 41
0.000000
  0
VERTEX
  8
0
  6
CONTINUOUS
 10
2.605680
 20
1.790800
  0
VERTEX
  8
0
  6
CONTINUOUS
 10
3.335640
 20
1.795200
  0
VERTEX
  8
0
  6
CONTINUOUS
 10
3.346640
 20
1.765720
  0
VERTEX
  8
0
  6
CONTINUOUS
 10
2.616680
 20
1.761320
  0
VERTEX
  8
0
  6
CONTINUOUS
 10
2.605680
 20
1.790800
  0
SEQEND
  8
0
  0
SOLID
  8
0
 62
    15
 10
2.616680
 20
1.761320
 11
3.346640
 21
1.765720
 12
2.619760
 22
1.732720
 13
3.349280
 23
1.737120
  0
POLYLINE
  8
0
  6
CONTINUOUS
 66
     1
 40
0.000000
 41
0.000000
  0
VERTEX
  8
0
  6
CONTINUOUS
 10
2.616680
 20
1.761320
  0
VERTEX
  8
0
  6
CONTINUOUS
 10
3.346640
 20
1.765720
  0
VERTEX
  8
0
  6
CONTINUOUS
 10
3.349280
 20
1.737120
  0
VERTEX
  8
0
  6
CONTINUOUS
 10
2.619760
 20
1.732720
  0
VERTEX
  8
0
  6
CONTINUOUS
 10
2.616680
 20
1.761320
  0
SEQEND
  8
0
  0
SOLID
  8
0
 62
    15
 10
2.619760
 20
1.732720
 11
3.349280
 21
1.737120
 12
2.615360
 22
1.704560
 13
3.344880
 23
1.708960
  0
POLYLINE
  8
0
  6
CONTINUOUS
 66
     1
 40
0.000000
 41
0.000000
  0
VERTEX
  8
0
  6
CONTINUOUS
 10
2.619760
 20
1.732720
  0
VERTEX
  8
0
  6
CONTINUOUS
 10
3.349280
 20
1.737120
  0
VERTEX
  8
0
  6
CONTINUOUS
 10
3.344880
 20
1.708960
  0
VERTEX
  8
0
  6
CONTINUOUS
 10
2.615360
 20
1.704560
  0
VERTEX
  8
0
  6
CONTINUOUS
 10
2.619760
 20
1.732720
  0
SEQEND
  8
0
  0
SOLID
  8
0
 62
    15
 10
2.615360
 20
1.704560
 11
3.344880
 21
1.708960
 12
2.604360
 22
1.677720
 13
3.333880
 23
1.682120
  0
POLYLINE
  8
0
  6
CONTINUOUS
 66
     1
 40
0.000000
 41
0.000000
  0
VERTEX
  8
0
  6
CONTINUOUS
 10
2.615360
 20
1.704560
  0
VERTEX
  8
0
  6
CONTINUOUS
 10
3.344880
 20
1.708960
  0
VERTEX
  8
0
  6
CONTINUOUS
 10
3.333880
 20
1.682120
  0
VERTEX
  8
0
  6
CONTINUOUS
 10
2.604360
 20
1.677720
  0
VERTEX
  8
0
  6
CONTINUOUS
 10
2.615360
 20
1.704560
  0
SEQEND
  8
0
  0
SOLID
  8
0
 62
    15
 10
2.604360
 20
1.677720
 11
3.333880
 21
1.682120
 12
2.588080
 22
1.651760
 13
3.317600
 23
1.656160
  0
POLYLINE
  8
0
  6
CONTINUOUS
 66
     1
 40
0.000000
 41
0.000000
  0
VERTEX
  8
0
  6
CONTINUOUS
 10
2.604360
 20
1.677720
  0
VERTEX
  8
0
  6
CONTINUOUS
 10
3.333880
 20
1.682120
  0
VERTEX
  8
0
  6
CONTINUOUS
 10
3.317600
 20
1.656160
  0
VERTEX
  8
0
  6
CONTINUOUS
 10
2.588080
 20
1.651760
  0
VERTEX
  8
0
  6
CONTINUOUS
 10
2.604360
 20
1.677720
  0
SEQEND
  8
0
  0
SOLID
  8
0
 62
    15
 10
2.588080
 20
1.651760
 11
3.317600
 21
1.656160
 12
2.567400
 22
1.627120
 13
3.296920
 23
1.631520
  0
POLYLINE
  8
0
  6
CONTINUOUS
 66
     1
 40
0.000000
 41
0.000000
  0
VERTEX
  8
0
  6
CONTINUOUS
 10
2.588080
 20
1.651760
  0
VERTEX
  8
0
  6
CONTINUOUS
 10
3.317600
 20
1.656160
  0
VERTEX
  8
0
  6
CONTINUOUS
 10
3.296920
 20
1.631520
  0
VERTEX
  8
0
  6
CONTINUOUS
 10
2.567400
 20
1.627120
  0
VERTEX
  8
0
  6
CONTINUOUS
 10
2.588080
 20
1.651760
  0
SEQEND
  8
0
  0
SOLID
  8
0
 62
    15
 10
2.567400
 20
1.627120
 11
3.296920
 21
1.631520
 12
2.543200
 22
1.603800
 13
3.272720
 23
1.608200
  0
POLYLINE
  8
0
  6
CONTINUOUS
 66
     1
 40
0.000000
 41
0.000000
  0
VERTEX
  8
0
  6
CONTINUOUS
 10
2.567400
 20
1.627120
  0
VERTEX
  8
0
  6
CONTINUOUS
 10
3.296920
 20
1.631520
  0
VERTEX
  8
0
  6
CONTINUOUS
 10
3.272720
 20
1.608200
  0
VERTEX
  8
0
  6
CONTINUOUS
 10
2.543200
 20
1.603800
  0
VERTEX
  8
0
  6
CONTINUOUS
 10
2.567400
 20
1.627120
  0
SEQEND
  8
0
  0
SOLID
  8
0
 62
    15
 10
2.543200
 20
1.603800
 11
3.272720
 21
1.608200
 12
2.487320
 22
1.561120
 13
3.216840
 23
1.565520
  0
POLYLINE
  8
0
  6
CONTINUOUS
 66
     1
 40
0.000000
 41
0.000000
  0
VERTEX
  8
0
  6
CONTINUOUS
 10
2.543200
 20
1.603800
  0
VERTEX
  8
0
  6
CONTINUOUS
 10
3.272720
 20
1.608200
  0
VERTEX
  8
0
  6
CONTINUOUS
 10
3.216840
 20
1.565520
  0
VERTEX
  8
0
  6
CONTINUOUS
 10
2.487320
 20
1.561120
  0
VERTEX
  8
0
  6
CONTINUOUS
 10
2.543200
 20
1.603800
  0
SEQEND
  8
0
  0
SOLID
  8
0
 62
    15
 10
2.487320
 20
1.561120
 11
3.216840
 21
1.565520
 12
2.427920
 22
1.525480
 13
3.157440
 23
1.529880
  0
POLYLINE
  8
0
  6
CONTINUOUS
 66
     1
 40
0.000000
 41
0.000000
  0
VERTEX
  8
0
  6
CONTINUOUS
 10
2.487320
 20
1.561120
  0
VERTEX
  8
0
  6
CONTINUOUS
 10
3.216840
 20
1.565520
  0
VERTEX
  8
0
  6
CONTINUOUS
 10
3.157440
 20
1.529880
  0
VERTEX
  8
0
  6
CONTINUOUS
 10
2.427920
 20
1.525480
  0
VERTEX
  8
0
  6
CONTINUOUS
 10
2.487320
 20
1.561120
  0
SEQEND
  8
0
  0
SOLID
  8
0
 62
    15
 10
2.427920
 20
1.525480
 11
3.157440
 21
1.529880
 12
2.372920
 22
1.497320
 13
3.102440
 23
1.501720
  0
POLYLINE
  8
0
  6
CONTINUOUS
 66
     1
 40
0.000000
 41
0.000000
  0
VERTEX
  8
0
  6
CONTINUOUS
 10
2.427920
 20
1.525480
  0
VERTEX
  8
0
  6
CONTINUOUS
 10
3.157440
 20
1.529880
  0
VERTEX
  8
0
  6
CONTINUOUS
 10
3.102440
 20
1.501720
  0
VERTEX
  8
0
  6
CONTINUOUS
 10
2.372920
 20
1.497320
  0
VERTEX
  8
0
  6
CONTINUOUS
 10
2.427920
 20
1.525480
  0
SEQEND
  8
0
  0
SOLID
  8
0
 62
    15
 10
2.372920
 20
1.497320
 11
3.102440
 21
1.501720
 12
2.348720
 22
1.483680
 13
3.078240
 23
1.488080
  0
POLYLINE
  8
0
  6
CONTINUOUS
 66
     1
 40
0.000000
 41
0.000000
  0
VERTEX
  8
0
  6
CONTINUOUS
 10
2.372920
 20
1.497320
  0
VERTEX
  8
0
  6
CONTINUOUS
 10
3.102440
 20
1.501720
  0
VERTEX
  8
0
  6
CONTINUOUS
 10
3.078240
 20
1.488080
  0
VERTEX
  8
0
  6
CONTINUOUS
 10
2.348720
 20
1.483680
  0
VERTEX
  8
0
  6
CONTINUOUS
 10
2.372920
 20
1.497320
  0
SEQEND
  8
0
  0
SOLID
  8
0
 62
    15
 10
2.348720
 20
1.483680
 11
3.078240
 21
1.488080
 12
2.326280
 22
1.466960
 13
3.055800
 23
1.471360
  0
POLYLINE
  8
0
  6
CONTINUOUS
 66
     1
 40
0.000000
 41
0.000000
  0
VERTEX
  8
0
  6
CONTINUOUS
 10
2.348720
 20
1.483680
  0
VERTEX
  8
0
  6
CONTINUOUS
 10
3.078240
 20
1.488080
  0
VERTEX
  8
0
  6
CONTINUOUS
 10
3.055800
 20
1.471360
  0
VERTEX
  8
0
  6
CONTINUOUS
 10
2.326280
 20
1.466960
  0
VERTEX
  8
0
  6
CONTINUOUS
 10
2.348720
 20
1.483680
  0
SEQEND
  8
0
  0
SOLID
  8
0
 62
    15
 10
2.326280
 20
1.466960
 11
3.055800
 21
1.471360
 12
2.287560
 22
1.425600
 13
3.017080
 23
1.430000
  0
POLYLINE
  8
0
  6
CONTINUOUS
 66
     1
 40
0.000000
 41
0.000000
  0
VERTEX
  8
0
  6
CONTINUOUS
 10
2.326280
 20
1.466960
  0
VERTEX
  8
0
  6
CONTINUOUS
 10
3.055800
 20
1.471360
  0
VERTEX
  8
0
  6
CONTINUOUS
 10
3.017080
 20
1.430000
  0
VERTEX
  8
0
  6
CONTINUOUS
 10
2.287560
 20
1.425600
  0
VERTEX
  8
0
  6
CONTINUOUS
 10
2.326280
 20
1.466960
  0
SEQEND
  8
0
  0
SOLID
  8
0
 62
    15
 10
2.287560
 20
1.425600
 11
3.017080
 21
1.430000
 12
2.255440
 22
1.377640
 13
2.985400
 23
1.382040
  0
POLYLINE
  8
0
  6
CONTINUOUS
 66
     1
 40
0.000000
 41
0.000000
  0
VERTEX
  8
0
  6
CONTINUOUS
 10
2.287560
 20
1.425600
  0
VERTEX
  8
0
  6
CONTINUOUS
 10
3.017080
 20
1.430000
  0
VERTEX
  8
0
  6
CONTINUOUS
 10
2.985400
 20
1.382040
  0
VERTEX
  8
0
  6
CONTINUOUS
 10
2.255440
 20
1.377640
  0
VERTEX
  8
0
  6
CONTINUOUS
 10
2.287560
 20
1.425600
  0
SEQEND
  8
0
  0
SOLID
  8
0
 62
    15
 10
2.255440
 20
1.377640
 11
2.985400
 21
1.382040
 12
2.230800
 22
1.325720
 13
2.960320
 23
1.330120
  0
POLYLINE
  8
0
  6
CONTINUOUS
 66
     1
 40
0.000000
 41
0.000000
  0
VERTEX
  8
0
  6
CONTINUOUS
 10
2.255440
 20
1.377640
  0
VERTEX
  8
0
  6
CONTINUOUS
 10
2.985400
 20
1.382040
  0
VERTEX
  8
0
  6
CONTINUOUS
 10
2.960320
 20
1.330120
  0
VERTEX
  8
0
  6
CONTINUOUS
 10
2.230800
 20
1.325720
  0
VERTEX
  8
0
  6
CONTINUOUS
 10
2.255440
 20
1.377640
  0
SEQEND
  8
0
  0
SOLID
  8
0
 62
    15
 10
2.230800
 20
1.325720
 11
2.960320
 21
1.330120
 12
2.211880
 22
1.273800
 13
2.941400
 23
1.278200
  0
POLYLINE
  8
0
  6
CONTINUOUS
 66
     1
 40
0.000000
 41
0.000000
  0
VERTEX
  8
0
  6
CONTINUOUS
 10
2.230800
 20
1.325720
  0
VERTEX
  8
0
  6
CONTINUOUS
 10
2.960320
 20
1.330120
  0
VERTEX
  8
0
  6
CONTINUOUS
 10
2.941400
 20
1.278200
  0
VERTEX
  8
0
  6
CONTINUOUS
 10
2.211880
 20
1.273800
  0
VERTEX
  8
0
  6
CONTINUOUS
 10
2.230800
 20
1.325720
  0
SEQEND
  8
0
  0
SOLID
  8
0
 62
    15
 10
2.211880
 20
1.273800
 11
2.941400
 21
1.278200
 12
2.199120
 22
1.225400
 13
2.928640
 23
1.229800
  0
POLYLINE
  8
0
  6
CONTINUOUS
 66
     1
 40
0.000000
 41
0.000000
  0
VERTEX
  8
0
  6
CONTINUOUS
 10
2.211880
 20
1.273800
  0
VERTEX
  8
0
  6
CONTINUOUS
 10
2.941400
 20
1.278200
  0
VERTEX
  8
0
  6
CONTINUOUS
 10
2.928640
 20
1.229800
  0
VERTEX
  8
0
  6
CONTINUOUS
 10
2.199120
 20
1.225400
  0
VERTEX
  8
0
  6
CONTINUOUS
 10
2.211880
 20
1.273800
  0
SEQEND
  8
0
  0
SOLID
  8
0
 62
    15
 10
2.199120
 20
1.225400
 11
2.928640
 21
1.229800
 12
2.191640
 22
1.184040
 13
2.921160
 23
1.188440
  0
POLYLINE
  8
0
  6
CONTINUOUS
 66
     1
 40
0.000000
 41
0.000000
  0
VERTEX
  8
0
  6
CONTINUOUS
 10
2.199120
 20
1.225400
  0
VERTEX
  8
0
  6
CONTINUOUS
 10
2.928640
 20
1.229800
  0
VERTEX
  8
0
  6
CONTINUOUS
 10
2.921160
 20
1.188440
  0
VERTEX
  8
0
  6
CONTINUOUS
 10
2.191640
 20
1.184040
  0
VERTEX
  8
0
  6
CONTINUOUS
 10
2.199120
 20
1.225400
  0
SEQEND
  8
0
  0
SOLID
  8
0
 62
    15
 10
3.357640
 20
2.984080
 11
3.355880
 21
2.931280
 12
2.628120
 22
2.979680
 13
2.625920
 23
2.926880
  0
POLYLINE
  8
0
  6
CONTINUOUS
 66
     1
 40
0.000000
 41
0.000000
  0
VERTEX
  8
0
  6
CONTINUOUS
 10
3.357640
 20
2.984080
  0
VERTEX
  8
0
  6
CONTINUOUS
 10
3.355880
 20
2.931280
  0
VERTEX
  8
0
  6
CONTINUOUS
 10
2.625920
 20
2.926880
  0
VERTEX
  8
0
  6
CONTINUOUS
 10
2.628120
 20
2.979680
  0
VERTEX
  8
0
  6
CONTINUOUS
 10
3.357640
 20
2.984080
  0
SEQEND
  8
0
  0
SOLID
  8
0
 62
    15
 10
2.624160
 20
3.042160
 11
3.353680
 21
3.046560
 12
2.628120
 22
2.975720
 13
3.358080
 23
2.980120
  0
POLYLINE
  8
0
  6
CONTINUOUS
 66
     1
 40
0.000000
 41
0.000000
  0
VERTEX
  8
0
  6
CONTINUOUS
 10
2.624160
 20
3.042160
  0
VERTEX
  8
0
  6
CONTINUOUS
 10
3.353680
 20
3.046560
  0
VERTEX
  8
0
  6
CONTINUOUS
 10
3.358080
 20
2.980120
  0
VERTEX
  8
0
  6
CONTINUOUS
 10
2.628120
 20
2.975720
  0
VERTEX
  8
0
  6
CONTINUOUS
 10
2.624160
 20
3.042160
  0
SEQEND
  8
0
  0
SOLID
  8
0
 62
    15
 10
1.888920
 20
4.794680
 11
2.618440
 21
4.799080
 12
2.184160
 22
4.794680
 13
2.914120
 23
4.799080
  0
POLYLINE
  8
0
  6
CONTINUOUS
 66
     1
 40
0.000000
 41
0.000000
  0
VERTEX
  8
0
  6
CONTINUOUS
 10
1.888920
 20
4.794680
  0
VERTEX
  8
0
  6
CONTINUOUS
 10
2.618440
 20
4.799080
  0
VERTEX
  8
0
  6
CONTINUOUS
 10
2.914120
 20
4.799080
  0
VERTEX
  8
0
  6
CONTINUOUS
 10
2.184160
 20
4.794680
  0
VERTEX
  8
0
  6
CONTINUOUS
 10
1.888920
 20
4.794680
  0
SEQEND
  8
0
  0
SOLID
  8
0
 62
    15
 10
2.184160
 20
4.794680
 11
2.914120
 21
4.799080
 12
2.186800
 22
4.764320
 13
2.916320
 23
4.768720
  0
POLYLINE
  8
0
  6
CONTINUOUS
 66
     1
 40
0.000000
 41
0.000000
  0
VERTEX
  8
0
  6
CONTINUOUS
 10
2.184160
 20
4.794680
  0
VERTEX
  8
0
  6
CONTINUOUS
 10
2.914120
 20
4.799080
  0
VERTEX
  8
0
  6
CONTINUOUS
 10
2.916320
 20
4.768720
  0
VERTEX
  8
0
  6
CONTINUOUS
 10
2.186800
 20
4.764320
  0
VERTEX
  8
0
  6
CONTINUOUS
 10
2.184160
 20
4.794680
  0
SEQEND
  8
0
  0
SOLID
  8
0
 62
    15
 10
2.186800
 20
4.764320
 11
2.916320
 21
4.768720
 12
2.194280
 22
4.722960
 13
2.924240
 23
4.727360
  0
POLYLINE
  8
0
  6
CONTINUOUS
 66
     1
 40
0.000000
 41
0.000000
  0
VERTEX
  8
0
  6
CONTINUOUS
 10
2.186800
 20
4.764320
  0
VERTEX
  8
0
  6
CONTINUOUS
 10
2.916320
 20
4.768720
  0
VERTEX
  8
0
  6
CONTINUOUS
 10
2.924240
 20
4.727360
  0
VERTEX
  8
0
  6
CONTINUOUS
 10
2.194280
 20
4.722960
  0
VERTEX
  8
0
  6
CONTINUOUS
 10
2.186800
 20
4.764320
  0
SEQEND
  8
0
  0
SOLID
  8
0
 62
    15
 10
2.194280
 20
4.722960
 11
2.924240
 21
4.727360
 12
2.207480
 22
4.674560
 13
2.937000
 23
4.678960
  0
POLYLINE
  8
0
  6
CONTINUOUS
 66
     1
 40
0.000000
 41
0.000000
  0
VERTEX
  8
0
  6
CONTINUOUS
 10
2.194280
 20
4.722960
  0
VERTEX
  8
0
  6
CONTINUOUS
 10
2.924240
 20
4.727360
  0
VERTEX
  8
0
  6
CONTINUOUS
 10
2.937000
 20
4.678960
  0
VERTEX
  8
0
  6
CONTINUOUS
 10
2.207480
 20
4.674560
  0
VERTEX
  8
0
  6
CONTINUOUS
 10
2.194280
 20
4.722960
  0
SEQEND
  8
0
  0
SOLID
  8
0
 62
    15
 10
2.207480
 20
4.674560
 11
2.937000
 21
4.678960
 12
2.225960
 22
4.622640
 13
2.955920
 23
4.627040
  0
POLYLINE
  8
0
  6
CONTINUOUS
 66
     1
 40
0.000000
 41
0.000000
  0
VERTEX
  8
0
  6
CONTINUOUS
 10
2.207480
 20
4.674560
  0
VERTEX
  8
0
  6
CONTINUOUS
 10
2.937000
 20
4.678960
  0
VERTEX
  8
0
  6
CONTINUOUS
 10
2.955920
 20
4.627040
  0
VERTEX
  8
0
  6
CONTINUOUS
 10
2.225960
 20
4.622640
  0
VERTEX
  8
0
  6
CONTINUOUS
 10
2.207480
 20
4.674560
  0
SEQEND
  8
0
  0
SOLID
  8
0
 62
    15
 10
2.225960
 20
4.622640
 11
2.955920
 21
4.627040
 12
2.251040
 22
4.570720
 13
2.980560
 23
4.575120
  0
POLYLINE
  8
0
  6
CONTINUOUS
 66
     1
 40
0.000000
 41
0.000000
  0
VERTEX
  8
0
  6
CONTINUOUS
 10
2.225960
 20
4.622640
  0
VERTEX
  8
0
  6
CONTINUOUS
 10
2.955920
 20
4.627040
  0
VERTEX
  8
0
  6
CONTINUOUS
 10
2.980560
 20
4.575120
  0
VERTEX
  8
0
  6
CONTINUOUS
 10
2.251040
 20
4.570720
  0
VERTEX
  8
0
  6
CONTINUOUS
 10
2.225960
 20
4.622640
  0
SEQEND
  8
0
  0
SOLID
  8
0
 62
    15
 10
2.251040
 20
4.570720
 11
2.980560
 21
4.575120
 12
2.282720
 22
4.522760
 13
3.012240
 23
4.527160
  0
POLYLINE
  8
0
  6
CONTINUOUS
 66
     1
 40
0.000000
 41
0.000000
  0
VERTEX
  8
0
  6
CONTINUOUS
 10
2.251040
 20
4.570720
  0
VERTEX
  8
0
  6
CONTINUOUS
 10
2.980560
 20
4.575120
  0
VERTEX
  8
0
  6
CONTINUOUS
 10
3.012240
 20
4.527160
  0
VERTEX
  8
0
  6
CONTINUOUS
 10
2.282720
 20
4.522760
  0
VERTEX
  8
0
  6
CONTINUOUS
 10
2.251040
 20
4.570720
  0
SEQEND
  8
0
  0
SOLID
  8
0
 62
    15
 10
2.282720
 20
4.522760
 11
3.012240
 21
4.527160
 12
2.321880
 22
4.481400
 13
3.051400
 23
4.485800
  0
POLYLINE
  8
0
  6
CONTINUOUS
 66
     1
 40
0.000000
 41
0.000000
  0
VERTEX
  8
0
  6
CONTINUOUS
 10
2.282720
 20
4.522760
  0
VERTEX
  8
0
  6
CONTINUOUS
 10
3.012240
 20
4.527160
  0
VERTEX
  8
0
  6
CONTINUOUS
 10
3.051400
 20
4.485800
  0
VERTEX
  8
0
  6
CONTINUOUS
 10
2.321880
 20
4.481400
  0
VERTEX
  8
0
  6
CONTINUOUS
 10
2.282720
 20
4.522760
  0
SEQEND
  8
0
  0
SOLID
  8
0
 62
    15
 10
2.321880
 20
4.481400
 11
3.051400
 21
4.485800
 12
2.343880
 22
4.464680
 13
3.073840
 23
4.469080
  0
POLYLINE
  8
0
  6
CONTINUOUS
 66
     1
 40
0.000000
 41
0.000000
  0
VERTEX
  8
0
  6
CONTINUOUS
 10
2.321880
 20
4.481400
  0
VERTEX
  8
0
  6
CONTINUOUS
 10
3.051400
 20
4.485800
  0
VERTEX
  8
0
  6
CONTINUOUS
 10
3.073840
 20
4.469080
  0
VERTEX
  8
0
  6
CONTINUOUS
 10
2.343880
 20
4.464680
  0
VERTEX
  8
0
  6
CONTINUOUS
 10
2.321880
 20
4.481400
  0
SEQEND
  8
0
  0
SOLID
  8
0
 62
    15
 10
2.343880
 20
4.464680
 11
3.073840
 21
4.469080
 12
2.368520
 22
4.450600
 13
3.098040
 23
4.455000
  0
POLYLINE
  8
0
  6
CONTINUOUS
 66
     1
 40
0.000000
 41
0.000000
  0
VERTEX
  8
0
  6
CONTINUOUS
 10
2.343880
 20
4.464680
  0
VERTEX
  8
0
  6
CONTINUOUS
 10
3.073840
 20
4.469080
  0
VERTEX
  8
0
  6
CONTINUOUS
 10
3.098040
 20
4.455000
  0
VERTEX
  8
0
  6
CONTINUOUS
 10
2.368520
 20
4.450600
  0
VERTEX
  8
0
  6
CONTINUOUS
 10
2.343880
 20
4.464680
  0
SEQEND
  8
0
  0
SOLID
  8
0
 62
    15
 10
2.368520
 20
4.450600
 11
3.098040
 21
4.455000
 12
2.423520
 22
4.422880
 13
3.153040
 23
4.427280
  0
POLYLINE
  8
0
  6
CONTINUOUS
 66
     1
 40
0.000000
 41
0.000000
  0
VERTEX
  8
0
  6
CONTINUOUS
 10
2.368520
 20
4.450600
  0
VERTEX
  8
0
  6
CONTINUOUS
 10
3.098040
 20
4.455000
  0
VERTEX
  8
0
  6
CONTINUOUS
 10
3.153040
 20
4.427280
  0
VERTEX
  8
0
  6
CONTINUOUS
 10
2.423520
 20
4.422880
  0
VERTEX
  8
0
  6
CONTINUOUS
 10
2.368520
 20
4.450600
  0
SEQEND
  8
0
  0
SOLID
  8
0
 62
    15
 10
2.423520
 20
4.422880
 11
3.153040
 21
4.427280
 12
2.482480
 22
4.386800
 13
3.212000
 23
4.391200
  0
POLYLINE
  8
0
  6
CONTINUOUS
 66
     1
 40
0.000000
 41
0.000000
  0
VERTEX
  8
0
  6
CONTINUOUS
 10
2.423520
 20
4.422880
  0
VERTEX
  8
0
  6
CONTINUOUS
 10
3.153040
 20
4.427280
  0
VERTEX
  8
0
  6
CONTINUOUS
 10
3.212000
 20
4.391200
  0
VERTEX
  8
0
  6
CONTINUOUS
 10
2.482480
 20
4.386800
  0
VERTEX
  8
0
  6
CONTINUOUS
 10
2.423520
 20
4.422880
  0
SEQEND
  8
0
  0
SOLID
  8
0
 62
    15
 10
2.482480
 20
4.386800
 11
3.212000
 21
4.391200
 12
2.538360
 22
4.344560
 13
3.267880
 23
4.348960
  0
POLYLINE
  8
0
  6
CONTINUOUS
 66
     1
 40
0.000000
 41
0.000000
  0
VERTEX
  8
0
  6
CONTINUOUS
 10
2.482480
 20
4.386800
  0
VERTEX
  8
0
  6
CONTINUOUS
 10
3.212000
 20
4.391200
  0
VERTEX
  8
0
  6
CONTINUOUS
 10
3.267880
 20
4.348960
  0
VERTEX
  8
0
  6
CONTINUOUS
 10
2.538360
 20
4.344560
  0
VERTEX
  8
0
  6
CONTINUOUS
 10
2.482480
 20
4.386800
  0
SEQEND
  8
0
  0
SOLID
  8
0
 62
    15
 10
2.538360
 20
4.344560
 11
3.267880
 21
4.348960
 12
2.562560
 22
4.321240
 13
3.292520
 23
4.325640
  0
POLYLINE
  8
0
  6
CONTINUOUS
 66
     1
 40
0.000000
 41
0.000000
  0
VERTEX
  8
0
  6
CONTINUOUS
 10
2.538360
 20
4.344560
  0
VERTEX
  8
0
  6
CONTINUOUS
 10
3.267880
 20
4.348960
  0
VERTEX
  8
0
  6
CONTINUOUS
 10
3.292520
 20
4.325640
  0
VERTEX
  8
0
  6
CONTINUOUS
 10
2.562560
 20
4.321240
  0
VERTEX
  8
0
  6
CONTINUOUS
 10
2.538360
 20
4.344560
  0
SEQEND
  8
0
  0
SOLID
  8
0
 62
    15
 10
2.562560
 20
4.321240
 11
3.292520
 21
4.325640
 12
2.583680
 22
4.296600
 13
3.313200
 23
4.301000
  0
POLYLINE
  8
0
  6
CONTINUOUS
 66
     1
 40
0.000000
 41
0.000000
  0
VERTEX
  8
0
  6
CONTINUOUS
 10
2.562560
 20
4.321240
  0
VERTEX
  8
0
  6
CONTINUOUS
 10
3.292520
 20
4.325640
  0
VERTEX
  8
0
  6
CONTINUOUS
 10
3.313200
 20
4.301000
  0
VERTEX
  8
0
  6
CONTINUOUS
 10
2.583680
 20
4.296600
  0
VERTEX
  8
0
  6
CONTINUOUS
 10
2.562560
 20
4.321240
  0
SEQEND
  8
0
  0
SOLID
  8
0
 62
    15
 10
2.583680
 20
4.296600
 11
3.313200
 21
4.301000
 12
2.599960
 22
4.270640
 13
3.329480
 23
4.275040
  0
POLYLINE
  8
0
  6
CONTINUOUS
 66
     1
 40
0.000000
 41
0.000000
  0
VERTEX
  8
0
  6
CONTINUOUS
 10
2.583680
 20
4.296600
  0
VERTEX
  8
0
  6
CONTINUOUS
 10
3.313200
 20
4.301000
  0
VERTEX
  8
0
  6
CONTINUOUS
 10
3.329480
 20
4.275040
  0
VERTEX
  8
0
  6
CONTINUOUS
 10
2.599960
 20
4.270640
  0
VERTEX
  8
0
  6
CONTINUOUS
 10
2.583680
 20
4.296600
  0
SEQEND
  8
0
  0
SOLID
  8
0
 62
    15
 10
2.599960
 20
4.270640
 11
3.329480
 21
4.275040
 12
2.610520
 22
4.243800
 13
3.340040
 23
4.248200
  0
POLYLINE
  8
0
  6
CONTINUOUS
 66
     1
 40
0.000000
 41
0.000000
  0
VERTEX
  8
0
  6
CONTINUOUS
 10
2.599960
 20
4.270640
  0
VERTEX
  8
0
  6
CONTINUOUS
 10
3.329480
 20
4.275040
  0
VERTEX
  8
0
  6
CONTINUOUS
 10
3.340040
 20
4.248200
  0
VERTEX
  8
0
  6
CONTINUOUS
 10
2.610520
 20
4.243800
  0
VERTEX
  8
0
  6
CONTINUOUS
 10
2.599960
 20
4.270640
  0
SEQEND
  8
0
  0
SOLID
  8
0
 62
    15
 10
2.610520
 20
4.243800
 11
3.340040
 21
4.248200
 12
2.614920
 22
4.216080
 13
3.344880
 23
4.220480
  0
POLYLINE
  8
0
  6
CONTINUOUS
 66
     1
 40
0.000000
 41
0.000000
  0
VERTEX
  8
0
  6
CONTINUOUS
 10
2.610520
 20
4.243800
  0
VERTEX
  8
0
  6
CONTINUOUS
 10
3.340040
 20
4.248200
  0
VERTEX
  8
0
  6
CONTINUOUS
 10
3.344880
 20
4.220480
  0
VERTEX
  8
0
  6
CONTINUOUS
 10
2.614920
 20
4.216080
  0
VERTEX
  8
0
  6
CONTINUOUS
 10
2.610520
 20
4.243800
  0
SEQEND
  8
0
  0
SOLID
  8
0
 62
    15
 10
2.614920
 20
4.216080
 11
3.344880
 21
4.220480
 12
2.612280
 22
4.187040
 13
3.341800
 23
4.191440
  0
POLYLINE
  8
0
  6
CONTINUOUS
 66
     1
 40
0.000000
 41
0.000000
  0
VERTEX
  8
0
  6
CONTINUOUS
 10
2.614920
 20
4.216080
  0
VERTEX
  8
0
  6
CONTINUOUS
 10
3.344880
 20
4.220480
  0
VERTEX
  8
0
  6
CONTINUOUS
 10
3.341800
 20
4.191440
  0
VERTEX
  8
0
  6
CONTINUOUS
 10
2.612280
 20
4.187040
  0
VERTEX
  8
0
  6
CONTINUOUS
 10
2.614920
 20
4.216080
  0
SEQEND
  8
0
  0
SOLID
  8
0
 62
    15
 10
2.612280
 20
4.187040
 11
3.341800
 21
4.191440
 12
2.601280
 22
4.157560
 13
3.330800
 23
4.161960
  0
POLYLINE
  8
0
  6
CONTINUOUS
 66
     1
 40
0.000000
 41
0.000000
  0
VERTEX
  8
0
  6
CONTINUOUS
 10
2.612280
 20
4.187040
  0
VERTEX
  8
0
  6
CONTINUOUS
 10
3.341800
 20
4.191440
  0
VERTEX
  8
0
  6
CONTINUOUS
 10
3.330800
 20
4.161960
  0
VERTEX
  8
0
  6
CONTINUOUS
 10
2.601280
 20
4.157560
  0
VERTEX
  8
0
  6
CONTINUOUS
 10
2.612280
 20
4.187040
  0
SEQEND
  8
0
  0
SOLID
  8
0
 62
    15
 10
2.601280
 20
4.157560
 11
3.330800
 21
4.161960
 12
2.581040
 22
4.127200
 13
3.310560
 23
4.131600
  0
POLYLINE
  8
0
  6
CONTINUOUS
 66
     1
 40
0.000000
 41
0.000000
  0
VERTEX
  8
0
  6
CONTINUOUS
 10
2.601280
 20
4.157560
  0
VERTEX
  8
0
  6
CONTINUOUS
 10
3.330800
 20
4.161960
  0
VERTEX
  8
0
  6
CONTINUOUS
 10
3.310560
 20
4.131600
  0
VERTEX
  8
0
  6
CONTINUOUS
 10
2.581040
 20
4.127200
  0
VERTEX
  8
0
  6
CONTINUOUS
 10
2.601280
 20
4.157560
  0
SEQEND
  8
0
  0
SOLID
  8
0
 62
    15
 10
2.581040
 20
4.127200
 11
3.310560
 21
4.131600
 12
2.550680
 22
4.096400
 13
3.280640
 23
4.100800
  0
POLYLINE
  8
0
  6
CONTINUOUS
 66
     1
 40
0.000000
 41
0.000000
  0
VERTEX
  8
0
  6
CONTINUOUS
 10
2.581040
 20
4.127200
  0
VERTEX
  8
0
  6
CONTINUOUS
 10
3.310560
 20
4.131600
  0
VERTEX
  8
0
  6
CONTINUOUS
 10
3.280640
 20
4.100800
  0
VERTEX
  8
0
  6
CONTINUOUS
 10
2.550680
 20
4.096400
  0
VERTEX
  8
0
  6
CONTINUOUS
 10
2.581040
 20
4.127200
  0
SEQEND
  8
0
  0
SOLID
  8
0
 62
    15
 10
2.550680
 20
4.096400
 11
3.280640
 21
4.100800
 12
2.509760
 22
4.065160
 13
3.239280
 23
4.069560
  0
POLYLINE
  8
0
  6
CONTINUOUS
 66
     1
 40
0.000000
 41
0.000000
  0
VERTEX
  8
0
  6
CONTINUOUS
 10
2.550680
 20
4.096400
  0
VERTEX
  8
0
  6
CONTINUOUS
 10
3.280640
 20
4.100800
  0
VERTEX
  8
0
  6
CONTINUOUS
 10
3.239280
 20
4.069560
  0
VERTEX
  8
0
  6
CONTINUOUS
 10
2.509760
 20
4.065160
  0
VERTEX
  8
0
  6
CONTINUOUS
 10
2.550680
 20
4.096400
  0
SEQEND
  8
0
  0
SOLID
  8
0
 62
    15
 10
2.509760
 20
4.065160
 11
3.239280
 21
4.069560
 12
2.509760
 22
4.046240
 13
3.239280
 23
4.050640
  0
POLYLINE
  8
0
  6
CONTINUOUS
 66
     1
 40
0.000000
 41
0.000000
  0
VERTEX
  8
0
  6
CONTINUOUS
 10
2.509760
 20
4.065160
  0
VERTEX
  8
0
  6
CONTINUOUS
 10
3.239280
 20
4.069560
  0
VERTEX
  8
0
  6
CONTINUOUS
 10
3.239280
 20
4.050640
  0
VERTEX
  8
0
  6
CONTINUOUS
 10
2.509760
 20
4.046240
  0
VERTEX
  8
0
  6
CONTINUOUS
 10
2.509760
 20
4.065160
  0
SEQEND
  8
0
  0
SOLID
  8
0
 62
    15
 10
2.509760
 20
4.046240
 11
3.239280
 21
4.050640
 12
2.628560
 22
3.978480
 13
3.358080
 23
3.982880
  0
POLYLINE
  8
0
  6
CONTINUOUS
 66
     1
 40
0.000000
 41
0.000000
  0
VERTEX
  8
0
  6
CONTINUOUS
 10
2.509760
 20
4.046240
  0
VERTEX
  8
0
  6
CONTINUOUS
 10
3.239280
 20
4.050640
  0
VERTEX
  8
0
  6
CONTINUOUS
 10
3.358080
 20
3.982880
  0
VERTEX
  8
0
  6
CONTINUOUS
 10
2.628560
 20
3.978480
  0
VERTEX
  8
0
  6
CONTINUOUS
 10
2.509760
 20
4.046240
  0
SEQEND
  8
0
  0
SOLID
  8
0
 62
    15
 10
2.628560
 20
3.978480
 11
3.358080
 21
3.982880
 12
2.628560
 22
3.725040
 13
3.358080
 23
3.729440
  0
POLYLINE
  8
0
  6
CONTINUOUS
 66
     1
 40
0.000000
 41
0.000000
  0
VERTEX
  8
0
  6
CONTINUOUS
 10
2.628560
 20
3.978480
  0
VERTEX
  8
0
  6
CONTINUOUS
 10
3.358080
 20
3.982880
  0
VERTEX
  8
0
  6
CONTINUOUS
 10
3.358080
 20
3.729440
  0
VERTEX
  8
0
  6
CONTINUOUS
 10
2.628560
 20
3.725040
  0
VERTEX
  8
0
  6
CONTINUOUS
 10
2.628560
 20
3.978480
  0
SEQEND
  8
0
  0
SOLID
  8
0
 62
    15
 10
2.628560
 20
3.725040
 11
3.358080
 21
3.729440
 12
2.590280
 22
3.695560
 13
3.319800
 23
3.699960
  0
POLYLINE
  8
0
  6
CONTINUOUS
 66
     1
 40
0.000000
 41
0.000000
  0
VERTEX
  8
0
  6
CONTINUOUS
 10
2.628560
 20
3.725040
  0
VERTEX
  8
0
  6
CONTINUOUS
 10
3.358080
 20
3.729440
  0
VERTEX
  8
0
  6
CONTINUOUS
 10
3.319800
 20
3.699960
  0
VERTEX
  8
0
  6
CONTINUOUS
 10
2.590280
 20
3.695560
  0
VERTEX
  8
0
  6
CONTINUOUS
 10
2.628560
 20
3.725040
  0
SEQEND
  8
0
  0
SOLID
  8
0
 62
    15
 10
2.590280
 20
3.695560
 11
3.319800
 21
3.699960
 12
2.561240
 22
3.664760
 13
3.291200
 23
3.669160
  0
POLYLINE
  8
0
  6
CONTINUOUS
 66
     1
 40
0.000000
 41
0.000000
  0
VERTEX
  8
0
  6
CONTINUOUS
 10
2.590280
 20
3.695560
  0
VERTEX
  8
0
  6
CONTINUOUS
 10
3.319800
 20
3.699960
  0
VERTEX
  8
0
  6
CONTINUOUS
 10
3.291200
 20
3.669160
  0
VERTEX
  8
0
  6
CONTINUOUS
 10
2.561240
 20
3.664760
  0
VERTEX
  8
0
  6
CONTINUOUS
 10
2.590280
 20
3.695560
  0
SEQEND
  8
0
  0
SOLID
  8
0
 62
    15
 10
2.561240
 20
3.664760
 11
3.291200
 21
3.669160
 12
2.541440
 22
3.631320
 13
3.270960
 23
3.635720
  0
POLYLINE
  8
0
  6
CONTINUOUS
 66
     1
 40
0.000000
 41
0.000000
  0
VERTEX
  8
0
  6
CONTINUOUS
 10
2.561240
 20
3.664760
  0
VERTEX
  8
0
  6
CONTINUOUS
 10
3.291200
 20
3.669160
  0
VERTEX
  8
0
  6
CONTINUOUS
 10
3.270960
 20
3.635720
  0
VERTEX
  8
0
  6
CONTINUOUS
 10
2.541440
 20
3.631320
  0
VERTEX
  8
0
  6
CONTINUOUS
 10
2.561240
 20
3.664760
  0
SEQEND
  8
0
  0
SOLID
  8
0
 62
    15
 10
2.541440
 20
3.631320
 11
3.270960
 21
3.635720
 12
2.529120
 22
3.595680
 13
3.258640
 23
3.600080
  0
POLYLINE
  8
0
  6
CONTINUOUS
 66
     1
 40
0.000000
 41
0.000000
  0
VERTEX
  8
0
  6
CONTINUOUS
 10
2.541440
 20
3.631320
  0
VERTEX
  8
0
  6
CONTINUOUS
 10
3.270960
 20
3.635720
  0
VERTEX
  8
0
  6
CONTINUOUS
 10
3.258640
 20
3.600080
  0
VERTEX
  8
0
  6
CONTINUOUS
 10
2.529120
 20
3.595680
  0
VERTEX
  8
0
  6
CONTINUOUS
 10
2.541440
 20
3.631320
  0
SEQEND
  8
0
  0
SOLID
  8
0
 62
    15
 10
2.529120
 20
3.595680
 11
3.258640
 21
3.600080
 12
2.523400
 22
3.557840
 13
3.252920
 23
3.562240
  0
POLYLINE
  8
0
  6
CONTINUOUS
 66
     1
 40
0.000000
 41
0.000000
  0
VERTEX
  8
0
  6
CONTINUOUS
 10
2.529120
 20
3.595680
  0
VERTEX
  8
0
  6
CONTINUOUS
 10
3.258640
 20
3.600080
  0
VERTEX
  8
0
  6
CONTINUOUS
 10
3.252920
 20
3.562240
  0
VERTEX
  8
0
  6
CONTINUOUS
 10
2.523400
 20
3.557840
  0
VERTEX
  8
0
  6
CONTINUOUS
 10
2.529120
 20
3.595680
  0
SEQEND
  8
0
  0
SOLID
  8
0
 62
    15
 10
2.523400
 20
3.557840
 11
3.252920
 21
3.562240
 12
2.523840
 22
3.517800
 13
3.253360
 23
3.522200
  0
POLYLINE
  8
0
  6
CONTINUOUS
 66
     1
 40
0.000000
 41
0.000000
  0
VERTEX
  8
0
  6
CONTINUOUS
 10
2.523400
 20
3.557840
  0
VERTEX
  8
0
  6
CONTINUOUS
 10
3.252920
 20
3.562240
  0
VERTEX
  8
0
  6
CONTINUOUS
 10
3.253360
 20
3.522200
  0
VERTEX
  8
0
  6
CONTINUOUS
 10
2.523840
 20
3.517800
  0
VERTEX
  8
0
  6
CONTINUOUS
 10
2.523400
 20
3.557840
  0
SEQEND
  8
0
  0
SOLID
  8
0
 62
    15
 10
2.523840
 20
3.517800
 11
3.253360
 21
3.522200
 12
2.528680
 22
3.475120
 13
3.258200
 23
3.479520
  0
POLYLINE
  8
0
  6
CONTINUOUS
 66
     1
 40
0.000000
 41
0.000000
  0
VERTEX
  8
0
  6
CONTINUOUS
 10
2.523840
 20
3.517800
  0
VERTEX
  8
0
  6
CONTINUOUS
 10
3.253360
 20
3.522200
  0
VERTEX
  8
0
  6
CONTINUOUS
 10
3.258200
 20
3.479520
  0
VERTEX
  8
0
  6
CONTINUOUS
 10
2.528680
 20
3.475120
  0
VERTEX
  8
0
  6
CONTINUOUS
 10
2.523840
 20
3.517800
  0
SEQEND
  8
0
  0
SOLID
  8
0
 62
    15
 10
2.528680
 20
3.475120
 11
3.258200
 21
3.479520
 12
2.537480
 22
3.430240
 13
3.267000
 23
3.434640
  0
POLYLINE
  8
0
  6
CONTINUOUS
 66
     1
 40
0.000000
 41
0.000000
  0
VERTEX
  8
0
  6
CONTINUOUS
 10
2.528680
 20
3.475120
  0
VERTEX
  8
0
  6
CONTINUOUS
 10
3.258200
 20
3.479520
  0
VERTEX
  8
0
  6
CONTINUOUS
 10
3.267000
 20
3.434640
  0
VERTEX
  8
0
  6
CONTINUOUS
 10
2.537480
 20
3.430240
  0
VERTEX
  8
0
  6
CONTINUOUS
 10
2.528680
 20
3.475120
  0
SEQEND
  8
0
  0
SOLID
  8
0
 62
    15
 10
2.537480
 20
3.430240
 11
3.267000
 21
3.434640
 12
2.563000
 22
3.332560
 13
3.292520
 23
3.336960
  0
POLYLINE
  8
0
  6
CONTINUOUS
 66
     1
 40
0.000000
 41
0.000000
  0
VERTEX
  8
0
  6
CONTINUOUS
 10
2.537480
 20
3.430240
  0
VERTEX
  8
0
  6
CONTINUOUS
 10
3.267000
 20
3.434640
  0
VERTEX
  8
0
  6
CONTINUOUS
 10
3.292520
 20
3.336960
  0
VERTEX
  8
0
  6
CONTINUOUS
 10
2.563000
 20
3.332560
  0
VERTEX
  8
0
  6
CONTINUOUS
 10
2.537480
 20
3.430240
  0
SEQEND
  8
0
  0
SOLID
  8
0
 62
    15
 10
2.563000
 20
3.332560
 11
3.292520
 21
3.336960
 12
2.577080
 22
3.279760
 13
3.307040
 23
3.284160
  0
POLYLINE
  8
0
  6
CONTINUOUS
 66
     1
 40
0.000000
 41
0.000000
  0
VERTEX
  8
0
  6
CONTINUOUS
 10
2.563000
 20
3.332560
  0
VERTEX
  8
0
  6
CONTINUOUS
 10
3.292520
 20
3.336960
  0
VERTEX
  8
0
  6
CONTINUOUS
 10
3.307040
 20
3.284160
  0
VERTEX
  8
0
  6
CONTINUOUS
 10
2.577080
 20
3.279760
  0
VERTEX
  8
0
  6
CONTINUOUS
 10
2.563000
 20
3.332560
  0
SEQEND
  8
0
  0
SOLID
  8
0
 62
    15
 10
2.577080
 20
3.279760
 11
3.307040
 21
3.284160
 12
2.591600
 22
3.224760
 13
3.321120
 23
3.229160
  0
POLYLINE
  8
0
  6
CONTINUOUS
 66
     1
 40
0.000000
 41
0.000000
  0
VERTEX
  8
0
  6
CONTINUOUS
 10
2.577080
 20
3.279760
  0
VERTEX
  8
0
  6
CONTINUOUS
 10
3.307040
 20
3.284160
  0
VERTEX
  8
0
  6
CONTINUOUS
 10
3.321120
 20
3.229160
  0
VERTEX
  8
0
  6
CONTINUOUS
 10
2.591600
 20
3.224760
  0
VERTEX
  8
0
  6
CONTINUOUS
 10
2.577080
 20
3.279760
  0
SEQEND
  8
0
  0
SOLID
  8
0
 62
    15
 10
2.591600
 20
3.224760
 11
3.321120
 21
3.229160
 12
2.615800
 22
3.105960
 13
3.345760
 23
3.110360
  0
POLYLINE
  8
0
  6
CONTINUOUS
 66
     1
 40
0.000000
 41
0.000000
  0
VERTEX
  8
0
  6
CONTINUOUS
 10
2.591600
 20
3.224760
  0
VERTEX
  8
0
  6
CONTINUOUS
 10
3.321120
 20
3.229160
  0
VERTEX
  8
0
  6
CONTINUOUS
 10
3.345760
 20
3.110360
  0
VERTEX
  8
0
  6
CONTINUOUS
 10
2.615800
 20
3.105960
  0
VERTEX
  8
0
  6
CONTINUOUS
 10
2.591600
 20
3.224760
  0
SEQEND
  8
0
  0
SOLID
  8
0
 62
    15
 10
2.615800
 20
3.105960
 11
3.345760
 21
3.110360
 12
2.624160
 22
3.042160
 13
3.353680
 23
3.046560
  0
POLYLINE
  8
0
  6
CONTINUOUS
 66
     1
 40
0.000000
 41
0.000000
  0
VERTEX
  8
0
  6
CONTINUOUS
 10
2.615800
 20
3.105960
  0
VERTEX
  8
0
  6
CONTINUOUS
 10
3.345760
 20
3.110360
  0
VERTEX
  8
0
  6
CONTINUOUS
 10
3.353680
 20
3.046560
  0
VERTEX
  8
0
  6
CONTINUOUS
 10
2.624160
 20
3.042160
  0
VERTEX
  8
0
  6
CONTINUOUS
 10
2.615800
 20
3.105960
  0
SEQEND
  8
0
  0
SOLID
  8
0
 62
    15
 10
2.628560
 20
2.995520
 11
3.358080
 21
3.000360
 12
2.628120
 22
2.979680
 13
3.357640
 23
2.984080
  0
POLYLINE
  8
0
  6
CONTINUOUS
 66
     1
 40
0.000000
 41
0.000000
  0
VERTEX
  8
0
  6
CONTINUOUS
 10
2.628560
 20
2.995520
  0
VERTEX
  8
0
  6
CONTINUOUS
 10
3.358080
 20
3.000360
  0
VERTEX
  8
0
  6
CONTINUOUS
 10
3.357640
 20
2.984080
  0
VERTEX
  8
0
  6
CONTINUOUS
 10
2.628120
 20
2.979680
  0
VERTEX
  8
0
  6
CONTINUOUS
 10
2.628560
 20
2.995520
  0
SEQEND
  8
0
  0
POLYLINE
  8
0
  6
CONTINUOUS
 66
     1
 40
0.000000
 41
0.000000
  0
VERTEX
  8
0
  6
CONTINUOUS
 10
2.628560
 20
2.995520
  0
VERTEX
  8
0
  6
CONTINUOUS
 10
2.625920
 20
2.926880
  0
VERTEX
  8
0
  6
CONTINUOUS
 10
2.618880
 20
2.860880
  0
VERTEX
  8
0
  6
CONTINUOUS
 10
2.608760
 20
2.797960
  0
VERTEX
  8
0
  6
CONTINUOUS
 10
2.596000
 20
2.738120
  0
VERTEX
  8
0
  6
CONTINUOUS
 10
2.541880
 20
2.526040
  0
VERTEX
  8
0
  6
CONTINUOUS
 10
2.532640
 20
2.479840
  0
VERTEX
  8
0
  6
CONTINUOUS
 10
2.527360
 20
2.435840
  0
VERTEX
  8
0
  6
CONTINUOUS
 10
2.526920
 20
2.394480
  0
VERTEX
  8
0
  6
CONTINUOUS
 10
2.532200
 20
2.355760
  0
VERTEX
  8
0
  6
CONTINUOUS
 10
2.544520
 20
2.319240
  0
VERTEX
  8
0
  6
CONTINUOUS
 10
2.564760
 20
2.284920
  0
VERTEX
  8
0
  6
CONTINUOUS
 10
2.593800
 20
2.253240
  0
VERTEX
  8
0
  6
CONTINUOUS
 10
2.633400
 20
2.223320
  0
VERTEX
  8
0
  6
CONTINUOUS
 10
2.633400
 20
1.969440
  0
VERTEX
  8
0
  6
CONTINUOUS
 10
2.514160
 20
1.902120
  0
VERTEX
  8
0
  6
CONTINUOUS
 10
2.514160
 20
1.882760
  0
VERTEX
  8
0
  6
CONTINUOUS
 10
2.555520
 20
1.851960
  0
VERTEX
  8
0
  6
CONTINUOUS
 10
2.585880
 20
1.821160
  0
VERTEX
  8
0
  6
CONTINUOUS
 10
2.605680
 20
1.790800
  0
VERTEX
  8
0
  6
CONTINUOUS
 10
2.616680
 20
1.761320
  0
VERTEX
  8
0
  6
CONTINUOUS
 10
2.619760
 20
1.732720
  0
VERTEX
  8
0
  6
CONTINUOUS
 10
2.615360
 20
1.704560
  0
VERTEX
  8
0
  6
CONTINUOUS
 10
2.604360
 20
1.677720
  0
VERTEX
  8
0
  6
CONTINUOUS
 10
2.588080
 20
1.651760
  0
VERTEX
  8
0
  6
CONTINUOUS
 10
2.567400
 20
1.627120
  0
VERTEX
  8
0
  6
CONTINUOUS
 10
2.543200
 20
1.603800
  0
VERTEX
  8
0
  6
CONTINUOUS
 10
2.487320
 20
1.561120
  0
VERTEX
  8
0
  6
CONTINUOUS
 10
2.427920
 20
1.525480
  0
VERTEX
  8
0
  6
CONTINUOUS
 10
2.348720
 20
1.483680
  0
VERTEX
  8
0
  6
CONTINUOUS
 10
2.326280
 20
1.466960
  0
VERTEX
  8
0
  6
CONTINUOUS
 10
2.287560
 20
1.425600
  0
VERTEX
  8
0
  6
CONTINUOUS
 10
2.255440
 20
1.377640
  0
VERTEX
  8
0
  6
CONTINUOUS
 10
2.230800
 20
1.325720
  0
VERTEX
  8
0
  6
CONTINUOUS
 10
2.211880
 20
1.273800
  0
VERTEX
  8
0
  6
CONTINUOUS
 10
2.199120
 20
1.225400
  0
VERTEX
  8
0
  6
CONTINUOUS
 10
2.191640
 20
1.184040
  0
VERTEX
  8
0
  6
CONTINUOUS
 10
2.189000
 20
1.153680
  0
VERTEX
  8
0
  6
CONTINUOUS
 10
1.893320
 20
1.153680
  0
VERTEX
  8
0
  6
CONTINUOUS
 10
1.888920
 20
1.155000
  0
VERTEX
  8
0
  6
CONTINUOUS
 10
1.888920
 20
4.794680
  0
VERTEX
  8
0
  6
CONTINUOUS
 10
2.184160
 20
4.794680
  0
VERTEX
  8
0
  6
CONTINUOUS
 10
2.186800
 20
4.764320
  0
VERTEX
  8
0
  6
CONTINUOUS
 10
2.194280
 20
4.722960
  0
VERTEX
  8
0
  6
CONTINUOUS
 10
2.207480
 20
4.674560
  0
VERTEX
  8
0
  6
CONTINUOUS
 10
2.225960
 20
4.622640
  0
VERTEX
  8
0
  6
CONTINUOUS
 10
2.251040
 20
4.570720
  0
VERTEX
  8
0
  6
CONTINUOUS
 10
2.282720
 20
4.522760
  0
VERTEX
  8
0
  6
CONTINUOUS
 10
2.321880
 20
4.481400
  0
VERTEX
  8
0
  6
CONTINUOUS
 10
2.343880
 20
4.464680
  0
VERTEX
  8
0
  6
CONTINUOUS
 10
2.368520
 20
4.450600
  0
VERTEX
  8
0
  6
CONTINUOUS
 10
2.423520
 20
4.422880
  0
VERTEX
  8
0
  6
CONTINUOUS
 10
2.482480
 20
4.386800
  0
VERTEX
  8
0
  6
CONTINUOUS
 10
2.538360
 20
4.344560
  0
VERTEX
  8
0
  6
CONTINUOUS
 10
2.562560
 20
4.321240
  0
VERTEX
  8
0
  6
CONTINUOUS
 10
2.583680
 20
4.296600
  0
VERTEX
  8
0
  6
CONTINUOUS
 10
2.599960
 20
4.270640
  0
VERTEX
  8
0
  6
CONTINUOUS
 10
2.610520
 20
4.243800
  0
VERTEX
  8
0
  6
CONTINUOUS
 10
2.614920
 20
4.216080
  0
VERTEX
  8
0
  6
CONTINUOUS
 10
2.612280
 20
4.187040
  0
VERTEX
  8
0
  6
CONTINUOUS
 10
2.601280
 20
4.157560
  0
VERTEX
  8
0
  6
CONTINUOUS
 10
2.581040
 20
4.127200
  0
VERTEX
  8
0
  6
CONTINUOUS
 10
2.550680
 20
4.096400
  0
VERTEX
  8
0
  6
CONTINUOUS
 10
2.509760
 20
4.065160
  0
VERTEX
  8
0
  6
CONTINUOUS
 10
2.509760
 20
4.046240
  0
VERTEX
  8
0
  6
CONTINUOUS
 10
2.628560
 20
3.978480
  0
VERTEX
  8
0
  6
CONTINUOUS
 10
2.628560
 20
3.725040
  0
VERTEX
  8
0
  6
CONTINUOUS
 10
2.590280
 20
3.695560
  0
VERTEX
  8
0
  6
CONTINUOUS
 10
2.561240
 20
3.664760
  0
VERTEX
  8
0
  6
CONTINUOUS
 10
2.541440
 20
3.631320
  0
VERTEX
  8
0
  6
CONTINUOUS
 10
2.529120
 20
3.595680
  0
VERTEX
  8
0
  6
CONTINUOUS
 10
2.523400
 20
3.557840
  0
VERTEX
  8
0
  6
CONTINUOUS
 10
2.523840
 20
3.517800
  0
VERTEX
  8
0
  6
CONTINUOUS
 10
2.528680
 20
3.475120
  0
VERTEX
  8
0
  6
CONTINUOUS
 10
2.537480
 20
3.430240
  0
VERTEX
  8
0
  6
CONTINUOUS
 10
2.591600
 20
3.224760
  0
VERTEX
  8
0
  6
CONTINUOUS
 10
2.615800
 20
3.105960
  0
VERTEX
  8
0
  6
CONTINUOUS
 10
2.624160
 20
3.042160
  0
VERTEX
  8
0
  6
CONTINUOUS
 10
2.628120
 20
2.975720
  0
VERTEX
  8
0
  6
CONTINUOUS
 10
2.628560
 20
2.995520
  0
SEQEND
  8
0
  0
TEXT
  8
0
 10
2.331560
 20
0.868560
 40
0.138290
  1
BA  443
 41
1.000000
  7
SN0
 71
     0
 72
     5
 11
2.922586
 21
0.868560
  0
TEXT
  8
0
 10
2.083400
 20
0.677160
 40
0.138290
  1
3/4" x 3-11/16"
 41
1.000000
  7
SN0
 71
     0
 72
     5
 11
3.170393
 21
0.677160
  0
POLYLINE
  8
0
  6
CONTINUOUS
 66
     1
 40
0.014080
 41
0.014080
  0
VERTEX
  8
0
  6
CONTINUOUS
 10
5.942640
 20
4.432560
  0
VERTEX
  8
0
  6
CONTINUOUS
 10
6.011720
 20
4.429920
  0
VERTEX
  8
0
  6
CONTINUOUS
 10
6.077280
 20
4.422880
  0
VERTEX
  8
0
  6
CONTINUOUS
 10
6.140200
 20
4.412320
  0
VERTEX
  8
0
  6
CONTINUOUS
 10
6.229520
 20
4.392080
  0
VERTEX
  8
0
  6
CONTINUOUS
 10
6.412560
 20
4.343240
  0
VERTEX
  8
0
  6
CONTINUOUS
 10
6.481200
 20
4.330480
  0
VERTEX
  8
0
  6
CONTINUOUS
 10
6.523880
 20
4.326960
  0
VERTEX
  8
0
  6
CONTINUOUS
 10
6.563920
 20
4.329160
  0
VERTEX
  8
0
  6
CONTINUOUS
 10
6.582840
 20
4.332240
  0
VERTEX
  8
0
  6
CONTINUOUS
 10
6.619360
 20
4.344120
  0
VERTEX
  8
0
  6
CONTINUOUS
 10
6.636960
 20
4.353360
  0
VERTEX
  8
0
  6
CONTINUOUS
 10
6.653680
 20
4.364360
  0
VERTEX
  8
0
  6
CONTINUOUS
 10
6.677880
 20
4.385040
  0
VERTEX
  8
0
  6
CONTINUOUS
 10
6.708240
 20
4.421560
  0
VERTEX
  8
0
  6
CONTINUOUS
 10
6.715280
 20
4.432560
  0
VERTEX
  8
0
  6
CONTINUOUS
 10
6.969160
 20
4.432560
  0
VERTEX
  8
0
  6
CONTINUOUS
 10
7.036480
 20
4.313760
  0
VERTEX
  8
0
  6
CONTINUOUS
 10
7.055840
 20
4.313760
  0
VERTEX
  8
0
  6
CONTINUOUS
 10
7.087080
 20
4.355120
  0
VERTEX
  8
0
  6
CONTINUOUS
 10
7.102480
 20
4.371400
  0
VERTEX
  8
0
  6
CONTINUOUS
 10
7.132840
 20
4.396480
  0
VERTEX
  8
0
  6
CONTINUOUS
 10
7.147800
 20
4.405280
  0
VERTEX
  8
0
  6
CONTINUOUS
 10
7.162760
 20
4.411880
  0
VERTEX
  8
0
  6
CONTINUOUS
 10
7.177720
 20
4.416280
  0
VERTEX
  8
0
  6
CONTINUOUS
 10
7.192240
 20
4.418920
  0
VERTEX
  8
0
  6
CONTINUOUS
 10
7.206320
 20
4.419360
  0
VERTEX
  8
0
  6
CONTINUOUS
 10
7.220400
 20
4.418040
  0
VERTEX
  8
0
  6
CONTINUOUS
 10
7.234480
 20
4.414960
  0
VERTEX
  8
0
  6
CONTINUOUS
 10
7.261320
 20
4.403960
  0
VERTEX
  8
0
  6
CONTINUOUS
 10
7.287280
 20
4.387680
  0
VERTEX
  8
0
  6
CONTINUOUS
 10
7.311920
 20
4.367000
  0
VERTEX
  8
0
  6
CONTINUOUS
 10
7.346240
 20
4.329600
  0
VERTEX
  8
0
  6
CONTINUOUS
 10
7.377480
 20
4.286920
  0
VERTEX
  8
0
  6
CONTINUOUS
 10
7.413120
 20
4.227520
  0
VERTEX
  8
0
  6
CONTINUOUS
 10
7.454920
 20
4.148320
  0
VERTEX
  8
0
  6
CONTINUOUS
 10
7.471640
 20
4.125880
  0
VERTEX
  8
0
  6
CONTINUOUS
 10
7.502000
 20
4.095960
  0
VERTEX
  8
0
  6
CONTINUOUS
 10
7.536320
 20
4.070000
  0
VERTEX
  8
0
  6
CONTINUOUS
 10
7.586920
 20
4.041840
  0
VERTEX
  8
0
  6
CONTINUOUS
 10
7.639280
 20
4.020280
  0
VERTEX
  8
0
  6
CONTINUOUS
 10
7.689880
 20
4.004440
  0
VERTEX
  8
0
  6
CONTINUOUS
 10
7.745320
 20
3.992560
  0
VERTEX
  8
0
  6
CONTINUOUS
 10
7.771720
 20
3.989480
  0
VERTEX
  8
0
  6
CONTINUOUS
 10
7.785360
 20
3.988600
  0
VERTEX
  8
0
  6
CONTINUOUS
 10
7.785360
 20
3.692920
  0
VERTEX
  8
0
  6
CONTINUOUS
 10
7.783600
 20
3.688080
  0
VERTEX
  8
0
  6
CONTINUOUS
 10
4.143920
 20
3.688080
  0
VERTEX
  8
0
  6
CONTINUOUS
 10
4.143920
 20
3.983760
  0
VERTEX
  8
0
  6
CONTINUOUS
 10
4.174720
 20
3.986400
  0
VERTEX
  8
0
  6
CONTINUOUS
 10
4.216080
 20
3.993880
  0
VERTEX
  8
0
  6
CONTINUOUS
 10
4.264480
 20
4.006640
  0
VERTEX
  8
0
  6
CONTINUOUS
 10
4.315960
 20
4.025560
  0
VERTEX
  8
0
  6
CONTINUOUS
 10
4.367880
 20
4.050640
  0
VERTEX
  8
0
  6
CONTINUOUS
 10
4.392960
 20
4.065600
  0
VERTEX
  8
0
  6
CONTINUOUS
 10
4.427280
 20
4.091120
  0
VERTEX
  8
0
  6
CONTINUOUS
 10
4.457640
 20
4.121040
  0
VERTEX
  8
0
  6
CONTINUOUS
 10
4.474360
 20
4.143480
  0
VERTEX
  8
0
  6
CONTINUOUS
 10
4.532880
 20
4.252160
  0
VERTEX
  8
0
  6
CONTINUOUS
 10
4.551800
 20
4.282080
  0
VERTEX
  8
0
  6
CONTINUOUS
 10
4.583040
 20
4.324760
  0
VERTEX
  8
0
  6
CONTINUOUS
 10
4.617360
 20
4.362160
  0
VERTEX
  8
0
  6
CONTINUOUS
 10
4.642000
 20
4.382840
  0
VERTEX
  8
0
  6
CONTINUOUS
 10
4.667960
 20
4.399120
  0
VERTEX
  8
0
  6
CONTINUOUS
 10
4.694800
 20
4.410120
  0
VERTEX
  8
0
  6
CONTINUOUS
 10
4.708880
 20
4.413200
  0
VERTEX
  8
0
  6
CONTINUOUS
 10
4.722960
 20
4.414520
  0
VERTEX
  8
0
  6
CONTINUOUS
 10
4.737040
 20
4.414080
  0
VERTEX
  8
0
  6
CONTINUOUS
 10
4.751560
 20
4.411880
  0
VERTEX
  8
0
  6
CONTINUOUS
 10
4.766520
 20
4.407480
  0
VERTEX
  8
0
  6
CONTINUOUS
 10
4.781480
 20
4.400880
  0
VERTEX
  8
0
  6
CONTINUOUS
 10
4.796440
 20
4.392080
  0
VERTEX
  8
0
  6
CONTINUOUS
 10
4.826800
 20
4.367000
  0
VERTEX
  8
0
  6
CONTINUOUS
 10
4.850120
 20
4.341480
  0
VERTEX
  8
0
  6
CONTINUOUS
 10
4.873440
 20
4.309360
  0
VERTEX
  8
0
  6
CONTINUOUS
 10
4.892800
 20
4.309360
  0
VERTEX
  8
0
  6
CONTINUOUS
 10
4.960120
 20
4.428160
  0
VERTEX
  8
0
  6
CONTINUOUS
 10
5.214000
 20
4.428160
  0
VERTEX
  8
0
  6
CONTINUOUS
 10
5.236000
 20
4.397800
  0
VERTEX
  8
0
  6
CONTINUOUS
 10
5.259320
 20
4.373160
  0
VERTEX
  8
0
  6
CONTINUOUS
 10
5.275600
 20
4.359960
  0
VERTEX
  8
0
  6
CONTINUOUS
 10
5.292320
 20
4.348960
  0
VERTEX
  8
0
  6
CONTINUOUS
 10
5.309920
 20
4.339720
  0
VERTEX
  8
0
  6
CONTINUOUS
 10
5.346440
 20
4.327840
  0
VERTEX
  8
0
  6
CONTINUOUS
 10
5.385160
 20
4.323000
  0
VERTEX
  8
0
  6
CONTINUOUS
 10
5.405400
 20
4.322560
  0
VERTEX
  8
0
  6
CONTINUOUS
 10
5.448080
 20
4.326080
  0
VERTEX
  8
0
  6
CONTINUOUS
 10
5.516720
 20
4.338840
  0
VERTEX
  8
0
  6
CONTINUOUS
 10
5.728800
 20
4.394720
  0
VERTEX
  8
0
  6
CONTINUOUS
 10
5.819880
 20
4.413640
  0
VERTEX
  8
0
  6
CONTINUOUS
 10
5.884560
 20
4.422440
  0
VERTEX
  8
0
  6
CONTINUOUS
 10
5.917560
 20
4.425520
  0
VERTEX
  8
0
  6
CONTINUOUS
 10
5.986640
 20
4.428160
  0
VERTEX
  8
0
  6
CONTINUOUS
 10
5.942640
 20
4.432560
  0
SEQEND
  8
0
  0
ENDSEC
  0
EOF
