  0
SECTION
  2
HEADER
  9
$ACADVER
  1
AC1006
  9
$EXTMIN
 10
4.135560
 20
0.443960
  9
$EXTMAX
 10
7.584720
 20
3.012680
  9
$LTSCALE
 40
0.044000
  9
$PDMODE
 70
    35
  9
$PDSIZE
 40
0.035200
  0
ENDSEC
  0
SECTION
  2
TABLES
  0
TABLE
  2
LTYPE
 70
     9
  0
LTYPE
  2
CONTINUOUS
 70
    64
  3
Solid line
 72
    65
 73
     0
 40
0.000000
  0
LTYPE
  2
DASHED
 70
    64
  3
__ __ __ __ __ __ __ __ __ __ __ __ __ __ __
 72
    65
 73
     2
 40
0.000330
 49
0.000220
 49
-0.000110
  0
LTYPE
  2
HIDDEN
 70
    64
  3
 _ _ _ _ _ _ _ _ _ _ _ _ _ _ _ _ _ _ _ _ _ _
 72
    65
 73
     2
 40
0.000165
 49
0.000110
 49
-0.000055
  0
LTYPE
  2
CENTER
 70
    64
  3
____ _ ____ _ ____ _ ____ _ ____ _ ____ _ ____
 72
    65
 73
     4
 40
0.000880
 49
0.000550
 49
-0.000110
 49
0.000110
 49
-0.000110
  0
LTYPE
  2
PHANTOM
 70
    64
  3
_____ _ _ _____ _ _ _____ _ _ _____ _ _ ____
 72
    65
 73
     6
 40
0.001100
 49
0.000550
 49
-0.000110
 49
0.000110
 49
-0.000110
 49
0.000110
 49
-0.000110
  0
LTYPE
  2
DOT
 70
    64
  3
...............................................
 72
    65
 73
     2
 40
0.000110
 49
0.000000
 49
-0.000110
  0
LTYPE
  2
DASHDOT
 70
    64
  3
__ . __ . __ . __ . __ . __ . __ . __ . __ . __
 72
    65
 73
     4
 40
0.000440
 49
0.000220
 49
-0.000110
 49
0.000000
 49
-0.000110
  0
LTYPE
  2
BORDER
 70
    64
  3
__ __ . __ __ . __ __ . __ __ . __ __ . __ __
 72
    65
 73
     6
 40
0.000770
 49
0.000220
 49
-0.000110
 49
0.000220
 49
-0.000110
 49
0.000000
 49
-0.000110
  0
LTYPE
  2
DIVIDE
 70
    64
  3
__ . . __ . . __ . . __ . . __ . . __ . . __
 72
    65
 73
     6
 40
0.000550
 49
0.000220
 49
-0.000110
 49
0.000000
 49
-0.000110
 49
0.000000
 49
-0.000110
  0
LTYPE
  2
DOTDOT
 70
    64
  3
 . .  . .  . .  . .  . .  . . 
 72
    65
 73
     5
 40
0.000242
 49
-0.000110
 49
0.000000
 49
-0.000110
 49
0.000000
 49
-0.000110
  0
ENDTAB
  0
TABLE
  2
STYLE
 70
     2
  0
STYLE
 70
     0
  2
SN0
 40
0.000000
 41
0.000440
 50
0.000000
 71
     0
 42
0.000000
  3
ROMAND
  0
STYLE
 70
    68
  2
SV0
 40
0.000000
 41
0.000440
 50
0.000000
 71
     0
 42
0.000000
  3
ROMAND
  0
ENDTAB
  0
TABLE
  2
LAYER
 70
     3
  0
LAYER
  2
FOREGROUND
 70
    64
 62
     7
  6
CONTINUOUS
  0
LAYER
  2
BACKGROUND
 70
    65
 62
    -7
  6
CONTINUOUS
  0
LAYER
  2
0
 70
    64
 62
     7
  6
CONTINUOUS
  0
ENDTAB
  0
ENDSEC
  0
SECTION
  2
ENTITIES
  0
POLYLINE
  8
FOREGROUND
  6
CONTINUOUS
 66
     1
 40
0.000000
 41
0.000000
  0
VERTEX
  8
FOREGROUND
  6
CONTINUOUS
 10
0.000000
 20
3.456640
  0
VERTEX
  8
FOREGROUND
  6
CONTINUOUS
 10
8.499920
 20
3.456640
  0
VERTEX
  8
FOREGROUND
  6
CONTINUOUS
 10
8.499920
 20
-7.543360
  0
VERTEX
  8
FOREGROUND
  6
CONTINUOUS
 10
0.000000
 20
-7.543360
  0
VERTEX
  8
FOREGROUND
  6
CONTINUOUS
 10
0.000000
 20
3.456640
  0
SEQEND
  8
0
  0
POLYLINE
  8
0
  6
CONTINUOUS
 66
     1
 40
0.014080
 41
0.014080
  0
VERTEX
  8
0
  6
CONTINUOUS
 10
5.324000
 20
2.637360
  0
VERTEX
  8
0
  6
CONTINUOUS
 10
5.324000
 20
2.696320
  0
VERTEX
  8
0
  6
CONTINUOUS
 10
5.337640
 20
2.696320
  0
VERTEX
  8
0
  6
CONTINUOUS
 10
5.350400
 20
2.696760
  0
VERTEX
  8
0
  6
CONTINUOUS
 10
5.362280
 20
2.697200
  0
VERTEX
  8
0
  6
CONTINUOUS
 10
5.372840
 20
2.698080
  0
VERTEX
  8
0
  6
CONTINUOUS
 10
5.382960
 20
2.698960
  0
VERTEX
  8
0
  6
CONTINUOUS
 10
5.392200
 20
2.699840
  0
VERTEX
  8
0
  6
CONTINUOUS
 10
5.400560
 20
2.701160
  0
VERTEX
  8
0
  6
CONTINUOUS
 10
5.408040
 20
2.702480
  0
VERTEX
  8
0
  6
CONTINUOUS
 10
5.415080
 20
2.704240
  0
VERTEX
  8
0
  6
CONTINUOUS
 10
5.421680
 20
2.706000
  0
VERTEX
  8
0
  6
CONTINUOUS
 10
5.432680
 20
2.710400
  0
VERTEX
  8
0
  6
CONTINUOUS
 10
5.441920
 20
2.715240
  0
VERTEX
  8
0
  6
CONTINUOUS
 10
5.449840
 20
2.720960
  0
VERTEX
  8
0
  6
CONTINUOUS
 10
5.456880
 20
2.727120
  0
VERTEX
  8
0
  6
CONTINUOUS
 10
5.463040
 20
2.734160
  0
VERTEX
  8
0
  6
CONTINUOUS
 10
5.468760
 20
2.741640
  0
VERTEX
  8
0
  6
CONTINUOUS
 10
5.474920
 20
2.750000
  0
VERTEX
  8
0
  6
CONTINUOUS
 10
5.481080
 20
2.759240
  0
VERTEX
  8
0
  6
CONTINUOUS
 10
5.488560
 20
2.768480
  0
VERTEX
  8
0
  6
CONTINUOUS
 10
5.497360
 20
2.779040
  0
VERTEX
  8
0
  6
CONTINUOUS
 10
5.507920
 20
2.789600
  0
VERTEX
  8
0
  6
CONTINUOUS
 10
5.520240
 20
2.800160
  0
VERTEX
  8
0
  6
CONTINUOUS
 10
5.534320
 20
2.809400
  0
VERTEX
  8
0
  6
CONTINUOUS
 10
5.549720
 20
2.817760
  0
VERTEX
  8
0
  6
CONTINUOUS
 10
5.566880
 20
2.825240
  0
VERTEX
  8
0
  6
CONTINUOUS
 10
5.584920
 20
2.831840
  0
VERTEX
  8
0
  6
CONTINUOUS
 10
5.603840
 20
2.837560
  0
VERTEX
  8
0
  6
CONTINUOUS
 10
5.624080
 20
2.842400
  0
VERTEX
  8
0
  6
CONTINUOUS
 10
5.644760
 20
2.846360
  0
VERTEX
  8
0
  6
CONTINUOUS
 10
5.665880
 20
2.849880
  0
VERTEX
  8
0
  6
CONTINUOUS
 10
5.687440
 20
2.852080
  0
VERTEX
  8
0
  6
CONTINUOUS
 10
5.731440
 20
2.855600
  0
VERTEX
  8
0
  6
CONTINUOUS
 10
5.774560
 20
2.856480
  0
VERTEX
  8
0
  6
CONTINUOUS
 10
5.795680
 20
2.856480
  0
VERTEX
  8
0
  6
CONTINUOUS
 10
5.816360
 20
2.855600
  0
VERTEX
  8
0
  6
CONTINUOUS
 10
5.816360
 20
2.916760
  0
VERTEX
  8
0
  6
CONTINUOUS
 10
5.956280
 20
2.916760
  0
VERTEX
  8
0
  6
CONTINUOUS
 10
5.956280
 20
3.005200
  0
VERTEX
  8
0
  6
CONTINUOUS
 10
6.402000
 20
3.005200
  0
VERTEX
  8
0
  6
CONTINUOUS
 10
6.402000
 20
2.203960
  0
VERTEX
  8
0
  6
CONTINUOUS
 10
5.314320
 20
2.203960
  0
VERTEX
  8
0
  6
CONTINUOUS
 10
5.314320
 20
2.363240
  0
VERTEX
  8
0
  6
CONTINUOUS
 10
5.650040
 20
2.377760
  0
VERTEX
  8
0
  6
CONTINUOUS
 10
5.650040
 20
2.635160
  0
VERTEX
  8
0
  6
CONTINUOUS
 10
5.324000
 20
2.635160
  0
SEQEND
  8
0
  0
POLYLINE
  8
0
  6
CONTINUOUS
 66
     1
 40
0.014080
 41
0.014080
  0
VERTEX
  8
0
  6
CONTINUOUS
 10
4.678520
 20
2.637800
  0
VERTEX
  8
0
  6
CONTINUOUS
 10
4.678520
 20
2.696760
  0
VERTEX
  8
0
  6
CONTINUOUS
 10
4.692160
 20
2.696760
  0
VERTEX
  8
0
  6
CONTINUOUS
 10
4.704920
 20
2.697200
  0
VERTEX
  8
0
  6
CONTINUOUS
 10
4.716800
 20
2.697640
  0
VERTEX
  8
0
  6
CONTINUOUS
 10
4.727360
 20
2.698520
  0
VERTEX
  8
0
  6
CONTINUOUS
 10
4.737480
 20
2.699400
  0
VERTEX
  8
0
  6
CONTINUOUS
 10
4.746720
 20
2.700280
  0
VERTEX
  8
0
  6
CONTINUOUS
 10
4.755080
 20
2.701600
  0
VERTEX
  8
0
  6
CONTINUOUS
 10
4.762560
 20
2.702920
  0
VERTEX
  8
0
  6
CONTINUOUS
 10
4.769600
 20
2.704680
  0
VERTEX
  8
0
  6
CONTINUOUS
 10
4.776200
 20
2.706440
  0
VERTEX
  8
0
  6
CONTINUOUS
 10
4.787200
 20
2.710840
  0
VERTEX
  8
0
  6
CONTINUOUS
 10
4.796440
 20
2.715680
  0
VERTEX
  8
0
  6
CONTINUOUS
 10
4.804360
 20
2.721400
  0
VERTEX
  8
0
  6
CONTINUOUS
 10
4.810960
 20
2.727560
  0
VERTEX
  8
0
  6
CONTINUOUS
 10
4.817120
 20
2.734600
  0
VERTEX
  8
0
  6
CONTINUOUS
 10
4.822840
 20
2.742080
  0
VERTEX
  8
0
  6
CONTINUOUS
 10
4.829000
 20
2.750440
  0
VERTEX
  8
0
  6
CONTINUOUS
 10
4.835160
 20
2.759680
  0
VERTEX
  8
0
  6
CONTINUOUS
 10
4.842640
 20
2.768920
  0
VERTEX
  8
0
  6
CONTINUOUS
 10
4.851440
 20
2.779480
  0
VERTEX
  8
0
  6
CONTINUOUS
 10
4.862000
 20
2.790040
  0
VERTEX
  8
0
  6
CONTINUOUS
 10
4.874320
 20
2.800600
  0
VERTEX
  8
0
  6
CONTINUOUS
 10
4.888400
 20
2.809840
  0
VERTEX
  8
0
  6
CONTINUOUS
 10
4.903800
 20
2.818200
  0
VERTEX
  8
0
  6
CONTINUOUS
 10
4.920960
 20
2.825680
  0
VERTEX
  8
0
  6
CONTINUOUS
 10
4.939000
 20
2.832280
  0
VERTEX
  8
0
  6
CONTINUOUS
 10
4.958360
 20
2.838000
  0
VERTEX
  8
0
  6
CONTINUOUS
 10
4.978160
 20
2.842840
  0
VERTEX
  8
0
  6
CONTINUOUS
 10
4.998840
 20
2.846800
  0
VERTEX
  8
0
  6
CONTINUOUS
 10
5.020400
 20
2.850320
  0
VERTEX
  8
0
  6
CONTINUOUS
 10
5.041960
 20
2.852520
  0
VERTEX
  8
0
  6
CONTINUOUS
 10
5.085960
 20
2.856040
  0
VERTEX
  8
0
  6
CONTINUOUS
 10
5.129080
 20
2.856920
  0
VERTEX
  8
0
  6
CONTINUOUS
 10
5.150200
 20
2.856920
  0
VERTEX
  8
0
  6
CONTINUOUS
 10
5.170880
 20
2.856040
  0
VERTEX
  8
0
  6
CONTINUOUS
 10
5.170880
 20
2.917200
  0
VERTEX
  8
0
  6
CONTINUOUS
 10
5.310360
 20
2.917200
  0
VERTEX
  8
0
  6
CONTINUOUS
 10
5.310360
 20
3.005200
  0
SEQEND
  8
0
  0
POLYLINE
  8
0
  6
CONTINUOUS
 66
     1
 40
0.014080
 41
0.014080
  0
VERTEX
  8
0
  6
CONTINUOUS
 10
4.668840
 20
2.204400
  0
VERTEX
  8
0
  6
CONTINUOUS
 10
4.668840
 20
2.363680
  0
VERTEX
  8
0
  6
CONTINUOUS
 10
5.004120
 20
2.378200
  0
VERTEX
  8
0
  6
CONTINUOUS
 10
5.004120
 20
2.635600
  0
VERTEX
  8
0
  6
CONTINUOUS
 10
4.678520
 20
2.635600
  0
SEQEND
  8
0
  0
POLYLINE
  8
0
  6
CONTINUOUS
 66
     1
 40
0.014080
 41
0.014080
  0
VERTEX
  8
0
  6
CONTINUOUS
 10
5.310800
 20
3.005200
  0
VERTEX
  8
0
  6
CONTINUOUS
 10
4.221360
 20
3.005200
  0
VERTEX
  8
0
  6
CONTINUOUS
 10
4.221360
 20
2.204400
  0
VERTEX
  8
0
  6
CONTINUOUS
 10
4.669720
 20
2.204400
  0
SEQEND
  8
0
  0
SOLID
  8
0
 62
     7
 10
5.003680
 20
1.310760
 11
5.603840
 21
1.639880
 12
5.030080
 22
1.290960
 13
5.630680
 23
1.620080
  0
POLYLINE
  8
0
  6
CONTINUOUS
 66
     1
 40
0.000000
 41
0.000000
  0
VERTEX
  8
0
  6
CONTINUOUS
 10
5.003680
 20
1.310760
  0
VERTEX
  8
0
  6
CONTINUOUS
 10
5.603840
 20
1.639880
  0
VERTEX
  8
0
  6
CONTINUOUS
 10
5.630680
 20
1.620080
  0
VERTEX
  8
0
  6
CONTINUOUS
 10
5.030080
 20
1.290960
  0
VERTEX
  8
0
  6
CONTINUOUS
 10
5.003680
 20
1.310760
  0
SEQEND
  8
0
  0
SOLID
  8
0
 62
    15
 10
4.887960
 20
0.879120
 11
5.488560
 21
1.208680
 12
5.223680
 22
0.864600
 13
5.823840
 23
1.193720
  0
POLYLINE
  8
0
  6
CONTINUOUS
 66
     1
 40
0.000000
 41
0.000000
  0
VERTEX
  8
0
  6
CONTINUOUS
 10
4.887960
 20
0.879120
  0
VERTEX
  8
0
  6
CONTINUOUS
 10
5.488560
 20
1.208680
  0
VERTEX
  8
0
  6
CONTINUOUS
 10
5.823840
 20
1.193720
  0
VERTEX
  8
0
  6
CONTINUOUS
 10
5.223680
 20
0.864600
  0
VERTEX
  8
0
  6
CONTINUOUS
 10
4.887960
 20
0.879120
  0
SEQEND
  8
0
  0
SOLID
  8
0
 62
    15
 10
5.223680
 20
0.864600
 11
5.823840
 21
1.193720
 12
5.223680
 22
0.705320
 13
5.823840
 23
1.034440
  0
POLYLINE
  8
0
  6
CONTINUOUS
 66
     1
 40
0.000000
 41
0.000000
  0
VERTEX
  8
0
  6
CONTINUOUS
 10
5.223680
 20
0.864600
  0
VERTEX
  8
0
  6
CONTINUOUS
 10
5.823840
 20
1.193720
  0
VERTEX
  8
0
  6
CONTINUOUS
 10
5.823840
 20
1.034440
  0
VERTEX
  8
0
  6
CONTINUOUS
 10
5.223680
 20
0.705320
  0
VERTEX
  8
0
  6
CONTINUOUS
 10
5.223680
 20
0.864600
  0
SEQEND
  8
0
  0
SOLID
  8
0
 62
    15
 10
4.136000
 20
1.506560
 11
4.736160
 21
1.835680
 12
4.581720
 22
1.506560
 13
5.182320
 23
1.835680
  0
POLYLINE
  8
0
  6
CONTINUOUS
 66
     1
 40
0.000000
 41
0.000000
  0
VERTEX
  8
0
  6
CONTINUOUS
 10
4.136000
 20
1.506560
  0
VERTEX
  8
0
  6
CONTINUOUS
 10
4.736160
 20
1.835680
  0
VERTEX
  8
0
  6
CONTINUOUS
 10
5.182320
 20
1.835680
  0
VERTEX
  8
0
  6
CONTINUOUS
 10
4.581720
 20
1.506560
  0
VERTEX
  8
0
  6
CONTINUOUS
 10
4.136000
 20
1.506560
  0
SEQEND
  8
0
  0
SOLID
  8
0
 62
    15
 10
4.581720
 20
1.506560
 11
5.182320
 21
1.835680
 12
4.581720
 22
1.418120
 13
5.182320
 23
1.747680
  0
POLYLINE
  8
0
  6
CONTINUOUS
 66
     1
 40
0.000000
 41
0.000000
  0
VERTEX
  8
0
  6
CONTINUOUS
 10
4.581720
 20
1.506560
  0
VERTEX
  8
0
  6
CONTINUOUS
 10
5.182320
 20
1.835680
  0
VERTEX
  8
0
  6
CONTINUOUS
 10
5.182320
 20
1.747680
  0
VERTEX
  8
0
  6
CONTINUOUS
 10
4.581720
 20
1.418120
  0
VERTEX
  8
0
  6
CONTINUOUS
 10
4.581720
 20
1.506560
  0
SEQEND
  8
0
  0
SOLID
  8
0
 62
    15
 10
4.581720
 20
1.418120
 11
5.182320
 21
1.747680
 12
4.721640
 22
1.418120
 13
5.321800
 23
1.747680
  0
POLYLINE
  8
0
  6
CONTINUOUS
 66
     1
 40
0.000000
 41
0.000000
  0
VERTEX
  8
0
  6
CONTINUOUS
 10
4.581720
 20
1.418120
  0
VERTEX
  8
0
  6
CONTINUOUS
 10
5.182320
 20
1.747680
  0
VERTEX
  8
0
  6
CONTINUOUS
 10
5.321800
 20
1.747680
  0
VERTEX
  8
0
  6
CONTINUOUS
 10
4.721640
 20
1.418120
  0
VERTEX
  8
0
  6
CONTINUOUS
 10
4.581720
 20
1.418120
  0
SEQEND
  8
0
  0
SOLID
  8
0
 62
    15
 10
4.721640
 20
1.418120
 11
5.321800
 21
1.747680
 12
4.721640
 22
1.356960
 13
5.321800
 23
1.686080
  0
POLYLINE
  8
0
  6
CONTINUOUS
 66
     1
 40
0.000000
 41
0.000000
  0
VERTEX
  8
0
  6
CONTINUOUS
 10
4.721640
 20
1.418120
  0
VERTEX
  8
0
  6
CONTINUOUS
 10
5.321800
 20
1.747680
  0
VERTEX
  8
0
  6
CONTINUOUS
 10
5.321800
 20
1.686080
  0
VERTEX
  8
0
  6
CONTINUOUS
 10
4.721640
 20
1.356960
  0
VERTEX
  8
0
  6
CONTINUOUS
 10
4.721640
 20
1.418120
  0
SEQEND
  8
0
  0
SOLID
  8
0
 62
    15
 10
4.721640
 20
1.356960
 11
5.321800
 21
1.686080
 12
4.806560
 22
1.356960
 13
5.406720
 23
1.686080
  0
POLYLINE
  8
0
  6
CONTINUOUS
 66
     1
 40
0.000000
 41
0.000000
  0
VERTEX
  8
0
  6
CONTINUOUS
 10
4.721640
 20
1.356960
  0
VERTEX
  8
0
  6
CONTINUOUS
 10
5.321800
 20
1.686080
  0
VERTEX
  8
0
  6
CONTINUOUS
 10
5.406720
 20
1.686080
  0
VERTEX
  8
0
  6
CONTINUOUS
 10
4.806560
 20
1.356960
  0
VERTEX
  8
0
  6
CONTINUOUS
 10
4.721640
 20
1.356960
  0
SEQEND
  8
0
  0
SOLID
  8
0
 62
    15
 10
4.806560
 20
1.356960
 11
5.406720
 21
1.686080
 12
4.893240
 22
1.347720
 13
5.493840
 23
1.677280
  0
POLYLINE
  8
0
  6
CONTINUOUS
 66
     1
 40
0.000000
 41
0.000000
  0
VERTEX
  8
0
  6
CONTINUOUS
 10
4.806560
 20
1.356960
  0
VERTEX
  8
0
  6
CONTINUOUS
 10
5.406720
 20
1.686080
  0
VERTEX
  8
0
  6
CONTINUOUS
 10
5.493840
 20
1.677280
  0
VERTEX
  8
0
  6
CONTINUOUS
 10
4.893240
 20
1.347720
  0
VERTEX
  8
0
  6
CONTINUOUS
 10
4.806560
 20
1.356960
  0
SEQEND
  8
0
  0
SOLID
  8
0
 62
    15
 10
4.893240
 20
1.347720
 11
5.493840
 21
1.677280
 12
4.934160
 22
1.338920
 13
5.534320
 23
1.668040
  0
POLYLINE
  8
0
  6
CONTINUOUS
 66
     1
 40
0.000000
 41
0.000000
  0
VERTEX
  8
0
  6
CONTINUOUS
 10
4.893240
 20
1.347720
  0
VERTEX
  8
0
  6
CONTINUOUS
 10
5.493840
 20
1.677280
  0
VERTEX
  8
0
  6
CONTINUOUS
 10
5.534320
 20
1.668040
  0
VERTEX
  8
0
  6
CONTINUOUS
 10
4.934160
 20
1.338920
  0
VERTEX
  8
0
  6
CONTINUOUS
 10
4.893240
 20
1.347720
  0
SEQEND
  8
0
  0
SOLID
  8
0
 62
    15
 10
4.934160
 20
1.338920
 11
5.534320
 21
1.668040
 12
4.971120
 22
1.326600
 13
5.571720
 23
1.655720
  0
POLYLINE
  8
0
  6
CONTINUOUS
 66
     1
 40
0.000000
 41
0.000000
  0
VERTEX
  8
0
  6
CONTINUOUS
 10
4.934160
 20
1.338920
  0
VERTEX
  8
0
  6
CONTINUOUS
 10
5.534320
 20
1.668040
  0
VERTEX
  8
0
  6
CONTINUOUS
 10
5.571720
 20
1.655720
  0
VERTEX
  8
0
  6
CONTINUOUS
 10
4.971120
 20
1.326600
  0
VERTEX
  8
0
  6
CONTINUOUS
 10
4.934160
 20
1.338920
  0
SEQEND
  8
0
  0
SOLID
  8
0
 62
    15
 10
4.971120
 20
1.326600
 11
5.571720
 21
1.655720
 12
5.003680
 22
1.310760
 13
5.603840
 23
1.639880
  0
POLYLINE
  8
0
  6
CONTINUOUS
 66
     1
 40
0.000000
 41
0.000000
  0
VERTEX
  8
0
  6
CONTINUOUS
 10
4.971120
 20
1.326600
  0
VERTEX
  8
0
  6
CONTINUOUS
 10
5.571720
 20
1.655720
  0
VERTEX
  8
0
  6
CONTINUOUS
 10
5.603840
 20
1.639880
  0
VERTEX
  8
0
  6
CONTINUOUS
 10
5.003680
 20
1.310760
  0
VERTEX
  8
0
  6
CONTINUOUS
 10
4.971120
 20
1.326600
  0
SEQEND
  8
0
  0
SOLID
  8
0
 62
    15
 10
4.887960
 20
1.136520
 11
5.488560
 21
1.465640
 12
4.887960
 22
0.879120
 13
5.488560
 23
1.208680
  0
POLYLINE
  8
0
  6
CONTINUOUS
 66
     1
 40
0.000000
 41
0.000000
  0
VERTEX
  8
0
  6
CONTINUOUS
 10
4.887960
 20
1.136520
  0
VERTEX
  8
0
  6
CONTINUOUS
 10
5.488560
 20
1.465640
  0
VERTEX
  8
0
  6
CONTINUOUS
 10
5.488560
 20
1.208680
  0
VERTEX
  8
0
  6
CONTINUOUS
 10
4.887960
 20
0.879120
  0
VERTEX
  8
0
  6
CONTINUOUS
 10
4.887960
 20
1.136520
  0
SEQEND
  8
0
  0
SOLID
  8
0
 62
     7
 10
5.030080
 20
1.290960
 11
5.630680
 21
1.620080
 12
5.049440
 22
1.269840
 13
5.649600
 23
1.599400
  0
POLYLINE
  8
0
  6
CONTINUOUS
 66
     1
 40
0.000000
 41
0.000000
  0
VERTEX
  8
0
  6
CONTINUOUS
 10
5.030080
 20
1.290960
  0
VERTEX
  8
0
  6
CONTINUOUS
 10
5.630680
 20
1.620080
  0
VERTEX
  8
0
  6
CONTINUOUS
 10
5.649600
 20
1.599400
  0
VERTEX
  8
0
  6
CONTINUOUS
 10
5.049440
 20
1.269840
  0
VERTEX
  8
0
  6
CONTINUOUS
 10
5.030080
 20
1.290960
  0
SEQEND
  8
0
  0
SOLID
  8
0
 62
     7
 10
5.049440
 20
1.269840
 11
5.649600
 21
1.599400
 12
5.063520
 22
1.251360
 13
5.663680
 23
1.580920
  0
POLYLINE
  8
0
  6
CONTINUOUS
 66
     1
 40
0.000000
 41
0.000000
  0
VERTEX
  8
0
  6
CONTINUOUS
 10
5.049440
 20
1.269840
  0
VERTEX
  8
0
  6
CONTINUOUS
 10
5.649600
 20
1.599400
  0
VERTEX
  8
0
  6
CONTINUOUS
 10
5.663680
 20
1.580920
  0
VERTEX
  8
0
  6
CONTINUOUS
 10
5.063520
 20
1.251360
  0
VERTEX
  8
0
  6
CONTINUOUS
 10
5.049440
 20
1.269840
  0
SEQEND
  8
0
  0
SOLID
  8
0
 62
     7
 10
5.063520
 20
1.251360
 11
5.663680
 21
1.580920
 12
5.069240
 22
1.243000
 13
5.669400
 23
1.572560
  0
POLYLINE
  8
0
  6
CONTINUOUS
 66
     1
 40
0.000000
 41
0.000000
  0
VERTEX
  8
0
  6
CONTINUOUS
 10
5.063520
 20
1.251360
  0
VERTEX
  8
0
  6
CONTINUOUS
 10
5.663680
 20
1.580920
  0
VERTEX
  8
0
  6
CONTINUOUS
 10
5.669400
 20
1.572560
  0
VERTEX
  8
0
  6
CONTINUOUS
 10
5.069240
 20
1.243000
  0
VERTEX
  8
0
  6
CONTINUOUS
 10
5.063520
 20
1.251360
  0
SEQEND
  8
0
  0
SOLID
  8
0
 62
     7
 10
5.069240
 20
1.243000
 11
5.669400
 21
1.572560
 12
5.074960
 22
1.235520
 13
5.675560
 23
1.564640
  0
POLYLINE
  8
0
  6
CONTINUOUS
 66
     1
 40
0.000000
 41
0.000000
  0
VERTEX
  8
0
  6
CONTINUOUS
 10
5.069240
 20
1.243000
  0
VERTEX
  8
0
  6
CONTINUOUS
 10
5.669400
 20
1.572560
  0
VERTEX
  8
0
  6
CONTINUOUS
 10
5.675560
 20
1.564640
  0
VERTEX
  8
0
  6
CONTINUOUS
 10
5.074960
 20
1.235520
  0
VERTEX
  8
0
  6
CONTINUOUS
 10
5.069240
 20
1.243000
  0
SEQEND
  8
0
  0
SOLID
  8
0
 62
     7
 10
5.074960
 20
1.235520
 11
5.675560
 21
1.564640
 12
5.088160
 22
1.222320
 13
5.688320
 23
1.551440
  0
POLYLINE
  8
0
  6
CONTINUOUS
 66
     1
 40
0.000000
 41
0.000000
  0
VERTEX
  8
0
  6
CONTINUOUS
 10
5.074960
 20
1.235520
  0
VERTEX
  8
0
  6
CONTINUOUS
 10
5.675560
 20
1.564640
  0
VERTEX
  8
0
  6
CONTINUOUS
 10
5.688320
 20
1.551440
  0
VERTEX
  8
0
  6
CONTINUOUS
 10
5.088160
 20
1.222320
  0
VERTEX
  8
0
  6
CONTINUOUS
 10
5.074960
 20
1.235520
  0
SEQEND
  8
0
  0
SOLID
  8
0
 62
     7
 10
5.088160
 20
1.222320
 11
5.688320
 21
1.551440
 12
5.105320
 22
1.211760
 13
5.705480
 23
1.540880
  0
POLYLINE
  8
0
  6
CONTINUOUS
 66
     1
 40
0.000000
 41
0.000000
  0
VERTEX
  8
0
  6
CONTINUOUS
 10
5.088160
 20
1.222320
  0
VERTEX
  8
0
  6
CONTINUOUS
 10
5.688320
 20
1.551440
  0
VERTEX
  8
0
  6
CONTINUOUS
 10
5.705480
 20
1.540880
  0
VERTEX
  8
0
  6
CONTINUOUS
 10
5.105320
 20
1.211760
  0
VERTEX
  8
0
  6
CONTINUOUS
 10
5.088160
 20
1.222320
  0
SEQEND
  8
0
  0
SOLID
  8
0
 62
    15
 10
5.105320
 20
1.211760
 11
5.705480
 21
1.540880
 12
5.129520
 22
1.203840
 13
5.730120
 23
1.533400
  0
POLYLINE
  8
0
  6
CONTINUOUS
 66
     1
 40
0.000000
 41
0.000000
  0
VERTEX
  8
0
  6
CONTINUOUS
 10
5.105320
 20
1.211760
  0
VERTEX
  8
0
  6
CONTINUOUS
 10
5.705480
 20
1.540880
  0
VERTEX
  8
0
  6
CONTINUOUS
 10
5.730120
 20
1.533400
  0
VERTEX
  8
0
  6
CONTINUOUS
 10
5.129520
 20
1.203840
  0
VERTEX
  8
0
  6
CONTINUOUS
 10
5.105320
 20
1.211760
  0
SEQEND
  8
0
  0
SOLID
  8
0
 62
    15
 10
5.129520
 20
1.203840
 11
5.730120
 21
1.533400
 12
5.164720
 22
1.199440
 13
5.765320
 23
1.528560
  0
POLYLINE
  8
0
  6
CONTINUOUS
 66
     1
 40
0.000000
 41
0.000000
  0
VERTEX
  8
0
  6
CONTINUOUS
 10
5.129520
 20
1.203840
  0
VERTEX
  8
0
  6
CONTINUOUS
 10
5.730120
 20
1.533400
  0
VERTEX
  8
0
  6
CONTINUOUS
 10
5.765320
 20
1.528560
  0
VERTEX
  8
0
  6
CONTINUOUS
 10
5.164720
 20
1.199440
  0
VERTEX
  8
0
  6
CONTINUOUS
 10
5.129520
 20
1.203840
  0
SEQEND
  8
0
  0
SOLID
  8
0
 62
    15
 10
5.164720
 20
1.199440
 11
5.765320
 21
1.528560
 12
5.187600
 22
1.198120
 13
5.787760
 23
1.527240
  0
POLYLINE
  8
0
  6
CONTINUOUS
 66
     1
 40
0.000000
 41
0.000000
  0
VERTEX
  8
0
  6
CONTINUOUS
 10
5.164720
 20
1.199440
  0
VERTEX
  8
0
  6
CONTINUOUS
 10
5.765320
 20
1.528560
  0
VERTEX
  8
0
  6
CONTINUOUS
 10
5.787760
 20
1.527240
  0
VERTEX
  8
0
  6
CONTINUOUS
 10
5.187600
 20
1.198120
  0
VERTEX
  8
0
  6
CONTINUOUS
 10
5.164720
 20
1.199440
  0
SEQEND
  8
0
  0
SOLID
  8
0
 62
    15
 10
5.187600
 20
1.198120
 11
5.787760
 21
1.527240
 12
5.214000
 22
1.197680
 13
5.814160
 23
1.526800
  0
POLYLINE
  8
0
  6
CONTINUOUS
 66
     1
 40
0.000000
 41
0.000000
  0
VERTEX
  8
0
  6
CONTINUOUS
 10
5.187600
 20
1.198120
  0
VERTEX
  8
0
  6
CONTINUOUS
 10
5.787760
 20
1.527240
  0
VERTEX
  8
0
  6
CONTINUOUS
 10
5.814160
 20
1.526800
  0
VERTEX
  8
0
  6
CONTINUOUS
 10
5.214000
 20
1.197680
  0
VERTEX
  8
0
  6
CONTINUOUS
 10
5.187600
 20
1.198120
  0
SEQEND
  8
0
  0
SOLID
  8
0
 62
    15
 10
5.214000
 20
1.197680
 11
5.814160
 21
1.526800
 12
5.214000
 22
1.139160
 13
5.814160
 23
1.468280
  0
POLYLINE
  8
0
  6
CONTINUOUS
 66
     1
 40
0.000000
 41
0.000000
  0
VERTEX
  8
0
  6
CONTINUOUS
 10
5.214000
 20
1.197680
  0
VERTEX
  8
0
  6
CONTINUOUS
 10
5.814160
 20
1.526800
  0
VERTEX
  8
0
  6
CONTINUOUS
 10
5.814160
 20
1.468280
  0
VERTEX
  8
0
  6
CONTINUOUS
 10
5.214000
 20
1.139160
  0
VERTEX
  8
0
  6
CONTINUOUS
 10
5.214000
 20
1.197680
  0
SEQEND
  8
0
  0
SOLID
  8
0
 62
    15
 10
5.214000
 20
1.139160
 11
5.814160
 21
1.468280
 12
5.214000
 22
1.136520
 13
5.814160
 23
1.465640
  0
POLYLINE
  8
0
  6
CONTINUOUS
 66
     1
 40
0.000000
 41
0.000000
  0
VERTEX
  8
0
  6
CONTINUOUS
 10
5.214000
 20
1.139160
  0
VERTEX
  8
0
  6
CONTINUOUS
 10
5.814160
 20
1.468280
  0
VERTEX
  8
0
  6
CONTINUOUS
 10
5.814160
 20
1.465640
  0
VERTEX
  8
0
  6
CONTINUOUS
 10
5.214000
 20
1.136520
  0
VERTEX
  8
0
  6
CONTINUOUS
 10
5.214000
 20
1.139160
  0
SEQEND
  8
0
  0
POLYLINE
  8
0
  6
CONTINUOUS
 66
     1
 40
0.000000
 41
0.000000
  0
VERTEX
  8
0
  6
CONTINUOUS
 10
5.214000
 20
1.136520
  0
VERTEX
  8
0
  6
CONTINUOUS
 10
4.887960
 20
1.136520
  0
VERTEX
  8
0
  6
CONTINUOUS
 10
4.887960
 20
0.879120
  0
VERTEX
  8
0
  6
CONTINUOUS
 10
5.223680
 20
0.864600
  0
VERTEX
  8
0
  6
CONTINUOUS
 10
5.223680
 20
0.705320
  0
VERTEX
  8
0
  6
CONTINUOUS
 10
4.136000
 20
0.705320
  0
VERTEX
  8
0
  6
CONTINUOUS
 10
4.136000
 20
1.506560
  0
VERTEX
  8
0
  6
CONTINUOUS
 10
4.581720
 20
1.506560
  0
VERTEX
  8
0
  6
CONTINUOUS
 10
4.581720
 20
1.418120
  0
VERTEX
  8
0
  6
CONTINUOUS
 10
4.721640
 20
1.418120
  0
VERTEX
  8
0
  6
CONTINUOUS
 10
4.721640
 20
1.356960
  0
VERTEX
  8
0
  6
CONTINUOUS
 10
4.806560
 20
1.356960
  0
VERTEX
  8
0
  6
CONTINUOUS
 10
4.893240
 20
1.347720
  0
VERTEX
  8
0
  6
CONTINUOUS
 10
4.934160
 20
1.338920
  0
VERTEX
  8
0
  6
CONTINUOUS
 10
4.971120
 20
1.326600
  0
VERTEX
  8
0
  6
CONTINUOUS
 10
5.003680
 20
1.310760
  0
VERTEX
  8
0
  6
CONTINUOUS
 10
5.030080
 20
1.290960
  0
VERTEX
  8
0
  6
CONTINUOUS
 10
5.049440
 20
1.269840
  0
VERTEX
  8
0
  6
CONTINUOUS
 10
5.063520
 20
1.251360
  0
VERTEX
  8
0
  6
CONTINUOUS
 10
5.069240
 20
1.243000
  0
VERTEX
  8
0
  6
CONTINUOUS
 10
5.074960
 20
1.235520
  0
VERTEX
  8
0
  6
CONTINUOUS
 10
5.088160
 20
1.222320
  0
VERTEX
  8
0
  6
CONTINUOUS
 10
5.105320
 20
1.211760
  0
VERTEX
  8
0
  6
CONTINUOUS
 10
5.129520
 20
1.203840
  0
VERTEX
  8
0
  6
CONTINUOUS
 10
5.164720
 20
1.199440
  0
VERTEX
  8
0
  6
CONTINUOUS
 10
5.187600
 20
1.198120
  0
VERTEX
  8
0
  6
CONTINUOUS
 10
5.214000
 20
1.197680
  0
VERTEX
  8
0
  6
CONTINUOUS
 10
5.214000
 20
1.139160
  0
VERTEX
  8
0
  6
CONTINUOUS
 10
5.214000
 20
1.136520
  0
SEQEND
  8
0
  0
SOLID
  8
0
 62
    15
 10
6.163960
 20
1.129920
 11
6.801960
 21
1.514040
 12
6.490000
 22
1.129920
 13
7.127560
 23
1.514040
  0
POLYLINE
  8
0
  6
CONTINUOUS
 66
     1
 40
0.000000
 41
0.000000
  0
VERTEX
  8
0
  6
CONTINUOUS
 10
6.163960
 20
1.129920
  0
VERTEX
  8
0
  6
CONTINUOUS
 10
6.801960
 20
1.514040
  0
VERTEX
  8
0
  6
CONTINUOUS
 10
7.127560
 20
1.514040
  0
VERTEX
  8
0
  6
CONTINUOUS
 10
6.490000
 20
1.129920
  0
VERTEX
  8
0
  6
CONTINUOUS
 10
6.163960
 20
1.129920
  0
SEQEND
  8
0
  0
SOLID
  8
0
 62
    15
 10
6.498800
 20
0.699160
 11
7.136360
 21
1.083280
 12
6.499680
 22
0.698720
 13
7.137240
 23
1.083280
  0
POLYLINE
  8
0
  6
CONTINUOUS
 66
     1
 40
0.000000
 41
0.000000
  0
VERTEX
  8
0
  6
CONTINUOUS
 10
6.498800
 20
0.699160
  0
VERTEX
  8
0
  6
CONTINUOUS
 10
7.136360
 20
1.083280
  0
VERTEX
  8
0
  6
CONTINUOUS
 10
7.137240
 20
1.083280
  0
VERTEX
  8
0
  6
CONTINUOUS
 10
6.499680
 20
0.698720
  0
VERTEX
  8
0
  6
CONTINUOUS
 10
6.498800
 20
0.699160
  0
SEQEND
  8
0
  0
SOLID
  8
0
 62
    15
 10
6.947160
 20
1.499520
 11
7.584720
 21
1.883640
 12
6.947160
 22
0.699160
 13
7.584720
 23
1.083280
  0
POLYLINE
  8
0
  6
CONTINUOUS
 66
     1
 40
0.000000
 41
0.000000
  0
VERTEX
  8
0
  6
CONTINUOUS
 10
6.947160
 20
1.499520
  0
VERTEX
  8
0
  6
CONTINUOUS
 10
7.584720
 20
1.883640
  0
VERTEX
  8
0
  6
CONTINUOUS
 10
7.584720
 20
1.083280
  0
VERTEX
  8
0
  6
CONTINUOUS
 10
6.947160
 20
0.699160
  0
VERTEX
  8
0
  6
CONTINUOUS
 10
6.947160
 20
1.499520
  0
SEQEND
  8
0
  0
SOLID
  8
0
 62
    15
 10
5.857280
 20
1.499520
 11
6.495280
 21
1.883640
 12
6.947160
 22
1.499520
 13
7.584720
 23
1.883640
  0
POLYLINE
  8
0
  6
CONTINUOUS
 66
     1
 40
0.000000
 41
0.000000
  0
VERTEX
  8
0
  6
CONTINUOUS
 10
5.857280
 20
1.499520
  0
VERTEX
  8
0
  6
CONTINUOUS
 10
6.495280
 20
1.883640
  0
VERTEX
  8
0
  6
CONTINUOUS
 10
7.584720
 20
1.883640
  0
VERTEX
  8
0
  6
CONTINUOUS
 10
6.947160
 20
1.499520
  0
VERTEX
  8
0
  6
CONTINUOUS
 10
5.857280
 20
1.499520
  0
SEQEND
  8
0
  0
SOLID
  8
0
 62
    15
 10
5.858160
 20
1.499960
 11
6.495720
 21
1.884080
 12
5.857280
 22
1.499520
 13
6.495280
 23
1.883640
  0
POLYLINE
  8
0
  6
CONTINUOUS
 66
     1
 40
0.000000
 41
0.000000
  0
VERTEX
  8
0
  6
CONTINUOUS
 10
5.858160
 20
1.499960
  0
VERTEX
  8
0
  6
CONTINUOUS
 10
6.495720
 20
1.884080
  0
VERTEX
  8
0
  6
CONTINUOUS
 10
6.495280
 20
1.883640
  0
VERTEX
  8
0
  6
CONTINUOUS
 10
5.857280
 20
1.499520
  0
VERTEX
  8
0
  6
CONTINUOUS
 10
5.858160
 20
1.499960
  0
SEQEND
  8
0
  0
POLYLINE
  8
0
  6
CONTINUOUS
 66
     1
 40
0.000000
 41
0.000000
  0
VERTEX
  8
0
  6
CONTINUOUS
 10
6.490000
 20
1.132560
  0
VERTEX
  8
0
  6
CONTINUOUS
 10
6.490000
 20
1.191080
  0
VERTEX
  8
0
  6
CONTINUOUS
 10
6.463600
 20
1.191520
  0
VERTEX
  8
0
  6
CONTINUOUS
 10
6.441160
 20
1.192840
  0
VERTEX
  8
0
  6
CONTINUOUS
 10
6.405960
 20
1.197680
  0
VERTEX
  8
0
  6
CONTINUOUS
 10
6.381320
 20
1.205160
  0
VERTEX
  8
0
  6
CONTINUOUS
 10
6.364160
 20
1.215720
  0
VERTEX
  8
0
  6
CONTINUOUS
 10
6.351400
 20
1.228920
  0
VERTEX
  8
0
  6
CONTINUOUS
 10
6.345240
 20
1.236840
  0
VERTEX
  8
0
  6
CONTINUOUS
 10
6.339520
 20
1.245200
  0
VERTEX
  8
0
  6
CONTINUOUS
 10
6.325440
 20
1.263240
  0
VERTEX
  8
0
  6
CONTINUOUS
 10
6.306080
 20
1.284360
  0
VERTEX
  8
0
  6
CONTINUOUS
 10
6.279680
 20
1.304160
  0
VERTEX
  8
0
  6
CONTINUOUS
 10
6.247120
 20
1.320000
  0
VERTEX
  8
0
  6
CONTINUOUS
 10
6.210160
 20
1.332320
  0
VERTEX
  8
0
  6
CONTINUOUS
 10
6.169240
 20
1.341120
  0
VERTEX
  8
0
  6
CONTINUOUS
 10
6.082560
 20
1.350360
  0
VERTEX
  8
0
  6
CONTINUOUS
 10
5.997640
 20
1.350360
  0
VERTEX
  8
0
  6
CONTINUOUS
 10
5.997640
 20
1.411520
  0
VERTEX
  8
0
  6
CONTINUOUS
 10
5.858160
 20
1.411520
  0
VERTEX
  8
0
  6
CONTINUOUS
 10
5.858160
 20
1.499960
  0
VERTEX
  8
0
  6
CONTINUOUS
 10
5.857280
 20
1.499520
  0
VERTEX
  8
0
  6
CONTINUOUS
 10
6.947160
 20
1.499520
  0
VERTEX
  8
0
  6
CONTINUOUS
 10
6.947160
 20
0.699160
  0
VERTEX
  8
0
  6
CONTINUOUS
 10
6.498800
 20
0.699160
  0
VERTEX
  8
0
  6
CONTINUOUS
 10
6.499680
 20
0.698720
  0
VERTEX
  8
0
  6
CONTINUOUS
 10
6.499680
 20
0.858000
  0
VERTEX
  8
0
  6
CONTINUOUS
 10
6.163960
 20
0.872960
  0
VERTEX
  8
0
  6
CONTINUOUS
 10
6.163960
 20
1.129920
  0
VERTEX
  8
0
  6
CONTINUOUS
 10
6.490000
 20
1.129920
  0
VERTEX
  8
0
  6
CONTINUOUS
 10
6.490000
 20
1.132560
  0
SEQEND
  8
0
  0
TEXT
  8
0
 10
5.249200
 20
0.485320
 40
0.138173
  1
BA  442A & B 13/16"
 41
1.000000
  7
SN0
 71
     0
 72
     5
 11
6.783041
 21
0.485320
  0
ENDSEC
  0
EOF
