  0
SECTION
  2
HEADER
  9
$ACADVER
  1
AC1006
  9
$EXTMIN
 10
5.046800
 20
0.430320
  9
$EXTMAX
 10
7.363840
 20
1.997600
  9
$LTSCALE
 40
0.044000
  9
$PDMODE
 70
    35
  9
$PDSIZE
 40
0.035200
  0
ENDSEC
  0
SECTION
  2
TABLES
  0
TABLE
  2
LTYPE
 70
     9
  0
LTYPE
  2
CONTINUOUS
 70
    64
  3
Solid line
 72
    65
 73
     0
 40
0.000000
  0
LTYPE
  2
DASHED
 70
    64
  3
__ __ __ __ __ __ __ __ __ __ __ __ __ __ __
 72
    65
 73
     2
 40
0.000330
 49
0.000220
 49
-0.000110
  0
LTYPE
  2
HIDDEN
 70
    64
  3
 _ _ _ _ _ _ _ _ _ _ _ _ _ _ _ _ _ _ _ _ _ _
 72
    65
 73
     2
 40
0.000165
 49
0.000110
 49
-0.000055
  0
LTYPE
  2
CENTER
 70
    64
  3
____ _ ____ _ ____ _ ____ _ ____ _ ____ _ ____
 72
    65
 73
     4
 40
0.000880
 49
0.000550
 49
-0.000110
 49
0.000110
 49
-0.000110
  0
LTYPE
  2
PHANTOM
 70
    64
  3
_____ _ _ _____ _ _ _____ _ _ _____ _ _ ____
 72
    65
 73
     6
 40
0.001100
 49
0.000550
 49
-0.000110
 49
0.000110
 49
-0.000110
 49
0.000110
 49
-0.000110
  0
LTYPE
  2
DOT
 70
    64
  3
...............................................
 72
    65
 73
     2
 40
0.000110
 49
0.000000
 49
-0.000110
  0
LTYPE
  2
DASHDOT
 70
    64
  3
__ . __ . __ . __ . __ . __ . __ . __ . __ . __
 72
    65
 73
     4
 40
0.000440
 49
0.000220
 49
-0.000110
 49
0.000000
 49
-0.000110
  0
LTYPE
  2
BORDER
 70
    64
  3
__ __ . __ __ . __ __ . __ __ . __ __ . __ __
 72
    65
 73
     6
 40
0.000770
 49
0.000220
 49
-0.000110
 49
0.000220
 49
-0.000110
 49
0.000000
 49
-0.000110
  0
LTYPE
  2
DIVIDE
 70
    64
  3
__ . . __ . . __ . . __ . . __ . . __ . . __
 72
    65
 73
     6
 40
0.000550
 49
0.000220
 49
-0.000110
 49
0.000000
 49
-0.000110
 49
0.000000
 49
-0.000110
  0
LTYPE
  2
DOTDOT
 70
    64
  3
 . .  . .  . .  . .  . .  . . 
 72
    65
 73
     5
 40
0.000242
 49
-0.000110
 49
0.000000
 49
-0.000110
 49
0.000000
 49
-0.000110
  0
ENDTAB
  0
TABLE
  2
STYLE
 70
     2
  0
STYLE
 70
     0
  2
SN0
 40
0.000000
 41
0.000440
 50
0.000000
 71
     0
 42
0.000000
  3
ROMAND
  0
STYLE
 70
    68
  2
SV0
 40
0.000000
 41
0.000440
 50
0.000000
 71
     0
 42
0.000000
  3
ROMAND
  0
ENDTAB
  0
TABLE
  2
LAYER
 70
     3
  0
LAYER
  2
FOREGROUND
 70
    64
 62
     7
  6
CONTINUOUS
  0
LAYER
  2
BACKGROUND
 70
    65
 62
    -7
  6
CONTINUOUS
  0
LAYER
  2
0
 70
    64
 62
     7
  6
CONTINUOUS
  0
ENDTAB
  0
ENDSEC
  0
SECTION
  2
ENTITIES
  0
POLYLINE
  8
FOREGROUND
  6
CONTINUOUS
 66
     1
 40
0.000000
 41
0.000000
  0
VERTEX
  8
FOREGROUND
  6
CONTINUOUS
 10
0.000000
 20
2.427920
  0
VERTEX
  8
FOREGROUND
  6
CONTINUOUS
 10
8.499920
 20
2.427920
  0
VERTEX
  8
FOREGROUND
  6
CONTINUOUS
 10
8.499920
 20
-8.572080
  0
VERTEX
  8
FOREGROUND
  6
CONTINUOUS
 10
0.000000
 20
-8.572080
  0
VERTEX
  8
FOREGROUND
  6
CONTINUOUS
 10
0.000000
 20
2.427920
  0
SEQEND
  8
0
  0
POLYLINE
  8
FOREGROUND
  6
CONTINUOUS
 66
     1
 40
0.000000
 41
0.000000
  0
VERTEX
  8
FOREGROUND
  6
CONTINUOUS
 10
0.000000
 20
2.427920
  0
VERTEX
  8
FOREGROUND
  6
CONTINUOUS
 10
8.499920
 20
2.427920
  0
VERTEX
  8
FOREGROUND
  6
CONTINUOUS
 10
8.499920
 20
-8.572080
  0
VERTEX
  8
FOREGROUND
  6
CONTINUOUS
 10
0.000000
 20
-8.572080
  0
VERTEX
  8
FOREGROUND
  6
CONTINUOUS
 10
0.000000
 20
2.427920
  0
SEQEND
  8
0
  0
SOLID
  8
0
 62
     7
 10
5.351280
 20
1.346400
 11
5.996320
 21
1.715560
 12
5.395720
 22
1.316920
 13
6.040760
 23
1.686520
  0
POLYLINE
  8
0
  6
CONTINUOUS
 66
     1
 40
0.000000
 41
0.000000
  0
VERTEX
  8
0
  6
CONTINUOUS
 10
5.351280
 20
1.346400
  0
VERTEX
  8
0
  6
CONTINUOUS
 10
5.996320
 20
1.715560
  0
VERTEX
  8
0
  6
CONTINUOUS
 10
6.040760
 20
1.686520
  0
VERTEX
  8
0
  6
CONTINUOUS
 10
5.395720
 20
1.316920
  0
VERTEX
  8
0
  6
CONTINUOUS
 10
5.351280
 20
1.346400
  0
SEQEND
  8
0
  0
SOLID
  8
0
 62
    15
 10
5.066160
 20
1.627560
 11
5.711200
 21
1.996720
 12
5.083320
 22
1.625800
 13
5.727920
 23
1.994960
  0
POLYLINE
  8
0
  6
CONTINUOUS
 66
     1
 40
0.000000
 41
0.000000
  0
VERTEX
  8
0
  6
CONTINUOUS
 10
5.066160
 20
1.627560
  0
VERTEX
  8
0
  6
CONTINUOUS
 10
5.711200
 20
1.996720
  0
VERTEX
  8
0
  6
CONTINUOUS
 10
5.727920
 20
1.994960
  0
VERTEX
  8
0
  6
CONTINUOUS
 10
5.083320
 20
1.625800
  0
VERTEX
  8
0
  6
CONTINUOUS
 10
5.066160
 20
1.627560
  0
SEQEND
  8
0
  0
SOLID
  8
0
 62
    15
 10
5.083320
 20
1.625800
 11
5.727920
 21
1.994960
 12
5.112800
 22
1.617000
 13
5.757400
 23
1.986600
  0
POLYLINE
  8
0
  6
CONTINUOUS
 66
     1
 40
0.000000
 41
0.000000
  0
VERTEX
  8
0
  6
CONTINUOUS
 10
5.083320
 20
1.625800
  0
VERTEX
  8
0
  6
CONTINUOUS
 10
5.727920
 20
1.994960
  0
VERTEX
  8
0
  6
CONTINUOUS
 10
5.757400
 20
1.986600
  0
VERTEX
  8
0
  6
CONTINUOUS
 10
5.112800
 20
1.617000
  0
VERTEX
  8
0
  6
CONTINUOUS
 10
5.083320
 20
1.625800
  0
SEQEND
  8
0
  0
SOLID
  8
0
 62
    15
 10
5.112800
 20
1.617000
 11
5.757400
 21
1.986600
 12
5.136120
 22
1.602480
 13
5.781160
 23
1.972080
  0
POLYLINE
  8
0
  6
CONTINUOUS
 66
     1
 40
0.000000
 41
0.000000
  0
VERTEX
  8
0
  6
CONTINUOUS
 10
5.112800
 20
1.617000
  0
VERTEX
  8
0
  6
CONTINUOUS
 10
5.757400
 20
1.986600
  0
VERTEX
  8
0
  6
CONTINUOUS
 10
5.781160
 20
1.972080
  0
VERTEX
  8
0
  6
CONTINUOUS
 10
5.136120
 20
1.602480
  0
VERTEX
  8
0
  6
CONTINUOUS
 10
5.112800
 20
1.617000
  0
SEQEND
  8
0
  0
SOLID
  8
0
 62
     7
 10
5.136120
 20
1.602480
 11
5.781160
 21
1.972080
 12
5.154600
 22
1.583560
 13
5.799640
 23
1.953160
  0
POLYLINE
  8
0
  6
CONTINUOUS
 66
     1
 40
0.000000
 41
0.000000
  0
VERTEX
  8
0
  6
CONTINUOUS
 10
5.136120
 20
1.602480
  0
VERTEX
  8
0
  6
CONTINUOUS
 10
5.781160
 20
1.972080
  0
VERTEX
  8
0
  6
CONTINUOUS
 10
5.799640
 20
1.953160
  0
VERTEX
  8
0
  6
CONTINUOUS
 10
5.154600
 20
1.583560
  0
VERTEX
  8
0
  6
CONTINUOUS
 10
5.136120
 20
1.602480
  0
SEQEND
  8
0
  0
SOLID
  8
0
 62
     7
 10
5.154600
 20
1.583560
 11
5.799640
 21
1.953160
 12
5.169120
 22
1.561120
 13
5.813720
 23
1.930720
  0
POLYLINE
  8
0
  6
CONTINUOUS
 66
     1
 40
0.000000
 41
0.000000
  0
VERTEX
  8
0
  6
CONTINUOUS
 10
5.154600
 20
1.583560
  0
VERTEX
  8
0
  6
CONTINUOUS
 10
5.799640
 20
1.953160
  0
VERTEX
  8
0
  6
CONTINUOUS
 10
5.813720
 20
1.930720
  0
VERTEX
  8
0
  6
CONTINUOUS
 10
5.169120
 20
1.561120
  0
VERTEX
  8
0
  6
CONTINUOUS
 10
5.154600
 20
1.583560
  0
SEQEND
  8
0
  0
SOLID
  8
0
 62
     7
 10
5.169120
 20
1.561120
 11
5.813720
 21
1.930720
 12
5.179680
 22
1.536920
 13
5.824720
 23
1.906520
  0
POLYLINE
  8
0
  6
CONTINUOUS
 66
     1
 40
0.000000
 41
0.000000
  0
VERTEX
  8
0
  6
CONTINUOUS
 10
5.169120
 20
1.561120
  0
VERTEX
  8
0
  6
CONTINUOUS
 10
5.813720
 20
1.930720
  0
VERTEX
  8
0
  6
CONTINUOUS
 10
5.824720
 20
1.906520
  0
VERTEX
  8
0
  6
CONTINUOUS
 10
5.179680
 20
1.536920
  0
VERTEX
  8
0
  6
CONTINUOUS
 10
5.169120
 20
1.561120
  0
SEQEND
  8
0
  0
SOLID
  8
0
 62
     7
 10
5.179680
 20
1.536920
 11
5.824720
 21
1.906520
 12
5.193760
 22
1.487640
 13
5.838800
 23
1.857240
  0
POLYLINE
  8
0
  6
CONTINUOUS
 66
     1
 40
0.000000
 41
0.000000
  0
VERTEX
  8
0
  6
CONTINUOUS
 10
5.179680
 20
1.536920
  0
VERTEX
  8
0
  6
CONTINUOUS
 10
5.824720
 20
1.906520
  0
VERTEX
  8
0
  6
CONTINUOUS
 10
5.838800
 20
1.857240
  0
VERTEX
  8
0
  6
CONTINUOUS
 10
5.193760
 20
1.487640
  0
VERTEX
  8
0
  6
CONTINUOUS
 10
5.179680
 20
1.536920
  0
SEQEND
  8
0
  0
SOLID
  8
0
 62
     7
 10
5.193760
 20
1.487640
 11
5.838800
 21
1.857240
 12
5.198600
 22
1.475760
 13
5.843200
 23
1.844920
  0
POLYLINE
  8
0
  6
CONTINUOUS
 66
     1
 40
0.000000
 41
0.000000
  0
VERTEX
  8
0
  6
CONTINUOUS
 10
5.193760
 20
1.487640
  0
VERTEX
  8
0
  6
CONTINUOUS
 10
5.838800
 20
1.857240
  0
VERTEX
  8
0
  6
CONTINUOUS
 10
5.843200
 20
1.844920
  0
VERTEX
  8
0
  6
CONTINUOUS
 10
5.198600
 20
1.475760
  0
VERTEX
  8
0
  6
CONTINUOUS
 10
5.193760
 20
1.487640
  0
SEQEND
  8
0
  0
SOLID
  8
0
 62
     7
 10
5.198600
 20
1.475760
 11
5.843200
 21
1.844920
 12
5.206520
 22
1.462560
 13
5.851120
 23
1.832160
  0
POLYLINE
  8
0
  6
CONTINUOUS
 66
     1
 40
0.000000
 41
0.000000
  0
VERTEX
  8
0
  6
CONTINUOUS
 10
5.198600
 20
1.475760
  0
VERTEX
  8
0
  6
CONTINUOUS
 10
5.843200
 20
1.844920
  0
VERTEX
  8
0
  6
CONTINUOUS
 10
5.851120
 20
1.832160
  0
VERTEX
  8
0
  6
CONTINUOUS
 10
5.206520
 20
1.462560
  0
VERTEX
  8
0
  6
CONTINUOUS
 10
5.198600
 20
1.475760
  0
SEQEND
  8
0
  0
SOLID
  8
0
 62
     7
 10
5.206520
 20
1.462560
 11
5.851120
 21
1.832160
 12
5.217520
 22
1.449360
 13
5.862560
 23
1.818520
  0
POLYLINE
  8
0
  6
CONTINUOUS
 66
     1
 40
0.000000
 41
0.000000
  0
VERTEX
  8
0
  6
CONTINUOUS
 10
5.206520
 20
1.462560
  0
VERTEX
  8
0
  6
CONTINUOUS
 10
5.851120
 20
1.832160
  0
VERTEX
  8
0
  6
CONTINUOUS
 10
5.862560
 20
1.818520
  0
VERTEX
  8
0
  6
CONTINUOUS
 10
5.217520
 20
1.449360
  0
VERTEX
  8
0
  6
CONTINUOUS
 10
5.206520
 20
1.462560
  0
SEQEND
  8
0
  0
SOLID
  8
0
 62
     7
 10
5.217520
 20
1.449360
 11
5.862560
 21
1.818520
 12
5.231600
 22
1.435280
 13
5.876200
 23
1.804880
  0
POLYLINE
  8
0
  6
CONTINUOUS
 66
     1
 40
0.000000
 41
0.000000
  0
VERTEX
  8
0
  6
CONTINUOUS
 10
5.217520
 20
1.449360
  0
VERTEX
  8
0
  6
CONTINUOUS
 10
5.862560
 20
1.818520
  0
VERTEX
  8
0
  6
CONTINUOUS
 10
5.876200
 20
1.804880
  0
VERTEX
  8
0
  6
CONTINUOUS
 10
5.231600
 20
1.435280
  0
VERTEX
  8
0
  6
CONTINUOUS
 10
5.217520
 20
1.449360
  0
SEQEND
  8
0
  0
SOLID
  8
0
 62
     7
 10
5.231600
 20
1.435280
 11
5.876200
 21
1.804880
 12
5.266360
 22
1.406240
 13
5.910960
 23
1.775400
  0
POLYLINE
  8
0
  6
CONTINUOUS
 66
     1
 40
0.000000
 41
0.000000
  0
VERTEX
  8
0
  6
CONTINUOUS
 10
5.231600
 20
1.435280
  0
VERTEX
  8
0
  6
CONTINUOUS
 10
5.876200
 20
1.804880
  0
VERTEX
  8
0
  6
CONTINUOUS
 10
5.910960
 20
1.775400
  0
VERTEX
  8
0
  6
CONTINUOUS
 10
5.266360
 20
1.406240
  0
VERTEX
  8
0
  6
CONTINUOUS
 10
5.231600
 20
1.435280
  0
SEQEND
  8
0
  0
SOLID
  8
0
 62
     7
 10
5.266360
 20
1.406240
 11
5.910960
 21
1.775400
 12
5.307280
 22
1.376320
 13
5.951880
 23
1.745480
  0
POLYLINE
  8
0
  6
CONTINUOUS
 66
     1
 40
0.000000
 41
0.000000
  0
VERTEX
  8
0
  6
CONTINUOUS
 10
5.266360
 20
1.406240
  0
VERTEX
  8
0
  6
CONTINUOUS
 10
5.910960
 20
1.775400
  0
VERTEX
  8
0
  6
CONTINUOUS
 10
5.951880
 20
1.745480
  0
VERTEX
  8
0
  6
CONTINUOUS
 10
5.307280
 20
1.376320
  0
VERTEX
  8
0
  6
CONTINUOUS
 10
5.266360
 20
1.406240
  0
SEQEND
  8
0
  0
SOLID
  8
0
 62
     7
 10
5.307280
 20
1.376320
 11
5.951880
 21
1.745480
 12
5.351280
 22
1.346400
 13
5.996320
 23
1.715560
  0
POLYLINE
  8
0
  6
CONTINUOUS
 66
     1
 40
0.000000
 41
0.000000
  0
VERTEX
  8
0
  6
CONTINUOUS
 10
5.307280
 20
1.376320
  0
VERTEX
  8
0
  6
CONTINUOUS
 10
5.951880
 20
1.745480
  0
VERTEX
  8
0
  6
CONTINUOUS
 10
5.996320
 20
1.715560
  0
VERTEX
  8
0
  6
CONTINUOUS
 10
5.351280
 20
1.346400
  0
VERTEX
  8
0
  6
CONTINUOUS
 10
5.307280
 20
1.376320
  0
SEQEND
  8
0
  0
SOLID
  8
0
 62
    15
 10
5.047680
 20
1.627120
 11
5.692280
 21
1.996720
 12
5.066160
 22
1.627560
 13
5.711200
 23
1.996720
  0
POLYLINE
  8
0
  6
CONTINUOUS
 66
     1
 40
0.000000
 41
0.000000
  0
VERTEX
  8
0
  6
CONTINUOUS
 10
5.047680
 20
1.627120
  0
VERTEX
  8
0
  6
CONTINUOUS
 10
5.692280
 20
1.996720
  0
VERTEX
  8
0
  6
CONTINUOUS
 10
5.711200
 20
1.996720
  0
VERTEX
  8
0
  6
CONTINUOUS
 10
5.066160
 20
1.627560
  0
VERTEX
  8
0
  6
CONTINUOUS
 10
5.047680
 20
1.627120
  0
SEQEND
  8
0
  0
SOLID
  8
0
 62
     7
 10
5.395720
 20
1.316920
 11
6.040760
 21
1.686520
 12
5.437520
 22
1.289640
 13
6.082120
 23
1.659240
  0
POLYLINE
  8
0
  6
CONTINUOUS
 66
     1
 40
0.000000
 41
0.000000
  0
VERTEX
  8
0
  6
CONTINUOUS
 10
5.395720
 20
1.316920
  0
VERTEX
  8
0
  6
CONTINUOUS
 10
6.040760
 20
1.686520
  0
VERTEX
  8
0
  6
CONTINUOUS
 10
6.082120
 20
1.659240
  0
VERTEX
  8
0
  6
CONTINUOUS
 10
5.437520
 20
1.289640
  0
VERTEX
  8
0
  6
CONTINUOUS
 10
5.395720
 20
1.316920
  0
SEQEND
  8
0
  0
SOLID
  8
0
 62
     7
 10
5.437520
 20
1.289640
 11
6.082120
 21
1.659240
 12
5.472720
 22
1.264560
 13
6.117760
 23
1.634160
  0
POLYLINE
  8
0
  6
CONTINUOUS
 66
     1
 40
0.000000
 41
0.000000
  0
VERTEX
  8
0
  6
CONTINUOUS
 10
5.437520
 20
1.289640
  0
VERTEX
  8
0
  6
CONTINUOUS
 10
6.082120
 20
1.659240
  0
VERTEX
  8
0
  6
CONTINUOUS
 10
6.117760
 20
1.634160
  0
VERTEX
  8
0
  6
CONTINUOUS
 10
5.472720
 20
1.264560
  0
VERTEX
  8
0
  6
CONTINUOUS
 10
5.437520
 20
1.289640
  0
SEQEND
  8
0
  0
SOLID
  8
0
 62
     7
 10
5.472720
 20
1.264560
 11
6.117760
 21
1.634160
 12
5.488560
 22
1.250040
 13
6.133600
 23
1.619640
  0
POLYLINE
  8
0
  6
CONTINUOUS
 66
     1
 40
0.000000
 41
0.000000
  0
VERTEX
  8
0
  6
CONTINUOUS
 10
5.472720
 20
1.264560
  0
VERTEX
  8
0
  6
CONTINUOUS
 10
6.117760
 20
1.634160
  0
VERTEX
  8
0
  6
CONTINUOUS
 10
6.133600
 20
1.619640
  0
VERTEX
  8
0
  6
CONTINUOUS
 10
5.488560
 20
1.250040
  0
VERTEX
  8
0
  6
CONTINUOUS
 10
5.472720
 20
1.264560
  0
SEQEND
  8
0
  0
SOLID
  8
0
 62
     7
 10
5.488560
 20
1.250040
 11
6.133600
 21
1.619640
 12
5.504840
 22
1.230680
 13
6.149440
 23
1.600280
  0
POLYLINE
  8
0
  6
CONTINUOUS
 66
     1
 40
0.000000
 41
0.000000
  0
VERTEX
  8
0
  6
CONTINUOUS
 10
5.488560
 20
1.250040
  0
VERTEX
  8
0
  6
CONTINUOUS
 10
6.133600
 20
1.619640
  0
VERTEX
  8
0
  6
CONTINUOUS
 10
6.149440
 20
1.600280
  0
VERTEX
  8
0
  6
CONTINUOUS
 10
5.504840
 20
1.230680
  0
VERTEX
  8
0
  6
CONTINUOUS
 10
5.488560
 20
1.250040
  0
SEQEND
  8
0
  0
SOLID
  8
0
 62
     7
 10
5.504840
 20
1.230680
 11
6.149440
 21
1.600280
 12
5.520240
 22
1.207360
 13
6.165280
 23
1.576520
  0
POLYLINE
  8
0
  6
CONTINUOUS
 66
     1
 40
0.000000
 41
0.000000
  0
VERTEX
  8
0
  6
CONTINUOUS
 10
5.504840
 20
1.230680
  0
VERTEX
  8
0
  6
CONTINUOUS
 10
6.149440
 20
1.600280
  0
VERTEX
  8
0
  6
CONTINUOUS
 10
6.165280
 20
1.576520
  0
VERTEX
  8
0
  6
CONTINUOUS
 10
5.520240
 20
1.207360
  0
VERTEX
  8
0
  6
CONTINUOUS
 10
5.504840
 20
1.230680
  0
SEQEND
  8
0
  0
SOLID
  8
0
 62
     7
 10
5.520240
 20
1.207360
 11
6.165280
 21
1.576520
 12
5.534320
 22
1.180520
 13
6.179360
 23
1.549680
  0
POLYLINE
  8
0
  6
CONTINUOUS
 66
     1
 40
0.000000
 41
0.000000
  0
VERTEX
  8
0
  6
CONTINUOUS
 10
5.520240
 20
1.207360
  0
VERTEX
  8
0
  6
CONTINUOUS
 10
6.165280
 20
1.576520
  0
VERTEX
  8
0
  6
CONTINUOUS
 10
6.179360
 20
1.549680
  0
VERTEX
  8
0
  6
CONTINUOUS
 10
5.534320
 20
1.180520
  0
VERTEX
  8
0
  6
CONTINUOUS
 10
5.520240
 20
1.207360
  0
SEQEND
  8
0
  0
SOLID
  8
0
 62
     7
 10
5.534320
 20
1.180520
 11
6.179360
 21
1.549680
 12
5.546640
 22
1.151040
 13
6.191240
 23
1.520200
  0
POLYLINE
  8
0
  6
CONTINUOUS
 66
     1
 40
0.000000
 41
0.000000
  0
VERTEX
  8
0
  6
CONTINUOUS
 10
5.534320
 20
1.180520
  0
VERTEX
  8
0
  6
CONTINUOUS
 10
6.179360
 20
1.549680
  0
VERTEX
  8
0
  6
CONTINUOUS
 10
6.191240
 20
1.520200
  0
VERTEX
  8
0
  6
CONTINUOUS
 10
5.546640
 20
1.151040
  0
VERTEX
  8
0
  6
CONTINUOUS
 10
5.534320
 20
1.180520
  0
SEQEND
  8
0
  0
SOLID
  8
0
 62
     7
 10
5.546640
 20
1.151040
 11
6.191240
 21
1.520200
 12
5.555880
 22
1.119800
 13
6.200480
 23
1.489400
  0
POLYLINE
  8
0
  6
CONTINUOUS
 66
     1
 40
0.000000
 41
0.000000
  0
VERTEX
  8
0
  6
CONTINUOUS
 10
5.546640
 20
1.151040
  0
VERTEX
  8
0
  6
CONTINUOUS
 10
6.191240
 20
1.520200
  0
VERTEX
  8
0
  6
CONTINUOUS
 10
6.200480
 20
1.489400
  0
VERTEX
  8
0
  6
CONTINUOUS
 10
5.555880
 20
1.119800
  0
VERTEX
  8
0
  6
CONTINUOUS
 10
5.546640
 20
1.151040
  0
SEQEND
  8
0
  0
SOLID
  8
0
 62
    15
 10
5.555880
 20
1.119800
 11
6.200480
 21
1.489400
 12
5.561600
 22
1.087680
 13
6.206640
 23
1.457280
  0
POLYLINE
  8
0
  6
CONTINUOUS
 66
     1
 40
0.000000
 41
0.000000
  0
VERTEX
  8
0
  6
CONTINUOUS
 10
5.555880
 20
1.119800
  0
VERTEX
  8
0
  6
CONTINUOUS
 10
6.200480
 20
1.489400
  0
VERTEX
  8
0
  6
CONTINUOUS
 10
6.206640
 20
1.457280
  0
VERTEX
  8
0
  6
CONTINUOUS
 10
5.561600
 20
1.087680
  0
VERTEX
  8
0
  6
CONTINUOUS
 10
5.555880
 20
1.119800
  0
SEQEND
  8
0
  0
SOLID
  8
0
 62
    15
 10
5.561600
 20
1.087680
 11
6.206640
 21
1.457280
 12
5.563360
 22
1.055560
 13
6.208400
 23
1.425160
  0
POLYLINE
  8
0
  6
CONTINUOUS
 66
     1
 40
0.000000
 41
0.000000
  0
VERTEX
  8
0
  6
CONTINUOUS
 10
5.561600
 20
1.087680
  0
VERTEX
  8
0
  6
CONTINUOUS
 10
6.206640
 20
1.457280
  0
VERTEX
  8
0
  6
CONTINUOUS
 10
6.208400
 20
1.425160
  0
VERTEX
  8
0
  6
CONTINUOUS
 10
5.563360
 20
1.055560
  0
VERTEX
  8
0
  6
CONTINUOUS
 10
5.561600
 20
1.087680
  0
SEQEND
  8
0
  0
SOLID
  8
0
 62
    15
 10
5.563360
 20
1.055560
 11
6.208400
 21
1.425160
 12
5.560280
 22
1.023880
 13
6.204880
 23
1.393480
  0
POLYLINE
  8
0
  6
CONTINUOUS
 66
     1
 40
0.000000
 41
0.000000
  0
VERTEX
  8
0
  6
CONTINUOUS
 10
5.563360
 20
1.055560
  0
VERTEX
  8
0
  6
CONTINUOUS
 10
6.208400
 20
1.425160
  0
VERTEX
  8
0
  6
CONTINUOUS
 10
6.204880
 20
1.393480
  0
VERTEX
  8
0
  6
CONTINUOUS
 10
5.560280
 20
1.023880
  0
VERTEX
  8
0
  6
CONTINUOUS
 10
5.563360
 20
1.055560
  0
SEQEND
  8
0
  0
SOLID
  8
0
 62
    15
 10
5.560280
 20
1.023880
 11
6.204880
 21
1.393480
 12
5.551480
 22
0.993960
 13
6.196080
 23
1.363120
  0
POLYLINE
  8
0
  6
CONTINUOUS
 66
     1
 40
0.000000
 41
0.000000
  0
VERTEX
  8
0
  6
CONTINUOUS
 10
5.560280
 20
1.023880
  0
VERTEX
  8
0
  6
CONTINUOUS
 10
6.204880
 20
1.393480
  0
VERTEX
  8
0
  6
CONTINUOUS
 10
6.196080
 20
1.363120
  0
VERTEX
  8
0
  6
CONTINUOUS
 10
5.551480
 20
0.993960
  0
VERTEX
  8
0
  6
CONTINUOUS
 10
5.560280
 20
1.023880
  0
SEQEND
  8
0
  0
SOLID
  8
0
 62
    15
 10
5.551480
 20
0.993960
 11
6.196080
 21
1.363120
 12
5.536080
 22
0.965800
 13
6.181120
 23
1.335400
  0
POLYLINE
  8
0
  6
CONTINUOUS
 66
     1
 40
0.000000
 41
0.000000
  0
VERTEX
  8
0
  6
CONTINUOUS
 10
5.551480
 20
0.993960
  0
VERTEX
  8
0
  6
CONTINUOUS
 10
6.196080
 20
1.363120
  0
VERTEX
  8
0
  6
CONTINUOUS
 10
6.181120
 20
1.335400
  0
VERTEX
  8
0
  6
CONTINUOUS
 10
5.536080
 20
0.965800
  0
VERTEX
  8
0
  6
CONTINUOUS
 10
5.551480
 20
0.993960
  0
SEQEND
  8
0
  0
SOLID
  8
0
 62
    15
 10
5.536080
 20
0.965800
 11
6.181120
 21
1.335400
 12
5.514080
 22
0.941160
 13
6.158680
 23
1.310760
  0
POLYLINE
  8
0
  6
CONTINUOUS
 66
     1
 40
0.000000
 41
0.000000
  0
VERTEX
  8
0
  6
CONTINUOUS
 10
5.536080
 20
0.965800
  0
VERTEX
  8
0
  6
CONTINUOUS
 10
6.181120
 20
1.335400
  0
VERTEX
  8
0
  6
CONTINUOUS
 10
6.158680
 20
1.310760
  0
VERTEX
  8
0
  6
CONTINUOUS
 10
5.514080
 20
0.941160
  0
VERTEX
  8
0
  6
CONTINUOUS
 10
5.536080
 20
0.965800
  0
SEQEND
  8
0
  0
SOLID
  8
0
 62
    15
 10
5.514080
 20
0.941160
 11
6.158680
 21
1.310760
 12
5.484160
 22
0.920040
 13
6.128760
 23
1.289640
  0
POLYLINE
  8
0
  6
CONTINUOUS
 66
     1
 40
0.000000
 41
0.000000
  0
VERTEX
  8
0
  6
CONTINUOUS
 10
5.514080
 20
0.941160
  0
VERTEX
  8
0
  6
CONTINUOUS
 10
6.158680
 20
1.310760
  0
VERTEX
  8
0
  6
CONTINUOUS
 10
6.128760
 20
1.289640
  0
VERTEX
  8
0
  6
CONTINUOUS
 10
5.484160
 20
0.920040
  0
VERTEX
  8
0
  6
CONTINUOUS
 10
5.514080
 20
0.941160
  0
SEQEND
  8
0
  0
POLYLINE
  8
0
  6
CONTINUOUS
 66
     1
 40
0.000000
 41
0.000000
  0
VERTEX
  8
0
  6
CONTINUOUS
 10
5.340280
 20
0.888360
  0
VERTEX
  8
0
  6
CONTINUOUS
 10
5.047680
 20
0.888360
  0
VERTEX
  8
0
  6
CONTINUOUS
 10
5.047680
 20
1.627120
  0
VERTEX
  8
0
  6
CONTINUOUS
 10
5.066160
 20
1.627560
  0
VERTEX
  8
0
  6
CONTINUOUS
 10
5.083320
 20
1.625800
  0
VERTEX
  8
0
  6
CONTINUOUS
 10
5.112800
 20
1.617000
  0
VERTEX
  8
0
  6
CONTINUOUS
 10
5.136120
 20
1.602480
  0
VERTEX
  8
0
  6
CONTINUOUS
 10
5.154600
 20
1.583560
  0
VERTEX
  8
0
  6
CONTINUOUS
 10
5.169120
 20
1.561120
  0
VERTEX
  8
0
  6
CONTINUOUS
 10
5.179680
 20
1.536920
  0
VERTEX
  8
0
  6
CONTINUOUS
 10
5.193760
 20
1.487640
  0
VERTEX
  8
0
  6
CONTINUOUS
 10
5.198600
 20
1.475760
  0
VERTEX
  8
0
  6
CONTINUOUS
 10
5.206520
 20
1.462560
  0
VERTEX
  8
0
  6
CONTINUOUS
 10
5.217520
 20
1.449360
  0
VERTEX
  8
0
  6
CONTINUOUS
 10
5.231600
 20
1.435280
  0
VERTEX
  8
0
  6
CONTINUOUS
 10
5.266360
 20
1.406240
  0
VERTEX
  8
0
  6
CONTINUOUS
 10
5.307280
 20
1.376320
  0
VERTEX
  8
0
  6
CONTINUOUS
 10
5.351280
 20
1.346400
  0
VERTEX
  8
0
  6
CONTINUOUS
 10
5.395720
 20
1.316920
  0
VERTEX
  8
0
  6
CONTINUOUS
 10
5.437520
 20
1.289640
  0
VERTEX
  8
0
  6
CONTINUOUS
 10
5.472720
 20
1.264560
  0
VERTEX
  8
0
  6
CONTINUOUS
 10
5.488560
 20
1.250040
  0
VERTEX
  8
0
  6
CONTINUOUS
 10
5.504840
 20
1.230680
  0
VERTEX
  8
0
  6
CONTINUOUS
 10
5.520240
 20
1.207360
  0
VERTEX
  8
0
  6
CONTINUOUS
 10
5.534320
 20
1.180520
  0
VERTEX
  8
0
  6
CONTINUOUS
 10
5.546640
 20
1.151040
  0
VERTEX
  8
0
  6
CONTINUOUS
 10
5.555880
 20
1.119800
  0
VERTEX
  8
0
  6
CONTINUOUS
 10
5.561600
 20
1.087680
  0
VERTEX
  8
0
  6
CONTINUOUS
 10
5.563360
 20
1.055560
  0
VERTEX
  8
0
  6
CONTINUOUS
 10
5.560280
 20
1.023880
  0
VERTEX
  8
0
  6
CONTINUOUS
 10
5.551480
 20
0.993960
  0
VERTEX
  8
0
  6
CONTINUOUS
 10
5.536080
 20
0.965800
  0
VERTEX
  8
0
  6
CONTINUOUS
 10
5.514080
 20
0.941160
  0
VERTEX
  8
0
  6
CONTINUOUS
 10
5.484160
 20
0.920040
  0
VERTEX
  8
0
  6
CONTINUOUS
 10
5.465680
 20
0.911240
  0
VERTEX
  8
0
  6
CONTINUOUS
 10
5.445440
 20
0.903760
  0
VERTEX
  8
0
  6
CONTINUOUS
 10
5.423000
 20
0.897600
  0
VERTEX
  8
0
  6
CONTINUOUS
 10
5.397920
 20
0.892760
  0
VERTEX
  8
0
  6
CONTINUOUS
 10
5.370200
 20
0.889680
  0
VERTEX
  8
0
  6
CONTINUOUS
 10
5.340280
 20
0.888360
  0
SEQEND
  8
0
  0
TEXT
  8
0
 10
5.332800
 20
0.665720
 40
0.138168
  1
BA  441
 41
1.000000
  7
SN0
 71
     0
 72
     5
 11
5.922834
 21
0.665720
  0
TEXT
  8
0
 10
5.250960
 20
0.474320
 40
0.138168
  1
1/2" x 3/4"
 41
1.000000
  7
SN0
 71
     0
 72
     5
 11
6.004114
 21
0.474320
  0
POLYLINE
  8
0
  6
CONTINUOUS
 66
     1
 40
0.014080
 41
0.014080
  0
VERTEX
  8
0
  6
CONTINUOUS
 10
6.929560
 20
1.135640
  0
VERTEX
  8
0
  6
CONTINUOUS
 10
6.636520
 20
1.135640
  0
VERTEX
  8
0
  6
CONTINUOUS
 10
6.636520
 20
1.874400
  0
VERTEX
  8
0
  6
CONTINUOUS
 10
6.655440
 20
1.874840
  0
VERTEX
  8
0
  6
CONTINUOUS
 10
6.672160
 20
1.873080
  0
VERTEX
  8
0
  6
CONTINUOUS
 10
6.687560
 20
1.869560
  0
VERTEX
  8
0
  6
CONTINUOUS
 10
6.701640
 20
1.864280
  0
VERTEX
  8
0
  6
CONTINUOUS
 10
6.725400
 20
1.849760
  0
VERTEX
  8
0
  6
CONTINUOUS
 10
6.743880
 20
1.830840
  0
VERTEX
  8
0
  6
CONTINUOUS
 10
6.764120
 20
1.796520
  0
VERTEX
  8
0
  6
CONTINUOUS
 10
6.776880
 20
1.759120
  0
VERTEX
  8
0
  6
CONTINUOUS
 10
6.784800
 20
1.728760
  0
VERTEX
  8
0
  6
CONTINUOUS
 10
6.795800
 20
1.709840
  0
VERTEX
  8
0
  6
CONTINUOUS
 10
6.820880
 20
1.682560
  0
VERTEX
  8
0
  6
CONTINUOUS
 10
6.855640
 20
1.653520
  0
VERTEX
  8
0
  6
CONTINUOUS
 10
6.940560
 20
1.593680
  0
VERTEX
  8
0
  6
CONTINUOUS
 10
7.045280
 20
1.524160
  0
VERTEX
  8
0
  6
CONTINUOUS
 10
7.069920
 20
1.505240
  0
VERTEX
  8
0
  6
CONTINUOUS
 10
7.094120
 20
1.477960
  0
VERTEX
  8
0
  6
CONTINUOUS
 10
7.109520
 20
1.454640
  0
VERTEX
  8
0
  6
CONTINUOUS
 10
7.129760
 20
1.413280
  0
VERTEX
  8
0
  6
CONTINUOUS
 10
7.140760
 20
1.382920
  0
VERTEX
  8
0
  6
CONTINUOUS
 10
7.148240
 20
1.351240
  0
VERTEX
  8
0
  6
CONTINUOUS
 10
7.152200
 20
1.319120
  0
VERTEX
  8
0
  6
CONTINUOUS
 10
7.152640
 20
1.302840
  0
VERTEX
  8
0
  6
CONTINUOUS
 10
7.151760
 20
1.287000
  0
VERTEX
  8
0
  6
CONTINUOUS
 10
7.145600
 20
1.256200
  0
VERTEX
  8
0
  6
CONTINUOUS
 10
7.133720
 20
1.227160
  0
VERTEX
  8
0
  6
CONTINUOUS
 10
7.125360
 20
1.213520
  0
VERTEX
  8
0
  6
CONTINUOUS
 10
7.115240
 20
1.200760
  0
VERTEX
  8
0
  6
CONTINUOUS
 10
7.102920
 20
1.188440
  0
VERTEX
  8
0
  6
CONTINUOUS
 10
7.089280
 20
1.177440
  0
VERTEX
  8
0
  6
CONTINUOUS
 10
7.064200
 20
1.162920
  0
VERTEX
  8
0
  6
CONTINUOUS
 10
7.034720
 20
1.151480
  0
VERTEX
  8
0
  6
CONTINUOUS
 10
7.012280
 20
1.144880
  0
VERTEX
  8
0
  6
CONTINUOUS
 10
6.959480
 20
1.136960
  0
VERTEX
  8
0
  6
CONTINUOUS
 10
6.929560
 20
1.135640
  0
SEQEND
  8
0
  0
TEXT
  8
0
 10
6.756640
 20
0.857120
 40
0.138168
  1
441
 41
1.000000
  7
SN0
 71
     0
 72
     5
 11
7.033642
 21
0.857120
  0
TEXT
  8
0
 10
6.517720
 20
0.665280
 40
0.138168
  1
1/2" x 3/4"
 41
1.000000
  7
SN0
 71
     0
 72
     5
 11
7.270874
 21
0.665280
  0
ENDSEC
  0
EOF
