  0
SECTION
  2
HEADER
  9
$ACADVER
  1
AC1006
  9
$EXTMIN
 10
2.306040
 20
3.849120
  9
$EXTMAX
 10
5.310360
 20
7.117440
  9
$LTSCALE
 40
0.044000
  9
$PDMODE
 70
    35
  9
$PDSIZE
 40
0.035200
  0
ENDSEC
  0
SECTION
  2
TABLES
  0
TABLE
  2
LTYPE
 70
     9
  0
LTYPE
  2
CONTINUOUS
 70
    64
  3
Solid line
 72
    65
 73
     0
 40
0.000000
  0
LTYPE
  2
DASHED
 70
    64
  3
__ __ __ __ __ __ __ __ __ __ __ __ __ __ __
 72
    65
 73
     2
 40
0.000330
 49
0.000220
 49
-0.000110
  0
LTYPE
  2
HIDDEN
 70
    64
  3
 _ _ _ _ _ _ _ _ _ _ _ _ _ _ _ _ _ _ _ _ _ _
 72
    65
 73
     2
 40
0.000165
 49
0.000110
 49
-0.000055
  0
LTYPE
  2
CENTER
 70
    64
  3
____ _ ____ _ ____ _ ____ _ ____ _ ____ _ ____
 72
    65
 73
     4
 40
0.000880
 49
0.000550
 49
-0.000110
 49
0.000110
 49
-0.000110
  0
LTYPE
  2
PHANTOM
 70
    64
  3
_____ _ _ _____ _ _ _____ _ _ _____ _ _ ____
 72
    65
 73
     6
 40
0.001100
 49
0.000550
 49
-0.000110
 49
0.000110
 49
-0.000110
 49
0.000110
 49
-0.000110
  0
LTYPE
  2
DOT
 70
    64
  3
...............................................
 72
    65
 73
     2
 40
0.000110
 49
0.000000
 49
-0.000110
  0
LTYPE
  2
DASHDOT
 70
    64
  3
__ . __ . __ . __ . __ . __ . __ . __ . __ . __
 72
    65
 73
     4
 40
0.000440
 49
0.000220
 49
-0.000110
 49
0.000000
 49
-0.000110
  0
LTYPE
  2
BORDER
 70
    64
  3
__ __ . __ __ . __ __ . __ __ . __ __ . __ __
 72
    65
 73
     6
 40
0.000770
 49
0.000220
 49
-0.000110
 49
0.000220
 49
-0.000110
 49
0.000000
 49
-0.000110
  0
LTYPE
  2
DIVIDE
 70
    64
  3
__ . . __ . . __ . . __ . . __ . . __ . . __
 72
    65
 73
     6
 40
0.000550
 49
0.000220
 49
-0.000110
 49
0.000000
 49
-0.000110
 49
0.000000
 49
-0.000110
  0
LTYPE
  2
DOTDOT
 70
    64
  3
 . .  . .  . .  . .  . .  . . 
 72
    65
 73
     5
 40
0.000242
 49
-0.000110
 49
0.000000
 49
-0.000110
 49
0.000000
 49
-0.000110
  0
ENDTAB
  0
TABLE
  2
STYLE
 70
     2
  0
STYLE
 70
     0
  2
SN0
 40
0.000000
 41
0.000440
 50
0.000000
 71
     0
 42
0.000000
  3
ROMAND
  0
STYLE
 70
    68
  2
SV0
 40
0.000000
 41
0.000440
 50
0.000000
 71
     0
 42
0.000000
  3
ROMAND
  0
ENDTAB
  0
TABLE
  2
LAYER
 70
     3
  0
LAYER
  2
FOREGROUND
 70
    64
 62
     7
  6
CONTINUOUS
  0
LAYER
  2
BACKGROUND
 70
    65
 62
    -7
  6
CONTINUOUS
  0
LAYER
  2
0
 70
    64
 62
     7
  6
CONTINUOUS
  0
ENDTAB
  0
ENDSEC
  0
SECTION
  2
ENTITIES
  0
POLYLINE
  8
FOREGROUND
  6
CONTINUOUS
 66
     1
 40
0.000000
 41
0.000000
  0
VERTEX
  8
FOREGROUND
  6
CONTINUOUS
 10
0.000000
 20
10.966560
  0
VERTEX
  8
FOREGROUND
  6
CONTINUOUS
 10
8.499920
 20
10.966560
  0
VERTEX
  8
FOREGROUND
  6
CONTINUOUS
 10
8.499920
 20
-0.033440
  0
VERTEX
  8
FOREGROUND
  6
CONTINUOUS
 10
0.000000
 20
-0.033440
  0
VERTEX
  8
FOREGROUND
  6
CONTINUOUS
 10
0.000000
 20
10.966560
  0
SEQEND
  8
0
  0
POLYLINE
  8
FOREGROUND
  6
CONTINUOUS
 66
     1
 40
0.000000
 41
0.000000
  0
VERTEX
  8
FOREGROUND
  6
CONTINUOUS
 10
0.000000
 20
10.966560
  0
VERTEX
  8
FOREGROUND
  6
CONTINUOUS
 10
8.499920
 20
10.966560
  0
VERTEX
  8
FOREGROUND
  6
CONTINUOUS
 10
8.499920
 20
-0.033440
  0
VERTEX
  8
FOREGROUND
  6
CONTINUOUS
 10
0.000000
 20
-0.033440
  0
VERTEX
  8
FOREGROUND
  6
CONTINUOUS
 10
0.000000
 20
10.966560
  0
SEQEND
  8
0
  0
SOLID
  8
0
 62
    15
 10
3.737360
 20
4.863760
 11
3.739120
 21
5.608240
 12
3.763760
 22
4.838680
 13
3.765080
 23
5.583600
  0
POLYLINE
  8
0
  6
CONTINUOUS
 66
     1
 40
0.000000
 41
0.000000
  0
VERTEX
  8
0
  6
CONTINUOUS
 10
3.737360
 20
4.863760
  0
VERTEX
  8
0
  6
CONTINUOUS
 10
3.739120
 20
5.608240
  0
VERTEX
  8
0
  6
CONTINUOUS
 10
3.765080
 20
5.583600
  0
VERTEX
  8
0
  6
CONTINUOUS
 10
3.763760
 20
4.838680
  0
VERTEX
  8
0
  6
CONTINUOUS
 10
3.737360
 20
4.863760
  0
SEQEND
  8
0
  0
SOLID
  8
0
 62
    15
 10
3.337840
 20
5.102680
 11
3.339160
 21
5.847600
 12
3.337840
 22
5.021720
 13
3.339160
 23
5.766200
  0
POLYLINE
  8
0
  6
CONTINUOUS
 66
     1
 40
0.000000
 41
0.000000
  0
VERTEX
  8
0
  6
CONTINUOUS
 10
3.337840
 20
5.102680
  0
VERTEX
  8
0
  6
CONTINUOUS
 10
3.339160
 20
5.847600
  0
VERTEX
  8
0
  6
CONTINUOUS
 10
3.339160
 20
5.766200
  0
VERTEX
  8
0
  6
CONTINUOUS
 10
3.337840
 20
5.021720
  0
VERTEX
  8
0
  6
CONTINUOUS
 10
3.337840
 20
5.102680
  0
SEQEND
  8
0
  0
SOLID
  8
0
 62
    15
 10
3.337840
 20
5.021720
 11
3.339160
 21
5.766200
 12
3.374800
 22
5.020400
 13
3.376120
 23
5.765320
  0
POLYLINE
  8
0
  6
CONTINUOUS
 66
     1
 40
0.000000
 41
0.000000
  0
VERTEX
  8
0
  6
CONTINUOUS
 10
3.337840
 20
5.021720
  0
VERTEX
  8
0
  6
CONTINUOUS
 10
3.339160
 20
5.766200
  0
VERTEX
  8
0
  6
CONTINUOUS
 10
3.376120
 20
5.765320
  0
VERTEX
  8
0
  6
CONTINUOUS
 10
3.374800
 20
5.020400
  0
VERTEX
  8
0
  6
CONTINUOUS
 10
3.337840
 20
5.021720
  0
SEQEND
  8
0
  0
SOLID
  8
0
 62
    15
 10
3.374800
 20
5.020400
 11
3.376120
 21
5.765320
 12
3.407360
 22
5.018200
 13
3.409120
 23
5.763120
  0
POLYLINE
  8
0
  6
CONTINUOUS
 66
     1
 40
0.000000
 41
0.000000
  0
VERTEX
  8
0
  6
CONTINUOUS
 10
3.374800
 20
5.020400
  0
VERTEX
  8
0
  6
CONTINUOUS
 10
3.376120
 20
5.765320
  0
VERTEX
  8
0
  6
CONTINUOUS
 10
3.409120
 20
5.763120
  0
VERTEX
  8
0
  6
CONTINUOUS
 10
3.407360
 20
5.018200
  0
VERTEX
  8
0
  6
CONTINUOUS
 10
3.374800
 20
5.020400
  0
SEQEND
  8
0
  0
SOLID
  8
0
 62
    15
 10
3.407360
 20
5.018200
 11
3.409120
 21
5.763120
 12
3.436400
 22
5.014680
 13
3.438160
 23
5.759600
  0
POLYLINE
  8
0
  6
CONTINUOUS
 66
     1
 40
0.000000
 41
0.000000
  0
VERTEX
  8
0
  6
CONTINUOUS
 10
3.407360
 20
5.018200
  0
VERTEX
  8
0
  6
CONTINUOUS
 10
3.409120
 20
5.763120
  0
VERTEX
  8
0
  6
CONTINUOUS
 10
3.438160
 20
5.759600
  0
VERTEX
  8
0
  6
CONTINUOUS
 10
3.436400
 20
5.014680
  0
VERTEX
  8
0
  6
CONTINUOUS
 10
3.407360
 20
5.018200
  0
SEQEND
  8
0
  0
SOLID
  8
0
 62
    15
 10
3.436400
 20
5.014680
 11
3.438160
 21
5.759600
 12
3.461920
 22
5.010280
 13
3.463680
 23
5.755200
  0
POLYLINE
  8
0
  6
CONTINUOUS
 66
     1
 40
0.000000
 41
0.000000
  0
VERTEX
  8
0
  6
CONTINUOUS
 10
3.436400
 20
5.014680
  0
VERTEX
  8
0
  6
CONTINUOUS
 10
3.438160
 20
5.759600
  0
VERTEX
  8
0
  6
CONTINUOUS
 10
3.463680
 20
5.755200
  0
VERTEX
  8
0
  6
CONTINUOUS
 10
3.461920
 20
5.010280
  0
VERTEX
  8
0
  6
CONTINUOUS
 10
3.436400
 20
5.014680
  0
SEQEND
  8
0
  0
SOLID
  8
0
 62
    15
 10
3.461920
 20
5.010280
 11
3.463680
 21
5.755200
 12
3.503280
 22
4.997960
 13
3.505040
 23
5.742880
  0
POLYLINE
  8
0
  6
CONTINUOUS
 66
     1
 40
0.000000
 41
0.000000
  0
VERTEX
  8
0
  6
CONTINUOUS
 10
3.461920
 20
5.010280
  0
VERTEX
  8
0
  6
CONTINUOUS
 10
3.463680
 20
5.755200
  0
VERTEX
  8
0
  6
CONTINUOUS
 10
3.505040
 20
5.742880
  0
VERTEX
  8
0
  6
CONTINUOUS
 10
3.503280
 20
4.997960
  0
VERTEX
  8
0
  6
CONTINUOUS
 10
3.461920
 20
5.010280
  0
SEQEND
  8
0
  0
SOLID
  8
0
 62
    15
 10
3.503280
 20
4.997960
 11
3.505040
 21
5.742880
 12
3.532760
 22
4.981680
 13
3.534520
 23
5.726600
  0
POLYLINE
  8
0
  6
CONTINUOUS
 66
     1
 40
0.000000
 41
0.000000
  0
VERTEX
  8
0
  6
CONTINUOUS
 10
3.503280
 20
4.997960
  0
VERTEX
  8
0
  6
CONTINUOUS
 10
3.505040
 20
5.742880
  0
VERTEX
  8
0
  6
CONTINUOUS
 10
3.534520
 20
5.726600
  0
VERTEX
  8
0
  6
CONTINUOUS
 10
3.532760
 20
4.981680
  0
VERTEX
  8
0
  6
CONTINUOUS
 10
3.503280
 20
4.997960
  0
SEQEND
  8
0
  0
SOLID
  8
0
 62
    15
 10
3.532760
 20
4.981680
 11
3.534520
 21
5.726600
 12
3.553000
 22
4.962320
 13
3.554760
 23
5.707240
  0
POLYLINE
  8
0
  6
CONTINUOUS
 66
     1
 40
0.000000
 41
0.000000
  0
VERTEX
  8
0
  6
CONTINUOUS
 10
3.532760
 20
4.981680
  0
VERTEX
  8
0
  6
CONTINUOUS
 10
3.534520
 20
5.726600
  0
VERTEX
  8
0
  6
CONTINUOUS
 10
3.554760
 20
5.707240
  0
VERTEX
  8
0
  6
CONTINUOUS
 10
3.553000
 20
4.962320
  0
VERTEX
  8
0
  6
CONTINUOUS
 10
3.532760
 20
4.981680
  0
SEQEND
  8
0
  0
SOLID
  8
0
 62
    15
 10
3.553000
 20
4.962320
 11
3.554760
 21
5.707240
 12
3.565760
 22
4.940320
 13
3.567080
 23
5.685240
  0
POLYLINE
  8
0
  6
CONTINUOUS
 66
     1
 40
0.000000
 41
0.000000
  0
VERTEX
  8
0
  6
CONTINUOUS
 10
3.553000
 20
4.962320
  0
VERTEX
  8
0
  6
CONTINUOUS
 10
3.554760
 20
5.707240
  0
VERTEX
  8
0
  6
CONTINUOUS
 10
3.567080
 20
5.685240
  0
VERTEX
  8
0
  6
CONTINUOUS
 10
3.565760
 20
4.940320
  0
VERTEX
  8
0
  6
CONTINUOUS
 10
3.553000
 20
4.962320
  0
SEQEND
  8
0
  0
SOLID
  8
0
 62
    15
 10
3.565760
 20
4.940320
 11
3.567080
 21
5.685240
 12
3.572360
 22
4.916120
 13
3.574120
 23
5.661040
  0
POLYLINE
  8
0
  6
CONTINUOUS
 66
     1
 40
0.000000
 41
0.000000
  0
VERTEX
  8
0
  6
CONTINUOUS
 10
3.565760
 20
4.940320
  0
VERTEX
  8
0
  6
CONTINUOUS
 10
3.567080
 20
5.685240
  0
VERTEX
  8
0
  6
CONTINUOUS
 10
3.574120
 20
5.661040
  0
VERTEX
  8
0
  6
CONTINUOUS
 10
3.572360
 20
4.916120
  0
VERTEX
  8
0
  6
CONTINUOUS
 10
3.565760
 20
4.940320
  0
SEQEND
  8
0
  0
SOLID
  8
0
 62
    15
 10
3.572360
 20
4.916120
 11
3.574120
 21
5.661040
 12
3.575000
 22
4.890600
 13
3.576760
 23
5.635080
  0
POLYLINE
  8
0
  6
CONTINUOUS
 66
     1
 40
0.000000
 41
0.000000
  0
VERTEX
  8
0
  6
CONTINUOUS
 10
3.572360
 20
4.916120
  0
VERTEX
  8
0
  6
CONTINUOUS
 10
3.574120
 20
5.661040
  0
VERTEX
  8
0
  6
CONTINUOUS
 10
3.576760
 20
5.635080
  0
VERTEX
  8
0
  6
CONTINUOUS
 10
3.575000
 20
4.890600
  0
VERTEX
  8
0
  6
CONTINUOUS
 10
3.572360
 20
4.916120
  0
SEQEND
  8
0
  0
SOLID
  8
0
 62
    15
 10
3.575000
 20
4.890600
 11
3.576760
 21
5.635080
 12
3.575000
 22
4.888400
 13
3.576760
 23
5.632880
  0
POLYLINE
  8
0
  6
CONTINUOUS
 66
     1
 40
0.000000
 41
0.000000
  0
VERTEX
  8
0
  6
CONTINUOUS
 10
3.575000
 20
4.890600
  0
VERTEX
  8
0
  6
CONTINUOUS
 10
3.576760
 20
5.635080
  0
VERTEX
  8
0
  6
CONTINUOUS
 10
3.576760
 20
5.632880
  0
VERTEX
  8
0
  6
CONTINUOUS
 10
3.575000
 20
4.888400
  0
VERTEX
  8
0
  6
CONTINUOUS
 10
3.575000
 20
4.890600
  0
SEQEND
  8
0
  0
SOLID
  8
0
 62
    15
 10
3.575000
 20
4.888400
 11
3.576760
 21
5.632880
 12
3.588200
 22
4.889280
 13
3.589960
 23
5.633760
  0
POLYLINE
  8
0
  6
CONTINUOUS
 66
     1
 40
0.000000
 41
0.000000
  0
VERTEX
  8
0
  6
CONTINUOUS
 10
3.575000
 20
4.888400
  0
VERTEX
  8
0
  6
CONTINUOUS
 10
3.576760
 20
5.632880
  0
VERTEX
  8
0
  6
CONTINUOUS
 10
3.589960
 20
5.633760
  0
VERTEX
  8
0
  6
CONTINUOUS
 10
3.588200
 20
4.889280
  0
VERTEX
  8
0
  6
CONTINUOUS
 10
3.575000
 20
4.888400
  0
SEQEND
  8
0
  0
SOLID
  8
0
 62
    15
 10
3.588200
 20
4.889280
 11
3.589960
 21
5.633760
 12
3.602720
 22
4.889720
 13
3.604480
 23
5.634640
  0
POLYLINE
  8
0
  6
CONTINUOUS
 66
     1
 40
0.000000
 41
0.000000
  0
VERTEX
  8
0
  6
CONTINUOUS
 10
3.588200
 20
4.889280
  0
VERTEX
  8
0
  6
CONTINUOUS
 10
3.589960
 20
5.633760
  0
VERTEX
  8
0
  6
CONTINUOUS
 10
3.604480
 20
5.634640
  0
VERTEX
  8
0
  6
CONTINUOUS
 10
3.602720
 20
4.889720
  0
VERTEX
  8
0
  6
CONTINUOUS
 10
3.588200
 20
4.889280
  0
SEQEND
  8
0
  0
SOLID
  8
0
 62
    15
 10
3.602720
 20
4.889720
 11
3.604480
 21
5.634640
 12
3.635720
 22
4.890160
 13
3.637480
 23
5.635080
  0
POLYLINE
  8
0
  6
CONTINUOUS
 66
     1
 40
0.000000
 41
0.000000
  0
VERTEX
  8
0
  6
CONTINUOUS
 10
3.602720
 20
4.889720
  0
VERTEX
  8
0
  6
CONTINUOUS
 10
3.604480
 20
5.634640
  0
VERTEX
  8
0
  6
CONTINUOUS
 10
3.637480
 20
5.635080
  0
VERTEX
  8
0
  6
CONTINUOUS
 10
3.635720
 20
4.890160
  0
VERTEX
  8
0
  6
CONTINUOUS
 10
3.602720
 20
4.889720
  0
SEQEND
  8
0
  0
SOLID
  8
0
 62
    15
 10
3.635720
 20
4.890160
 11
3.637480
 21
5.635080
 12
3.670920
 22
4.887520
 13
3.672240
 23
5.632000
  0
POLYLINE
  8
0
  6
CONTINUOUS
 66
     1
 40
0.000000
 41
0.000000
  0
VERTEX
  8
0
  6
CONTINUOUS
 10
3.635720
 20
4.890160
  0
VERTEX
  8
0
  6
CONTINUOUS
 10
3.637480
 20
5.635080
  0
VERTEX
  8
0
  6
CONTINUOUS
 10
3.672240
 20
5.632000
  0
VERTEX
  8
0
  6
CONTINUOUS
 10
3.670920
 20
4.887520
  0
VERTEX
  8
0
  6
CONTINUOUS
 10
3.635720
 20
4.890160
  0
SEQEND
  8
0
  0
SOLID
  8
0
 62
    15
 10
3.670920
 20
4.887520
 11
3.672240
 21
5.632000
 12
3.705680
 22
4.879160
 13
3.707440
 23
5.624080
  0
POLYLINE
  8
0
  6
CONTINUOUS
 66
     1
 40
0.000000
 41
0.000000
  0
VERTEX
  8
0
  6
CONTINUOUS
 10
3.670920
 20
4.887520
  0
VERTEX
  8
0
  6
CONTINUOUS
 10
3.672240
 20
5.632000
  0
VERTEX
  8
0
  6
CONTINUOUS
 10
3.707440
 20
5.624080
  0
VERTEX
  8
0
  6
CONTINUOUS
 10
3.705680
 20
4.879160
  0
VERTEX
  8
0
  6
CONTINUOUS
 10
3.670920
 20
4.887520
  0
SEQEND
  8
0
  0
SOLID
  8
0
 62
    15
 10
3.705680
 20
4.879160
 11
3.707440
 21
5.624080
 12
3.737360
 22
4.863760
 13
3.739120
 23
5.608240
  0
POLYLINE
  8
0
  6
CONTINUOUS
 66
     1
 40
0.000000
 41
0.000000
  0
VERTEX
  8
0
  6
CONTINUOUS
 10
3.705680
 20
4.879160
  0
VERTEX
  8
0
  6
CONTINUOUS
 10
3.707440
 20
5.624080
  0
VERTEX
  8
0
  6
CONTINUOUS
 10
3.739120
 20
5.608240
  0
VERTEX
  8
0
  6
CONTINUOUS
 10
3.737360
 20
4.863760
  0
VERTEX
  8
0
  6
CONTINUOUS
 10
3.705680
 20
4.879160
  0
SEQEND
  8
0
  0
SOLID
  8
0
 62
    15
 10
2.312640
 20
5.102680
 11
2.314400
 21
5.847600
 12
3.337840
 22
5.102680
 13
3.339160
 23
5.847600
  0
POLYLINE
  8
0
  6
CONTINUOUS
 66
     1
 40
0.000000
 41
0.000000
  0
VERTEX
  8
0
  6
CONTINUOUS
 10
2.312640
 20
5.102680
  0
VERTEX
  8
0
  6
CONTINUOUS
 10
2.314400
 20
5.847600
  0
VERTEX
  8
0
  6
CONTINUOUS
 10
3.339160
 20
5.847600
  0
VERTEX
  8
0
  6
CONTINUOUS
 10
3.337840
 20
5.102680
  0
VERTEX
  8
0
  6
CONTINUOUS
 10
2.312640
 20
5.102680
  0
SEQEND
  8
0
  0
SOLID
  8
0
 62
    15
 10
3.763760
 20
4.838680
 11
3.765080
 21
5.583600
 12
3.773440
 22
4.822400
 13
3.775200
 23
5.566880
  0
POLYLINE
  8
0
  6
CONTINUOUS
 66
     1
 40
0.000000
 41
0.000000
  0
VERTEX
  8
0
  6
CONTINUOUS
 10
3.763760
 20
4.838680
  0
VERTEX
  8
0
  6
CONTINUOUS
 10
3.765080
 20
5.583600
  0
VERTEX
  8
0
  6
CONTINUOUS
 10
3.775200
 20
5.566880
  0
VERTEX
  8
0
  6
CONTINUOUS
 10
3.773440
 20
4.822400
  0
VERTEX
  8
0
  6
CONTINUOUS
 10
3.763760
 20
4.838680
  0
SEQEND
  8
0
  0
SOLID
  8
0
 62
    15
 10
3.773440
 20
4.822400
 11
3.775200
 21
5.566880
 12
3.781360
 22
4.802600
 13
3.782680
 23
5.547520
  0
POLYLINE
  8
0
  6
CONTINUOUS
 66
     1
 40
0.000000
 41
0.000000
  0
VERTEX
  8
0
  6
CONTINUOUS
 10
3.773440
 20
4.822400
  0
VERTEX
  8
0
  6
CONTINUOUS
 10
3.775200
 20
5.566880
  0
VERTEX
  8
0
  6
CONTINUOUS
 10
3.782680
 20
5.547520
  0
VERTEX
  8
0
  6
CONTINUOUS
 10
3.781360
 20
4.802600
  0
VERTEX
  8
0
  6
CONTINUOUS
 10
3.773440
 20
4.822400
  0
SEQEND
  8
0
  0
SOLID
  8
0
 62
    15
 10
3.781360
 20
4.802600
 11
3.782680
 21
5.547520
 12
3.786200
 22
4.779720
 13
3.787520
 23
5.524200
  0
POLYLINE
  8
0
  6
CONTINUOUS
 66
     1
 40
0.000000
 41
0.000000
  0
VERTEX
  8
0
  6
CONTINUOUS
 10
3.781360
 20
4.802600
  0
VERTEX
  8
0
  6
CONTINUOUS
 10
3.782680
 20
5.547520
  0
VERTEX
  8
0
  6
CONTINUOUS
 10
3.787520
 20
5.524200
  0
VERTEX
  8
0
  6
CONTINUOUS
 10
3.786200
 20
4.779720
  0
VERTEX
  8
0
  6
CONTINUOUS
 10
3.781360
 20
4.802600
  0
SEQEND
  8
0
  0
SOLID
  8
0
 62
    15
 10
3.786200
 20
4.779720
 11
3.787520
 21
5.524200
 12
3.787520
 22
4.752880
 13
3.789280
 23
5.497800
  0
POLYLINE
  8
0
  6
CONTINUOUS
 66
     1
 40
0.000000
 41
0.000000
  0
VERTEX
  8
0
  6
CONTINUOUS
 10
3.786200
 20
4.779720
  0
VERTEX
  8
0
  6
CONTINUOUS
 10
3.787520
 20
5.524200
  0
VERTEX
  8
0
  6
CONTINUOUS
 10
3.789280
 20
5.497800
  0
VERTEX
  8
0
  6
CONTINUOUS
 10
3.787520
 20
4.752880
  0
VERTEX
  8
0
  6
CONTINUOUS
 10
3.786200
 20
4.779720
  0
SEQEND
  8
0
  0
SOLID
  8
0
 62
    15
 10
3.787520
 20
4.752880
 11
3.789280
 21
5.497800
 12
3.787520
 22
4.736160
 13
3.789280
 23
5.481080
  0
POLYLINE
  8
0
  6
CONTINUOUS
 66
     1
 40
0.000000
 41
0.000000
  0
VERTEX
  8
0
  6
CONTINUOUS
 10
3.787520
 20
4.752880
  0
VERTEX
  8
0
  6
CONTINUOUS
 10
3.789280
 20
5.497800
  0
VERTEX
  8
0
  6
CONTINUOUS
 10
3.789280
 20
5.481080
  0
VERTEX
  8
0
  6
CONTINUOUS
 10
3.787520
 20
4.736160
  0
VERTEX
  8
0
  6
CONTINUOUS
 10
3.787520
 20
4.752880
  0
SEQEND
  8
0
  0
SOLID
  8
0
 62
    15
 10
3.787520
 20
4.736160
 11
3.789280
 21
5.481080
 12
4.929320
 22
4.736160
 13
4.931080
 23
5.481080
  0
POLYLINE
  8
0
  6
CONTINUOUS
 66
     1
 40
0.000000
 41
0.000000
  0
VERTEX
  8
0
  6
CONTINUOUS
 10
3.787520
 20
4.736160
  0
VERTEX
  8
0
  6
CONTINUOUS
 10
3.789280
 20
5.481080
  0
VERTEX
  8
0
  6
CONTINUOUS
 10
4.931080
 20
5.481080
  0
VERTEX
  8
0
  6
CONTINUOUS
 10
4.929320
 20
4.736160
  0
VERTEX
  8
0
  6
CONTINUOUS
 10
3.787520
 20
4.736160
  0
SEQEND
  8
0
  0
SOLID
  8
0
 62
    15
 10
4.929320
 20
4.736160
 11
4.931080
 21
5.481080
 12
4.972880
 22
4.732200
 13
4.974640
 23
5.477120
  0
POLYLINE
  8
0
  6
CONTINUOUS
 66
     1
 40
0.000000
 41
0.000000
  0
VERTEX
  8
0
  6
CONTINUOUS
 10
4.929320
 20
4.736160
  0
VERTEX
  8
0
  6
CONTINUOUS
 10
4.931080
 20
5.481080
  0
VERTEX
  8
0
  6
CONTINUOUS
 10
4.974640
 20
5.477120
  0
VERTEX
  8
0
  6
CONTINUOUS
 10
4.972880
 20
4.732200
  0
VERTEX
  8
0
  6
CONTINUOUS
 10
4.929320
 20
4.736160
  0
SEQEND
  8
0
  0
SOLID
  8
0
 62
    15
 10
4.972880
 20
4.732200
 11
4.974640
 21
5.477120
 12
5.011600
 22
4.720760
 13
5.013360
 23
5.465680
  0
POLYLINE
  8
0
  6
CONTINUOUS
 66
     1
 40
0.000000
 41
0.000000
  0
VERTEX
  8
0
  6
CONTINUOUS
 10
4.972880
 20
4.732200
  0
VERTEX
  8
0
  6
CONTINUOUS
 10
4.974640
 20
5.477120
  0
VERTEX
  8
0
  6
CONTINUOUS
 10
5.013360
 20
5.465680
  0
VERTEX
  8
0
  6
CONTINUOUS
 10
5.011600
 20
4.720760
  0
VERTEX
  8
0
  6
CONTINUOUS
 10
4.972880
 20
4.732200
  0
SEQEND
  8
0
  0
SOLID
  8
0
 62
    15
 10
5.011600
 20
4.720760
 11
5.013360
 21
5.465680
 12
5.045040
 22
4.702720
 13
5.046800
 23
5.447640
  0
POLYLINE
  8
0
  6
CONTINUOUS
 66
     1
 40
0.000000
 41
0.000000
  0
VERTEX
  8
0
  6
CONTINUOUS
 10
5.011600
 20
4.720760
  0
VERTEX
  8
0
  6
CONTINUOUS
 10
5.013360
 20
5.465680
  0
VERTEX
  8
0
  6
CONTINUOUS
 10
5.046800
 20
5.447640
  0
VERTEX
  8
0
  6
CONTINUOUS
 10
5.045040
 20
4.702720
  0
VERTEX
  8
0
  6
CONTINUOUS
 10
5.011600
 20
4.720760
  0
SEQEND
  8
0
  0
SOLID
  8
0
 62
    15
 10
5.045040
 20
4.702720
 11
5.046800
 21
5.447640
 12
5.073200
 22
4.679400
 13
5.074960
 23
5.424320
  0
POLYLINE
  8
0
  6
CONTINUOUS
 66
     1
 40
0.000000
 41
0.000000
  0
VERTEX
  8
0
  6
CONTINUOUS
 10
5.045040
 20
4.702720
  0
VERTEX
  8
0
  6
CONTINUOUS
 10
5.046800
 20
5.447640
  0
VERTEX
  8
0
  6
CONTINUOUS
 10
5.074960
 20
5.424320
  0
VERTEX
  8
0
  6
CONTINUOUS
 10
5.073200
 20
4.679400
  0
VERTEX
  8
0
  6
CONTINUOUS
 10
5.045040
 20
4.702720
  0
SEQEND
  8
0
  0
SOLID
  8
0
 62
    15
 10
5.073200
 20
4.679400
 11
5.074960
 21
5.424320
 12
5.095640
 22
4.651680
 13
5.097400
 23
5.396600
  0
POLYLINE
  8
0
  6
CONTINUOUS
 66
     1
 40
0.000000
 41
0.000000
  0
VERTEX
  8
0
  6
CONTINUOUS
 10
5.073200
 20
4.679400
  0
VERTEX
  8
0
  6
CONTINUOUS
 10
5.074960
 20
5.424320
  0
VERTEX
  8
0
  6
CONTINUOUS
 10
5.097400
 20
5.396600
  0
VERTEX
  8
0
  6
CONTINUOUS
 10
5.095640
 20
4.651680
  0
VERTEX
  8
0
  6
CONTINUOUS
 10
5.073200
 20
4.679400
  0
SEQEND
  8
0
  0
SOLID
  8
0
 62
    15
 10
5.095640
 20
4.651680
 11
5.097400
 21
5.396600
 12
5.111920
 22
4.620440
 13
5.113680
 23
5.364920
  0
POLYLINE
  8
0
  6
CONTINUOUS
 66
     1
 40
0.000000
 41
0.000000
  0
VERTEX
  8
0
  6
CONTINUOUS
 10
5.095640
 20
4.651680
  0
VERTEX
  8
0
  6
CONTINUOUS
 10
5.097400
 20
5.396600
  0
VERTEX
  8
0
  6
CONTINUOUS
 10
5.113680
 20
5.364920
  0
VERTEX
  8
0
  6
CONTINUOUS
 10
5.111920
 20
4.620440
  0
VERTEX
  8
0
  6
CONTINUOUS
 10
5.095640
 20
4.651680
  0
SEQEND
  8
0
  0
SOLID
  8
0
 62
    15
 10
5.121600
 20
4.586560
 11
5.123360
 21
5.331040
 12
5.125120
 22
4.550920
 13
5.126880
 23
5.295400
  0
POLYLINE
  8
0
  6
CONTINUOUS
 66
     1
 40
0.000000
 41
0.000000
  0
VERTEX
  8
0
  6
CONTINUOUS
 10
5.121600
 20
4.586560
  0
VERTEX
  8
0
  6
CONTINUOUS
 10
5.123360
 20
5.331040
  0
VERTEX
  8
0
  6
CONTINUOUS
 10
5.126880
 20
5.295400
  0
VERTEX
  8
0
  6
CONTINUOUS
 10
5.125120
 20
4.550920
  0
VERTEX
  8
0
  6
CONTINUOUS
 10
5.121600
 20
4.586560
  0
SEQEND
  8
0
  0
SOLID
  8
0
 62
    15
 10
5.111920
 20
4.620440
 11
5.113680
 21
5.364920
 12
5.121600
 22
4.586560
 13
5.123360
 23
5.331040
  0
POLYLINE
  8
0
  6
CONTINUOUS
 66
     1
 40
0.000000
 41
0.000000
  0
VERTEX
  8
0
  6
CONTINUOUS
 10
5.111920
 20
4.620440
  0
VERTEX
  8
0
  6
CONTINUOUS
 10
5.113680
 20
5.364920
  0
VERTEX
  8
0
  6
CONTINUOUS
 10
5.123360
 20
5.331040
  0
VERTEX
  8
0
  6
CONTINUOUS
 10
5.121600
 20
4.586560
  0
VERTEX
  8
0
  6
CONTINUOUS
 10
5.111920
 20
4.620440
  0
SEQEND
  8
0
  0
SOLID
  8
0
 62
    15
 10
5.302440
 20
4.548720
 11
5.303760
 21
5.293640
 12
5.302440
 22
4.313320
 13
5.303760
 23
5.058240
  0
POLYLINE
  8
0
  6
CONTINUOUS
 66
     1
 40
0.000000
 41
0.000000
  0
VERTEX
  8
0
  6
CONTINUOUS
 10
5.302440
 20
4.548720
  0
VERTEX
  8
0
  6
CONTINUOUS
 10
5.303760
 20
5.293640
  0
VERTEX
  8
0
  6
CONTINUOUS
 10
5.303760
 20
5.058240
  0
VERTEX
  8
0
  6
CONTINUOUS
 10
5.302440
 20
4.313320
  0
VERTEX
  8
0
  6
CONTINUOUS
 10
5.302440
 20
4.548720
  0
SEQEND
  8
0
  0
SOLID
  8
0
 62
    15
 10
5.125120
 20
4.548720
 11
5.126880
 21
5.293640
 12
5.302440
 22
4.548720
 13
5.303760
 23
5.293640
  0
POLYLINE
  8
0
  6
CONTINUOUS
 66
     1
 40
0.000000
 41
0.000000
  0
VERTEX
  8
0
  6
CONTINUOUS
 10
5.125120
 20
4.548720
  0
VERTEX
  8
0
  6
CONTINUOUS
 10
5.126880
 20
5.293640
  0
VERTEX
  8
0
  6
CONTINUOUS
 10
5.303760
 20
5.293640
  0
VERTEX
  8
0
  6
CONTINUOUS
 10
5.302440
 20
4.548720
  0
VERTEX
  8
0
  6
CONTINUOUS
 10
5.125120
 20
4.548720
  0
SEQEND
  8
0
  0
SOLID
  8
0
 62
    15
 10
5.125120
 20
4.550920
 11
5.126880
 21
5.295400
 12
5.125120
 22
4.548720
 13
5.126880
 23
5.293640
  0
POLYLINE
  8
0
  6
CONTINUOUS
 66
     1
 40
0.000000
 41
0.000000
  0
VERTEX
  8
0
  6
CONTINUOUS
 10
5.125120
 20
4.550920
  0
VERTEX
  8
0
  6
CONTINUOUS
 10
5.126880
 20
5.295400
  0
VERTEX
  8
0
  6
CONTINUOUS
 10
5.126880
 20
5.293640
  0
VERTEX
  8
0
  6
CONTINUOUS
 10
5.125120
 20
4.548720
  0
VERTEX
  8
0
  6
CONTINUOUS
 10
5.125120
 20
4.550920
  0
SEQEND
  8
0
  0
SOLID
  8
0
 62
    15
 10
5.302440
 20
4.313320
 11
5.303760
 21
5.058240
 12
5.302440
 22
4.311120
 13
5.303760
 23
5.056040
  0
POLYLINE
  8
0
  6
CONTINUOUS
 66
     1
 40
0.000000
 41
0.000000
  0
VERTEX
  8
0
  6
CONTINUOUS
 10
5.302440
 20
4.313320
  0
VERTEX
  8
0
  6
CONTINUOUS
 10
5.303760
 20
5.058240
  0
VERTEX
  8
0
  6
CONTINUOUS
 10
5.303760
 20
5.056040
  0
VERTEX
  8
0
  6
CONTINUOUS
 10
5.302440
 20
4.311120
  0
VERTEX
  8
0
  6
CONTINUOUS
 10
5.302440
 20
4.313320
  0
SEQEND
  8
0
  0
POLYLINE
  8
0
  6
CONTINUOUS
 66
     1
 40
0.000000
 41
0.000000
  0
VERTEX
  8
0
  6
CONTINUOUS
 10
5.302440
 20
4.311120
  0
VERTEX
  8
0
  6
CONTINUOUS
 10
2.312640
 20
4.311120
  0
VERTEX
  8
0
  6
CONTINUOUS
 10
2.312640
 20
5.102680
  0
VERTEX
  8
0
  6
CONTINUOUS
 10
3.337840
 20
5.102680
  0
VERTEX
  8
0
  6
CONTINUOUS
 10
3.337840
 20
5.021720
  0
VERTEX
  8
0
  6
CONTINUOUS
 10
3.374800
 20
5.020400
  0
VERTEX
  8
0
  6
CONTINUOUS
 10
3.407360
 20
5.018200
  0
VERTEX
  8
0
  6
CONTINUOUS
 10
3.436400
 20
5.014680
  0
VERTEX
  8
0
  6
CONTINUOUS
 10
3.461920
 20
5.010280
  0
VERTEX
  8
0
  6
CONTINUOUS
 10
3.503280
 20
4.997960
  0
VERTEX
  8
0
  6
CONTINUOUS
 10
3.532760
 20
4.981680
  0
VERTEX
  8
0
  6
CONTINUOUS
 10
3.553000
 20
4.962320
  0
VERTEX
  8
0
  6
CONTINUOUS
 10
3.565760
 20
4.940320
  0
VERTEX
  8
0
  6
CONTINUOUS
 10
3.572360
 20
4.916120
  0
VERTEX
  8
0
  6
CONTINUOUS
 10
3.575000
 20
4.890600
  0
VERTEX
  8
0
  6
CONTINUOUS
 10
3.575000
 20
4.888400
  0
VERTEX
  8
0
  6
CONTINUOUS
 10
3.588200
 20
4.889280
  0
VERTEX
  8
0
  6
CONTINUOUS
 10
3.602720
 20
4.889720
  0
VERTEX
  8
0
  6
CONTINUOUS
 10
3.635720
 20
4.890160
  0
VERTEX
  8
0
  6
CONTINUOUS
 10
3.670920
 20
4.887520
  0
VERTEX
  8
0
  6
CONTINUOUS
 10
3.705680
 20
4.879160
  0
VERTEX
  8
0
  6
CONTINUOUS
 10
3.737360
 20
4.863760
  0
VERTEX
  8
0
  6
CONTINUOUS
 10
3.763760
 20
4.838680
  0
VERTEX
  8
0
  6
CONTINUOUS
 10
3.773440
 20
4.822400
  0
VERTEX
  8
0
  6
CONTINUOUS
 10
3.781360
 20
4.802600
  0
VERTEX
  8
0
  6
CONTINUOUS
 10
3.786200
 20
4.779720
  0
VERTEX
  8
0
  6
CONTINUOUS
 10
3.787520
 20
4.752880
  0
VERTEX
  8
0
  6
CONTINUOUS
 10
3.787520
 20
4.736160
  0
VERTEX
  8
0
  6
CONTINUOUS
 10
4.929320
 20
4.736160
  0
VERTEX
  8
0
  6
CONTINUOUS
 10
4.972880
 20
4.732200
  0
VERTEX
  8
0
  6
CONTINUOUS
 10
5.011600
 20
4.720760
  0
VERTEX
  8
0
  6
CONTINUOUS
 10
5.045040
 20
4.702720
  0
VERTEX
  8
0
  6
CONTINUOUS
 10
5.073200
 20
4.679400
  0
VERTEX
  8
0
  6
CONTINUOUS
 10
5.095640
 20
4.651680
  0
VERTEX
  8
0
  6
CONTINUOUS
 10
5.111920
 20
4.620440
  0
VERTEX
  8
0
  6
CONTINUOUS
 10
5.121600
 20
4.586560
  0
VERTEX
  8
0
  6
CONTINUOUS
 10
5.125120
 20
4.550920
  0
VERTEX
  8
0
  6
CONTINUOUS
 10
5.125120
 20
4.548720
  0
VERTEX
  8
0
  6
CONTINUOUS
 10
5.302440
 20
4.548720
  0
VERTEX
  8
0
  6
CONTINUOUS
 10
5.302440
 20
4.313320
  0
VERTEX
  8
0
  6
CONTINUOUS
 10
5.302440
 20
4.311120
  0
SEQEND
  8
0
  0
TEXT
  8
0
 10
3.513400
 20
4.083640
 40
0.138119
  1
BA  439
 41
1.000000
  7
SN0
 71
     0
 72
     5
 11
4.103332
 21
4.083640
  0
TEXT
  8
0
 10
3.408240
 20
3.891800
 40
0.138119
  1
13/16" x 3"
 41
1.000000
  7
SN0
 71
     0
 72
     5
 11
4.207344
 21
3.891800
  0
POLYLINE
  8
0
  6
CONTINUOUS
 66
     1
 40
0.014080
 41
0.014080
  0
VERTEX
  8
0
  6
CONTINUOUS
 10
5.302880
 20
6.320600
  0
VERTEX
  8
0
  6
CONTINUOUS
 10
5.302880
 20
6.556000
  0
VERTEX
  8
0
  6
CONTINUOUS
 10
5.126000
 20
6.556000
  0
VERTEX
  8
0
  6
CONTINUOUS
 10
5.125120
 20
6.575800
  0
VERTEX
  8
0
  6
CONTINUOUS
 10
5.118520
 20
6.610560
  0
VERTEX
  8
0
  6
CONTINUOUS
 10
5.112800
 20
6.627280
  0
VERTEX
  8
0
  6
CONTINUOUS
 10
5.096520
 20
6.658520
  0
VERTEX
  8
0
  6
CONTINUOUS
 10
5.074080
 20
6.686680
  0
VERTEX
  8
0
  6
CONTINUOUS
 10
5.060880
 20
6.699000
  0
VERTEX
  8
0
  6
CONTINUOUS
 10
5.030080
 20
6.719680
  0
VERTEX
  8
0
  6
CONTINUOUS
 10
5.012480
 20
6.728040
  0
VERTEX
  8
0
  6
CONTINUOUS
 10
4.994000
 20
6.734640
  0
VERTEX
  8
0
  6
CONTINUOUS
 10
4.973760
 20
6.739480
  0
VERTEX
  8
0
  6
CONTINUOUS
 10
4.952640
 20
6.742560
  0
VERTEX
  8
0
  6
CONTINUOUS
 10
4.926240
 20
6.743440
  0
VERTEX
  8
0
  6
CONTINUOUS
 10
3.788400
 20
6.743440
  0
VERTEX
  8
0
  6
CONTINUOUS
 10
3.787960
 20
6.773800
  0
VERTEX
  8
0
  6
CONTINUOUS
 10
3.784880
 20
6.798880
  0
VERTEX
  8
0
  6
CONTINUOUS
 10
3.774320
 20
6.829240
  0
VERTEX
  8
0
  6
CONTINUOUS
 10
3.758480
 20
6.853000
  0
VERTEX
  8
0
  6
CONTINUOUS
 10
3.745280
 20
6.865320
  0
VERTEX
  8
0
  6
CONTINUOUS
 10
3.722840
 20
6.879400
  0
VERTEX
  8
0
  6
CONTINUOUS
 10
3.706560
 20
6.886440
  0
VERTEX
  8
0
  6
CONTINUOUS
 10
3.689400
 20
6.891280
  0
VERTEX
  8
0
  6
CONTINUOUS
 10
3.653760
 20
6.896560
  0
VERTEX
  8
0
  6
CONTINUOUS
 10
3.619440
 20
6.897440
  0
VERTEX
  8
0
  6
CONTINUOUS
 10
3.575880
 20
6.895240
  0
VERTEX
  8
0
  6
CONTINUOUS
 10
3.573240
 20
6.923400
  0
VERTEX
  8
0
  6
CONTINUOUS
 10
3.566640
 20
6.947600
  0
VERTEX
  8
0
  6
CONTINUOUS
 10
3.553880
 20
6.969600
  0
VERTEX
  8
0
  6
CONTINUOUS
 10
3.545080
 20
6.979720
  0
VERTEX
  8
0
  6
CONTINUOUS
 10
3.527480
 20
6.993360
  0
VERTEX
  8
0
  6
CONTINUOUS
 10
3.504160
 20
7.004800
  0
VERTEX
  8
0
  6
CONTINUOUS
 10
3.474680
 20
7.014480
  0
VERTEX
  8
0
  6
CONTINUOUS
 10
3.437720
 20
7.021960
  0
VERTEX
  8
0
  6
CONTINUOUS
 10
3.392400
 20
7.026800
  0
VERTEX
  8
0
  6
CONTINUOUS
 10
3.338720
 20
7.028560
  0
VERTEX
  8
0
  6
CONTINUOUS
 10
3.338720
 20
7.109960
  0
VERTEX
  8
0
  6
CONTINUOUS
 10
2.313520
 20
7.109960
  0
VERTEX
  8
0
  6
CONTINUOUS
 10
2.313520
 20
6.318400
  0
VERTEX
  8
0
  6
CONTINUOUS
 10
5.302880
 20
6.318400
  0
SEQEND
  8
0
  0
TEXT
  8
0
 10
2.687080
 20
6.608360
 40
0.138119
  1
BA  439
 41
1.000000
  7
SN0
 71
     0
 72
     5
 11
3.277012
 21
6.608360
  0
TEXT
  8
0
 10
2.582360
 20
6.416960
 40
0.138119
  1
13/16" x 3"
 41
1.000000
  7
SN0
 71
     0
 72
     5
 11
3.381464
 21
6.416960
  0
ENDSEC
  0
EOF
