  0
SECTION
  2
HEADER
  9
$ACADVER
  1
AC1006
  9
$EXTMIN
 10
4.198920
 20
0.536800
  9
$EXTMAX
 10
6.999520
 20
3.164920
  9
$LTSCALE
 40
0.044000
  9
$PDMODE
 70
    35
  9
$PDSIZE
 40
0.035200
  0
ENDSEC
  0
SECTION
  2
TABLES
  0
TABLE
  2
LTYPE
 70
     9
  0
LTYPE
  2
CONTINUOUS
 70
    64
  3
Solid line
 72
    65
 73
     0
 40
0.000000
  0
LTYPE
  2
DASHED
 70
    64
  3
__ __ __ __ __ __ __ __ __ __ __ __ __ __ __
 72
    65
 73
     2
 40
0.000330
 49
0.000220
 49
-0.000110
  0
LTYPE
  2
HIDDEN
 70
    64
  3
 _ _ _ _ _ _ _ _ _ _ _ _ _ _ _ _ _ _ _ _ _ _
 72
    65
 73
     2
 40
0.000165
 49
0.000110
 49
-0.000055
  0
LTYPE
  2
CENTER
 70
    64
  3
____ _ ____ _ ____ _ ____ _ ____ _ ____ _ ____
 72
    65
 73
     4
 40
0.000880
 49
0.000550
 49
-0.000110
 49
0.000110
 49
-0.000110
  0
LTYPE
  2
PHANTOM
 70
    64
  3
_____ _ _ _____ _ _ _____ _ _ _____ _ _ ____
 72
    65
 73
     6
 40
0.001100
 49
0.000550
 49
-0.000110
 49
0.000110
 49
-0.000110
 49
0.000110
 49
-0.000110
  0
LTYPE
  2
DOT
 70
    64
  3
...............................................
 72
    65
 73
     2
 40
0.000110
 49
0.000000
 49
-0.000110
  0
LTYPE
  2
DASHDOT
 70
    64
  3
__ . __ . __ . __ . __ . __ . __ . __ . __ . __
 72
    65
 73
     4
 40
0.000440
 49
0.000220
 49
-0.000110
 49
0.000000
 49
-0.000110
  0
LTYPE
  2
BORDER
 70
    64
  3
__ __ . __ __ . __ __ . __ __ . __ __ . __ __
 72
    65
 73
     6
 40
0.000770
 49
0.000220
 49
-0.000110
 49
0.000220
 49
-0.000110
 49
0.000000
 49
-0.000110
  0
LTYPE
  2
DIVIDE
 70
    64
  3
__ . . __ . . __ . . __ . . __ . . __ . . __
 72
    65
 73
     6
 40
0.000550
 49
0.000220
 49
-0.000110
 49
0.000000
 49
-0.000110
 49
0.000000
 49
-0.000110
  0
LTYPE
  2
DOTDOT
 70
    64
  3
 . .  . .  . .  . .  . .  . . 
 72
    65
 73
     5
 40
0.000242
 49
-0.000110
 49
0.000000
 49
-0.000110
 49
0.000000
 49
-0.000110
  0
ENDTAB
  0
TABLE
  2
STYLE
 70
     2
  0
STYLE
 70
     0
  2
SN0
 40
0.000000
 41
0.000440
 50
0.000000
 71
     0
 42
0.000000
  3
ROMAND
  0
STYLE
 70
    68
  2
SV0
 40
0.000000
 41
0.000440
 50
0.000000
 71
     0
 42
0.000000
  3
ROMAND
  0
ENDTAB
  0
TABLE
  2
LAYER
 70
     3
  0
LAYER
  2
FOREGROUND
 70
    64
 62
     7
  6
CONTINUOUS
  0
LAYER
  2
BACKGROUND
 70
    65
 62
    -7
  6
CONTINUOUS
  0
LAYER
  2
0
 70
    64
 62
     7
  6
CONTINUOUS
  0
ENDTAB
  0
ENDSEC
  0
SECTION
  2
ENTITIES
  0
POLYLINE
  8
FOREGROUND
  6
CONTINUOUS
 66
     1
 40
0.000000
 41
0.000000
  0
VERTEX
  8
FOREGROUND
  6
CONTINUOUS
 10
0.000000
 20
3.701720
  0
VERTEX
  8
FOREGROUND
  6
CONTINUOUS
 10
8.499920
 20
3.701720
  0
VERTEX
  8
FOREGROUND
  6
CONTINUOUS
 10
8.499920
 20
-7.298280
  0
VERTEX
  8
FOREGROUND
  6
CONTINUOUS
 10
0.000000
 20
-7.298280
  0
VERTEX
  8
FOREGROUND
  6
CONTINUOUS
 10
0.000000
 20
3.701720
  0
SEQEND
  8
0
  0
SOLID
  8
0
 62
    15
 10
6.714400
 20
1.408440
 11
6.713080
 21
2.148520
 12
6.727160
 22
1.395240
 13
6.726280
 23
2.135320
  0
POLYLINE
  8
0
  6
CONTINUOUS
 66
     1
 40
0.000000
 41
0.000000
  0
VERTEX
  8
0
  6
CONTINUOUS
 10
6.714400
 20
1.408440
  0
VERTEX
  8
0
  6
CONTINUOUS
 10
6.713080
 20
2.148520
  0
VERTEX
  8
0
  6
CONTINUOUS
 10
6.726280
 20
2.135320
  0
VERTEX
  8
0
  6
CONTINUOUS
 10
6.727160
 20
1.395240
  0
VERTEX
  8
0
  6
CONTINUOUS
 10
6.714400
 20
1.408440
  0
SEQEND
  8
0
  0
SOLID
  8
0
 62
    15
 10
6.299480
 20
1.361360
 11
6.298160
 21
2.101000
 12
6.306960
 22
1.378080
 13
6.305640
 23
2.118160
  0
POLYLINE
  8
0
  6
CONTINUOUS
 66
     1
 40
0.000000
 41
0.000000
  0
VERTEX
  8
0
  6
CONTINUOUS
 10
6.299480
 20
1.361360
  0
VERTEX
  8
0
  6
CONTINUOUS
 10
6.298160
 20
2.101000
  0
VERTEX
  8
0
  6
CONTINUOUS
 10
6.305640
 20
2.118160
  0
VERTEX
  8
0
  6
CONTINUOUS
 10
6.306960
 20
1.378080
  0
VERTEX
  8
0
  6
CONTINUOUS
 10
6.299480
 20
1.361360
  0
SEQEND
  8
0
  0
SOLID
  8
0
 62
    15
 10
6.306960
 20
1.378080
 11
6.305640
 21
2.118160
 12
6.317520
 22
1.393480
 13
6.316200
 23
2.133560
  0
POLYLINE
  8
0
  6
CONTINUOUS
 66
     1
 40
0.000000
 41
0.000000
  0
VERTEX
  8
0
  6
CONTINUOUS
 10
6.306960
 20
1.378080
  0
VERTEX
  8
0
  6
CONTINUOUS
 10
6.305640
 20
2.118160
  0
VERTEX
  8
0
  6
CONTINUOUS
 10
6.316200
 20
2.133560
  0
VERTEX
  8
0
  6
CONTINUOUS
 10
6.317520
 20
1.393480
  0
VERTEX
  8
0
  6
CONTINUOUS
 10
6.306960
 20
1.378080
  0
SEQEND
  8
0
  0
SOLID
  8
0
 62
    15
 10
6.317520
 20
1.393480
 11
6.316200
 21
2.133560
 12
6.330280
 22
1.406680
 13
6.328960
 23
2.146760
  0
POLYLINE
  8
0
  6
CONTINUOUS
 66
     1
 40
0.000000
 41
0.000000
  0
VERTEX
  8
0
  6
CONTINUOUS
 10
6.317520
 20
1.393480
  0
VERTEX
  8
0
  6
CONTINUOUS
 10
6.316200
 20
2.133560
  0
VERTEX
  8
0
  6
CONTINUOUS
 10
6.328960
 20
2.146760
  0
VERTEX
  8
0
  6
CONTINUOUS
 10
6.330280
 20
1.406680
  0
VERTEX
  8
0
  6
CONTINUOUS
 10
6.317520
 20
1.393480
  0
SEQEND
  8
0
  0
SOLID
  8
0
 62
    15
 10
6.330280
 20
1.406680
 11
6.328960
 21
2.146760
 12
6.345240
 22
1.417680
 13
6.344360
 23
2.157320
  0
POLYLINE
  8
0
  6
CONTINUOUS
 66
     1
 40
0.000000
 41
0.000000
  0
VERTEX
  8
0
  6
CONTINUOUS
 10
6.330280
 20
1.406680
  0
VERTEX
  8
0
  6
CONTINUOUS
 10
6.328960
 20
2.146760
  0
VERTEX
  8
0
  6
CONTINUOUS
 10
6.344360
 20
2.157320
  0
VERTEX
  8
0
  6
CONTINUOUS
 10
6.345240
 20
1.417680
  0
VERTEX
  8
0
  6
CONTINUOUS
 10
6.330280
 20
1.406680
  0
SEQEND
  8
0
  0
SOLID
  8
0
 62
    15
 10
6.345240
 20
1.417680
 11
6.344360
 21
2.157320
 12
6.361960
 22
1.425600
 13
6.361080
 23
2.165680
  0
POLYLINE
  8
0
  6
CONTINUOUS
 66
     1
 40
0.000000
 41
0.000000
  0
VERTEX
  8
0
  6
CONTINUOUS
 10
6.345240
 20
1.417680
  0
VERTEX
  8
0
  6
CONTINUOUS
 10
6.344360
 20
2.157320
  0
VERTEX
  8
0
  6
CONTINUOUS
 10
6.361080
 20
2.165680
  0
VERTEX
  8
0
  6
CONTINUOUS
 10
6.361960
 20
1.425600
  0
VERTEX
  8
0
  6
CONTINUOUS
 10
6.345240
 20
1.417680
  0
SEQEND
  8
0
  0
SOLID
  8
0
 62
    15
 10
6.361960
 20
1.425600
 11
6.361080
 21
2.165680
 12
6.380440
 22
1.430880
 13
6.379120
 23
2.170520
  0
POLYLINE
  8
0
  6
CONTINUOUS
 66
     1
 40
0.000000
 41
0.000000
  0
VERTEX
  8
0
  6
CONTINUOUS
 10
6.361960
 20
1.425600
  0
VERTEX
  8
0
  6
CONTINUOUS
 10
6.361080
 20
2.165680
  0
VERTEX
  8
0
  6
CONTINUOUS
 10
6.379120
 20
2.170520
  0
VERTEX
  8
0
  6
CONTINUOUS
 10
6.380440
 20
1.430880
  0
VERTEX
  8
0
  6
CONTINUOUS
 10
6.361960
 20
1.425600
  0
SEQEND
  8
0
  0
SOLID
  8
0
 62
    15
 10
6.380440
 20
1.430880
 11
6.379120
 21
2.170520
 12
6.399800
 22
1.432640
 13
6.398920
 23
2.172280
  0
POLYLINE
  8
0
  6
CONTINUOUS
 66
     1
 40
0.000000
 41
0.000000
  0
VERTEX
  8
0
  6
CONTINUOUS
 10
6.380440
 20
1.430880
  0
VERTEX
  8
0
  6
CONTINUOUS
 10
6.379120
 20
2.170520
  0
VERTEX
  8
0
  6
CONTINUOUS
 10
6.398920
 20
2.172280
  0
VERTEX
  8
0
  6
CONTINUOUS
 10
6.399800
 20
1.432640
  0
VERTEX
  8
0
  6
CONTINUOUS
 10
6.380440
 20
1.430880
  0
SEQEND
  8
0
  0
SOLID
  8
0
 62
    15
 10
6.399800
 20
1.432640
 11
6.398920
 21
2.172280
 12
6.419160
 22
1.430880
 13
6.418280
 23
2.170520
  0
POLYLINE
  8
0
  6
CONTINUOUS
 66
     1
 40
0.000000
 41
0.000000
  0
VERTEX
  8
0
  6
CONTINUOUS
 10
6.399800
 20
1.432640
  0
VERTEX
  8
0
  6
CONTINUOUS
 10
6.398920
 20
2.172280
  0
VERTEX
  8
0
  6
CONTINUOUS
 10
6.418280
 20
2.170520
  0
VERTEX
  8
0
  6
CONTINUOUS
 10
6.419160
 20
1.430880
  0
VERTEX
  8
0
  6
CONTINUOUS
 10
6.399800
 20
1.432640
  0
SEQEND
  8
0
  0
SOLID
  8
0
 62
    15
 10
6.419160
 20
1.430880
 11
6.418280
 21
2.170520
 12
6.437640
 22
1.425600
 13
6.436320
 23
2.165680
  0
POLYLINE
  8
0
  6
CONTINUOUS
 66
     1
 40
0.000000
 41
0.000000
  0
VERTEX
  8
0
  6
CONTINUOUS
 10
6.419160
 20
1.430880
  0
VERTEX
  8
0
  6
CONTINUOUS
 10
6.418280
 20
2.170520
  0
VERTEX
  8
0
  6
CONTINUOUS
 10
6.436320
 20
2.165680
  0
VERTEX
  8
0
  6
CONTINUOUS
 10
6.437640
 20
1.425600
  0
VERTEX
  8
0
  6
CONTINUOUS
 10
6.419160
 20
1.430880
  0
SEQEND
  8
0
  0
SOLID
  8
0
 62
    15
 10
6.437640
 20
1.425600
 11
6.436320
 21
2.165680
 12
6.454360
 22
1.417680
 13
6.453040
 23
2.157320
  0
POLYLINE
  8
0
  6
CONTINUOUS
 66
     1
 40
0.000000
 41
0.000000
  0
VERTEX
  8
0
  6
CONTINUOUS
 10
6.437640
 20
1.425600
  0
VERTEX
  8
0
  6
CONTINUOUS
 10
6.436320
 20
2.165680
  0
VERTEX
  8
0
  6
CONTINUOUS
 10
6.453040
 20
2.157320
  0
VERTEX
  8
0
  6
CONTINUOUS
 10
6.454360
 20
1.417680
  0
VERTEX
  8
0
  6
CONTINUOUS
 10
6.437640
 20
1.425600
  0
SEQEND
  8
0
  0
SOLID
  8
0
 62
    15
 10
6.454360
 20
1.417680
 11
6.453040
 21
2.157320
 12
6.469320
 22
1.406680
 13
6.468440
 23
2.146760
  0
POLYLINE
  8
0
  6
CONTINUOUS
 66
     1
 40
0.000000
 41
0.000000
  0
VERTEX
  8
0
  6
CONTINUOUS
 10
6.454360
 20
1.417680
  0
VERTEX
  8
0
  6
CONTINUOUS
 10
6.453040
 20
2.157320
  0
VERTEX
  8
0
  6
CONTINUOUS
 10
6.468440
 20
2.146760
  0
VERTEX
  8
0
  6
CONTINUOUS
 10
6.469320
 20
1.406680
  0
VERTEX
  8
0
  6
CONTINUOUS
 10
6.454360
 20
1.417680
  0
SEQEND
  8
0
  0
SOLID
  8
0
 62
    15
 10
6.469320
 20
1.406680
 11
6.468440
 21
2.146760
 12
6.482520
 22
1.393480
 13
6.481200
 23
2.133120
  0
POLYLINE
  8
0
  6
CONTINUOUS
 66
     1
 40
0.000000
 41
0.000000
  0
VERTEX
  8
0
  6
CONTINUOUS
 10
6.469320
 20
1.406680
  0
VERTEX
  8
0
  6
CONTINUOUS
 10
6.468440
 20
2.146760
  0
VERTEX
  8
0
  6
CONTINUOUS
 10
6.481200
 20
2.133120
  0
VERTEX
  8
0
  6
CONTINUOUS
 10
6.482520
 20
1.393480
  0
VERTEX
  8
0
  6
CONTINUOUS
 10
6.469320
 20
1.406680
  0
SEQEND
  8
0
  0
SOLID
  8
0
 62
    15
 10
6.482520
 20
1.393480
 11
6.481200
 21
2.133120
 12
6.492640
 22
1.378080
 13
6.491760
 23
2.118160
  0
POLYLINE
  8
0
  6
CONTINUOUS
 66
     1
 40
0.000000
 41
0.000000
  0
VERTEX
  8
0
  6
CONTINUOUS
 10
6.482520
 20
1.393480
  0
VERTEX
  8
0
  6
CONTINUOUS
 10
6.481200
 20
2.133120
  0
VERTEX
  8
0
  6
CONTINUOUS
 10
6.491760
 20
2.118160
  0
VERTEX
  8
0
  6
CONTINUOUS
 10
6.492640
 20
1.378080
  0
VERTEX
  8
0
  6
CONTINUOUS
 10
6.482520
 20
1.393480
  0
SEQEND
  8
0
  0
SOLID
  8
0
 62
    15
 10
6.492640
 20
1.378080
 11
6.491760
 21
2.118160
 12
6.500560
 22
1.360920
 13
6.499240
 23
2.101000
  0
POLYLINE
  8
0
  6
CONTINUOUS
 66
     1
 40
0.000000
 41
0.000000
  0
VERTEX
  8
0
  6
CONTINUOUS
 10
6.492640
 20
1.378080
  0
VERTEX
  8
0
  6
CONTINUOUS
 10
6.491760
 20
2.118160
  0
VERTEX
  8
0
  6
CONTINUOUS
 10
6.499240
 20
2.101000
  0
VERTEX
  8
0
  6
CONTINUOUS
 10
6.500560
 20
1.360920
  0
VERTEX
  8
0
  6
CONTINUOUS
 10
6.492640
 20
1.378080
  0
SEQEND
  8
0
  0
SOLID
  8
0
 62
    15
 10
6.500560
 20
1.360920
 11
6.499240
 21
2.101000
 12
6.504960
 22
1.342440
 13
6.503640
 23
2.082520
  0
POLYLINE
  8
0
  6
CONTINUOUS
 66
     1
 40
0.000000
 41
0.000000
  0
VERTEX
  8
0
  6
CONTINUOUS
 10
6.500560
 20
1.360920
  0
VERTEX
  8
0
  6
CONTINUOUS
 10
6.499240
 20
2.101000
  0
VERTEX
  8
0
  6
CONTINUOUS
 10
6.503640
 20
2.082520
  0
VERTEX
  8
0
  6
CONTINUOUS
 10
6.504960
 20
1.342440
  0
VERTEX
  8
0
  6
CONTINUOUS
 10
6.500560
 20
1.360920
  0
SEQEND
  8
0
  0
SOLID
  8
0
 62
    15
 10
6.504960
 20
1.342440
 11
6.503640
 21
2.082520
 12
6.539720
 22
1.344640
 13
6.538400
 23
2.084720
  0
POLYLINE
  8
0
  6
CONTINUOUS
 66
     1
 40
0.000000
 41
0.000000
  0
VERTEX
  8
0
  6
CONTINUOUS
 10
6.504960
 20
1.342440
  0
VERTEX
  8
0
  6
CONTINUOUS
 10
6.503640
 20
2.082520
  0
VERTEX
  8
0
  6
CONTINUOUS
 10
6.538400
 20
2.084720
  0
VERTEX
  8
0
  6
CONTINUOUS
 10
6.539720
 20
1.344640
  0
VERTEX
  8
0
  6
CONTINUOUS
 10
6.504960
 20
1.342440
  0
SEQEND
  8
0
  0
SOLID
  8
0
 62
    15
 10
6.539720
 20
1.344640
 11
6.538400
 21
2.084720
 12
6.544120
 22
1.363120
 13
6.543240
 23
2.103200
  0
POLYLINE
  8
0
  6
CONTINUOUS
 66
     1
 40
0.000000
 41
0.000000
  0
VERTEX
  8
0
  6
CONTINUOUS
 10
6.539720
 20
1.344640
  0
VERTEX
  8
0
  6
CONTINUOUS
 10
6.538400
 20
2.084720
  0
VERTEX
  8
0
  6
CONTINUOUS
 10
6.543240
 20
2.103200
  0
VERTEX
  8
0
  6
CONTINUOUS
 10
6.544120
 20
1.363120
  0
VERTEX
  8
0
  6
CONTINUOUS
 10
6.539720
 20
1.344640
  0
SEQEND
  8
0
  0
SOLID
  8
0
 62
    15
 10
6.544120
 20
1.363120
 11
6.543240
 21
2.103200
 12
6.552040
 22
1.380280
 13
6.550720
 23
2.119920
  0
POLYLINE
  8
0
  6
CONTINUOUS
 66
     1
 40
0.000000
 41
0.000000
  0
VERTEX
  8
0
  6
CONTINUOUS
 10
6.544120
 20
1.363120
  0
VERTEX
  8
0
  6
CONTINUOUS
 10
6.543240
 20
2.103200
  0
VERTEX
  8
0
  6
CONTINUOUS
 10
6.550720
 20
2.119920
  0
VERTEX
  8
0
  6
CONTINUOUS
 10
6.552040
 20
1.380280
  0
VERTEX
  8
0
  6
CONTINUOUS
 10
6.544120
 20
1.363120
  0
SEQEND
  8
0
  0
SOLID
  8
0
 62
    15
 10
6.552040
 20
1.380280
 11
6.550720
 21
2.119920
 12
6.562600
 22
1.395240
 13
6.561280
 23
2.135320
  0
POLYLINE
  8
0
  6
CONTINUOUS
 66
     1
 40
0.000000
 41
0.000000
  0
VERTEX
  8
0
  6
CONTINUOUS
 10
6.552040
 20
1.380280
  0
VERTEX
  8
0
  6
CONTINUOUS
 10
6.550720
 20
2.119920
  0
VERTEX
  8
0
  6
CONTINUOUS
 10
6.561280
 20
2.135320
  0
VERTEX
  8
0
  6
CONTINUOUS
 10
6.562600
 20
1.395240
  0
VERTEX
  8
0
  6
CONTINUOUS
 10
6.552040
 20
1.380280
  0
SEQEND
  8
0
  0
SOLID
  8
0
 62
    15
 10
6.562600
 20
1.395240
 11
6.561280
 21
2.135320
 12
6.575360
 22
1.408440
 13
6.574040
 23
2.148520
  0
POLYLINE
  8
0
  6
CONTINUOUS
 66
     1
 40
0.000000
 41
0.000000
  0
VERTEX
  8
0
  6
CONTINUOUS
 10
6.562600
 20
1.395240
  0
VERTEX
  8
0
  6
CONTINUOUS
 10
6.561280
 20
2.135320
  0
VERTEX
  8
0
  6
CONTINUOUS
 10
6.574040
 20
2.148520
  0
VERTEX
  8
0
  6
CONTINUOUS
 10
6.575360
 20
1.408440
  0
VERTEX
  8
0
  6
CONTINUOUS
 10
6.562600
 20
1.395240
  0
SEQEND
  8
0
  0
SOLID
  8
0
 62
    15
 10
6.575360
 20
1.408440
 11
6.574040
 21
2.148520
 12
6.590320
 22
1.419440
 13
6.589000
 23
2.159520
  0
POLYLINE
  8
0
  6
CONTINUOUS
 66
     1
 40
0.000000
 41
0.000000
  0
VERTEX
  8
0
  6
CONTINUOUS
 10
6.575360
 20
1.408440
  0
VERTEX
  8
0
  6
CONTINUOUS
 10
6.574040
 20
2.148520
  0
VERTEX
  8
0
  6
CONTINUOUS
 10
6.589000
 20
2.159520
  0
VERTEX
  8
0
  6
CONTINUOUS
 10
6.590320
 20
1.419440
  0
VERTEX
  8
0
  6
CONTINUOUS
 10
6.575360
 20
1.408440
  0
SEQEND
  8
0
  0
SOLID
  8
0
 62
    15
 10
6.590320
 20
1.419440
 11
6.589000
 21
2.159520
 12
6.607040
 22
1.427800
 13
6.606160
 23
2.167440
  0
POLYLINE
  8
0
  6
CONTINUOUS
 66
     1
 40
0.000000
 41
0.000000
  0
VERTEX
  8
0
  6
CONTINUOUS
 10
6.590320
 20
1.419440
  0
VERTEX
  8
0
  6
CONTINUOUS
 10
6.589000
 20
2.159520
  0
VERTEX
  8
0
  6
CONTINUOUS
 10
6.606160
 20
2.167440
  0
VERTEX
  8
0
  6
CONTINUOUS
 10
6.607040
 20
1.427800
  0
VERTEX
  8
0
  6
CONTINUOUS
 10
6.590320
 20
1.419440
  0
SEQEND
  8
0
  0
SOLID
  8
0
 62
    15
 10
6.607040
 20
1.427800
 11
6.606160
 21
2.167440
 12
6.625520
 22
1.432640
 13
6.624200
 23
2.172720
  0
POLYLINE
  8
0
  6
CONTINUOUS
 66
     1
 40
0.000000
 41
0.000000
  0
VERTEX
  8
0
  6
CONTINUOUS
 10
6.607040
 20
1.427800
  0
VERTEX
  8
0
  6
CONTINUOUS
 10
6.606160
 20
2.167440
  0
VERTEX
  8
0
  6
CONTINUOUS
 10
6.624200
 20
2.172720
  0
VERTEX
  8
0
  6
CONTINUOUS
 10
6.625520
 20
1.432640
  0
VERTEX
  8
0
  6
CONTINUOUS
 10
6.607040
 20
1.427800
  0
SEQEND
  8
0
  0
SOLID
  8
0
 62
    15
 10
6.625520
 20
1.432640
 11
6.624200
 21
2.172720
 12
6.644880
 22
1.434400
 13
6.643560
 23
2.174480
  0
POLYLINE
  8
0
  6
CONTINUOUS
 66
     1
 40
0.000000
 41
0.000000
  0
VERTEX
  8
0
  6
CONTINUOUS
 10
6.625520
 20
1.432640
  0
VERTEX
  8
0
  6
CONTINUOUS
 10
6.624200
 20
2.172720
  0
VERTEX
  8
0
  6
CONTINUOUS
 10
6.643560
 20
2.174480
  0
VERTEX
  8
0
  6
CONTINUOUS
 10
6.644880
 20
1.434400
  0
VERTEX
  8
0
  6
CONTINUOUS
 10
6.625520
 20
1.432640
  0
SEQEND
  8
0
  0
SOLID
  8
0
 62
    15
 10
6.644880
 20
1.434400
 11
6.643560
 21
2.174480
 12
6.664240
 22
1.432640
 13
6.662920
 23
2.172720
  0
POLYLINE
  8
0
  6
CONTINUOUS
 66
     1
 40
0.000000
 41
0.000000
  0
VERTEX
  8
0
  6
CONTINUOUS
 10
6.644880
 20
1.434400
  0
VERTEX
  8
0
  6
CONTINUOUS
 10
6.643560
 20
2.174480
  0
VERTEX
  8
0
  6
CONTINUOUS
 10
6.662920
 20
2.172720
  0
VERTEX
  8
0
  6
CONTINUOUS
 10
6.664240
 20
1.432640
  0
VERTEX
  8
0
  6
CONTINUOUS
 10
6.644880
 20
1.434400
  0
SEQEND
  8
0
  0
SOLID
  8
0
 62
    15
 10
6.664240
 20
1.432640
 11
6.662920
 21
2.172720
 12
6.682720
 22
1.427800
 13
6.681400
 23
2.167440
  0
POLYLINE
  8
0
  6
CONTINUOUS
 66
     1
 40
0.000000
 41
0.000000
  0
VERTEX
  8
0
  6
CONTINUOUS
 10
6.664240
 20
1.432640
  0
VERTEX
  8
0
  6
CONTINUOUS
 10
6.662920
 20
2.172720
  0
VERTEX
  8
0
  6
CONTINUOUS
 10
6.681400
 20
2.167440
  0
VERTEX
  8
0
  6
CONTINUOUS
 10
6.682720
 20
1.427800
  0
VERTEX
  8
0
  6
CONTINUOUS
 10
6.664240
 20
1.432640
  0
SEQEND
  8
0
  0
SOLID
  8
0
 62
    15
 10
6.682720
 20
1.427800
 11
6.681400
 21
2.167440
 12
6.699440
 22
1.419440
 13
6.698120
 23
2.159520
  0
POLYLINE
  8
0
  6
CONTINUOUS
 66
     1
 40
0.000000
 41
0.000000
  0
VERTEX
  8
0
  6
CONTINUOUS
 10
6.682720
 20
1.427800
  0
VERTEX
  8
0
  6
CONTINUOUS
 10
6.681400
 20
2.167440
  0
VERTEX
  8
0
  6
CONTINUOUS
 10
6.698120
 20
2.159520
  0
VERTEX
  8
0
  6
CONTINUOUS
 10
6.699440
 20
1.419440
  0
VERTEX
  8
0
  6
CONTINUOUS
 10
6.682720
 20
1.427800
  0
SEQEND
  8
0
  0
SOLID
  8
0
 62
    15
 10
6.699440
 20
1.419440
 11
6.698120
 21
2.159520
 12
6.714400
 22
1.408440
 13
6.713080
 23
2.148520
  0
POLYLINE
  8
0
  6
CONTINUOUS
 66
     1
 40
0.000000
 41
0.000000
  0
VERTEX
  8
0
  6
CONTINUOUS
 10
6.699440
 20
1.419440
  0
VERTEX
  8
0
  6
CONTINUOUS
 10
6.698120
 20
2.159520
  0
VERTEX
  8
0
  6
CONTINUOUS
 10
6.713080
 20
2.148520
  0
VERTEX
  8
0
  6
CONTINUOUS
 10
6.714400
 20
1.408440
  0
VERTEX
  8
0
  6
CONTINUOUS
 10
6.699440
 20
1.419440
  0
SEQEND
  8
0
  0
SOLID
  8
0
 62
    15
 10
6.294640
 20
1.342880
 11
6.293320
 21
2.082520
 12
6.299480
 22
1.361360
 13
6.298160
 23
2.101000
  0
POLYLINE
  8
0
  6
CONTINUOUS
 66
     1
 40
0.000000
 41
0.000000
  0
VERTEX
  8
0
  6
CONTINUOUS
 10
6.294640
 20
1.342880
  0
VERTEX
  8
0
  6
CONTINUOUS
 10
6.293320
 20
2.082520
  0
VERTEX
  8
0
  6
CONTINUOUS
 10
6.298160
 20
2.101000
  0
VERTEX
  8
0
  6
CONTINUOUS
 10
6.299480
 20
1.361360
  0
VERTEX
  8
0
  6
CONTINUOUS
 10
6.294640
 20
1.342880
  0
SEQEND
  8
0
  0
SOLID
  8
0
 62
    15
 10
6.727160
 20
1.395240
 11
6.726280
 21
2.135320
 12
6.737720
 22
1.380280
 13
6.736400
 23
2.119920
  0
POLYLINE
  8
0
  6
CONTINUOUS
 66
     1
 40
0.000000
 41
0.000000
  0
VERTEX
  8
0
  6
CONTINUOUS
 10
6.727160
 20
1.395240
  0
VERTEX
  8
0
  6
CONTINUOUS
 10
6.726280
 20
2.135320
  0
VERTEX
  8
0
  6
CONTINUOUS
 10
6.736400
 20
2.119920
  0
VERTEX
  8
0
  6
CONTINUOUS
 10
6.737720
 20
1.380280
  0
VERTEX
  8
0
  6
CONTINUOUS
 10
6.727160
 20
1.395240
  0
SEQEND
  8
0
  0
SOLID
  8
0
 62
    15
 10
6.737720
 20
1.380280
 11
6.736400
 21
2.119920
 12
6.745200
 22
1.363120
 13
6.744320
 23
2.102760
  0
POLYLINE
  8
0
  6
CONTINUOUS
 66
     1
 40
0.000000
 41
0.000000
  0
VERTEX
  8
0
  6
CONTINUOUS
 10
6.737720
 20
1.380280
  0
VERTEX
  8
0
  6
CONTINUOUS
 10
6.736400
 20
2.119920
  0
VERTEX
  8
0
  6
CONTINUOUS
 10
6.744320
 20
2.102760
  0
VERTEX
  8
0
  6
CONTINUOUS
 10
6.745200
 20
1.363120
  0
VERTEX
  8
0
  6
CONTINUOUS
 10
6.737720
 20
1.380280
  0
SEQEND
  8
0
  0
SOLID
  8
0
 62
    15
 10
6.745200
 20
1.363120
 11
6.744320
 21
2.102760
 12
6.750040
 22
1.344640
 13
6.748720
 23
2.084280
  0
POLYLINE
  8
0
  6
CONTINUOUS
 66
     1
 40
0.000000
 41
0.000000
  0
VERTEX
  8
0
  6
CONTINUOUS
 10
6.745200
 20
1.363120
  0
VERTEX
  8
0
  6
CONTINUOUS
 10
6.744320
 20
2.102760
  0
VERTEX
  8
0
  6
CONTINUOUS
 10
6.748720
 20
2.084280
  0
VERTEX
  8
0
  6
CONTINUOUS
 10
6.750040
 20
1.344640
  0
VERTEX
  8
0
  6
CONTINUOUS
 10
6.745200
 20
1.363120
  0
SEQEND
  8
0
  0
SOLID
  8
0
 62
    15
 10
6.750040
 20
1.344640
 11
6.748720
 21
2.084280
 12
6.999080
 22
1.345080
 13
6.998200
 23
2.085160
  0
POLYLINE
  8
0
  6
CONTINUOUS
 66
     1
 40
0.000000
 41
0.000000
  0
VERTEX
  8
0
  6
CONTINUOUS
 10
6.750040
 20
1.344640
  0
VERTEX
  8
0
  6
CONTINUOUS
 10
6.748720
 20
2.084280
  0
VERTEX
  8
0
  6
CONTINUOUS
 10
6.998200
 20
2.085160
  0
VERTEX
  8
0
  6
CONTINUOUS
 10
6.999080
 20
1.345080
  0
VERTEX
  8
0
  6
CONTINUOUS
 10
6.750040
 20
1.344640
  0
SEQEND
  8
0
  0
SOLID
  8
0
 62
    15
 10
4.249520
 20
1.001880
 11
4.248200
 21
1.741960
 12
4.250400
 22
1.166440
 13
4.249080
 23
1.906520
  0
POLYLINE
  8
0
  6
CONTINUOUS
 66
     1
 40
0.000000
 41
0.000000
  0
VERTEX
  8
0
  6
CONTINUOUS
 10
4.249520
 20
1.001880
  0
VERTEX
  8
0
  6
CONTINUOUS
 10
4.248200
 20
1.741960
  0
VERTEX
  8
0
  6
CONTINUOUS
 10
4.249080
 20
1.906520
  0
VERTEX
  8
0
  6
CONTINUOUS
 10
4.250400
 20
1.166440
  0
VERTEX
  8
0
  6
CONTINUOUS
 10
4.249520
 20
1.001880
  0
SEQEND
  8
0
  0
SOLID
  8
0
 62
    15
 10
4.250400
 20
1.166440
 11
4.249080
 21
1.906520
 12
4.478320
 22
1.176560
 13
4.477440
 23
1.916200
  0
POLYLINE
  8
0
  6
CONTINUOUS
 66
     1
 40
0.000000
 41
0.000000
  0
VERTEX
  8
0
  6
CONTINUOUS
 10
4.250400
 20
1.166440
  0
VERTEX
  8
0
  6
CONTINUOUS
 10
4.249080
 20
1.906520
  0
VERTEX
  8
0
  6
CONTINUOUS
 10
4.477440
 20
1.916200
  0
VERTEX
  8
0
  6
CONTINUOUS
 10
4.478320
 20
1.176560
  0
VERTEX
  8
0
  6
CONTINUOUS
 10
4.250400
 20
1.166440
  0
SEQEND
  8
0
  0
SOLID
  8
0
 62
    15
 10
4.478320
 20
1.176560
 11
4.477440
 21
1.916200
 12
4.478320
 22
1.346400
 13
4.477440
 23
2.086480
  0
POLYLINE
  8
0
  6
CONTINUOUS
 66
     1
 40
0.000000
 41
0.000000
  0
VERTEX
  8
0
  6
CONTINUOUS
 10
4.478320
 20
1.176560
  0
VERTEX
  8
0
  6
CONTINUOUS
 10
4.477440
 20
1.916200
  0
VERTEX
  8
0
  6
CONTINUOUS
 10
4.477440
 20
2.086480
  0
VERTEX
  8
0
  6
CONTINUOUS
 10
4.478320
 20
1.346400
  0
VERTEX
  8
0
  6
CONTINUOUS
 10
4.478320
 20
1.176560
  0
SEQEND
  8
0
  0
SOLID
  8
0
 62
    15
 10
4.254360
 20
1.344640
 11
4.253040
 21
2.084280
 12
4.254360
 22
1.495120
 13
4.253040
 23
2.235200
  0
POLYLINE
  8
0
  6
CONTINUOUS
 66
     1
 40
0.000000
 41
0.000000
  0
VERTEX
  8
0
  6
CONTINUOUS
 10
4.254360
 20
1.344640
  0
VERTEX
  8
0
  6
CONTINUOUS
 10
4.253040
 20
2.084280
  0
VERTEX
  8
0
  6
CONTINUOUS
 10
4.253040
 20
2.235200
  0
VERTEX
  8
0
  6
CONTINUOUS
 10
4.254360
 20
1.495120
  0
VERTEX
  8
0
  6
CONTINUOUS
 10
4.254360
 20
1.344640
  0
SEQEND
  8
0
  0
SOLID
  8
0
 62
    15
 10
4.251720
 20
1.495560
 11
4.250400
 21
2.235640
 12
6.017880
 22
1.495560
 13
6.016560
 23
2.235640
  0
POLYLINE
  8
0
  6
CONTINUOUS
 66
     1
 40
0.000000
 41
0.000000
  0
VERTEX
  8
0
  6
CONTINUOUS
 10
4.251720
 20
1.495560
  0
VERTEX
  8
0
  6
CONTINUOUS
 10
4.250400
 20
2.235640
  0
VERTEX
  8
0
  6
CONTINUOUS
 10
6.016560
 20
2.235640
  0
VERTEX
  8
0
  6
CONTINUOUS
 10
6.017880
 20
1.495560
  0
VERTEX
  8
0
  6
CONTINUOUS
 10
4.251720
 20
1.495560
  0
SEQEND
  8
0
  0
SOLID
  8
0
 62
    15
 10
6.017880
 20
1.495560
 11
6.016560
 21
2.235640
 12
6.032840
 22
1.343320
 13
6.031520
 23
2.083400
  0
POLYLINE
  8
0
  6
CONTINUOUS
 66
     1
 40
0.000000
 41
0.000000
  0
VERTEX
  8
0
  6
CONTINUOUS
 10
6.017880
 20
1.495560
  0
VERTEX
  8
0
  6
CONTINUOUS
 10
6.016560
 20
2.235640
  0
VERTEX
  8
0
  6
CONTINUOUS
 10
6.031520
 20
2.083400
  0
VERTEX
  8
0
  6
CONTINUOUS
 10
6.032840
 20
1.343320
  0
VERTEX
  8
0
  6
CONTINUOUS
 10
6.017880
 20
1.495560
  0
SEQEND
  8
0
  0
SOLID
  8
0
 62
    15
 10
6.032840
 20
1.343320
 11
6.031520
 21
2.083400
 12
6.043400
 22
1.342440
 13
6.042080
 23
2.082080
  0
POLYLINE
  8
0
  6
CONTINUOUS
 66
     1
 40
0.000000
 41
0.000000
  0
VERTEX
  8
0
  6
CONTINUOUS
 10
6.032840
 20
1.343320
  0
VERTEX
  8
0
  6
CONTINUOUS
 10
6.031520
 20
2.083400
  0
VERTEX
  8
0
  6
CONTINUOUS
 10
6.042080
 20
2.082080
  0
VERTEX
  8
0
  6
CONTINUOUS
 10
6.043400
 20
1.342440
  0
VERTEX
  8
0
  6
CONTINUOUS
 10
6.032840
 20
1.343320
  0
SEQEND
  8
0
  0
SOLID
  8
0
 62
    15
 10
6.043400
 20
1.342440
 11
6.042080
 21
2.082080
 12
6.047800
 22
1.360920
 13
6.046920
 23
2.100560
  0
POLYLINE
  8
0
  6
CONTINUOUS
 66
     1
 40
0.000000
 41
0.000000
  0
VERTEX
  8
0
  6
CONTINUOUS
 10
6.043400
 20
1.342440
  0
VERTEX
  8
0
  6
CONTINUOUS
 10
6.042080
 20
2.082080
  0
VERTEX
  8
0
  6
CONTINUOUS
 10
6.046920
 20
2.100560
  0
VERTEX
  8
0
  6
CONTINUOUS
 10
6.047800
 20
1.360920
  0
VERTEX
  8
0
  6
CONTINUOUS
 10
6.043400
 20
1.342440
  0
SEQEND
  8
0
  0
SOLID
  8
0
 62
    15
 10
6.047800
 20
1.360920
 11
6.046920
 21
2.100560
 12
6.055720
 22
1.377640
 13
6.054400
 23
2.117720
  0
POLYLINE
  8
0
  6
CONTINUOUS
 66
     1
 40
0.000000
 41
0.000000
  0
VERTEX
  8
0
  6
CONTINUOUS
 10
6.047800
 20
1.360920
  0
VERTEX
  8
0
  6
CONTINUOUS
 10
6.046920
 20
2.100560
  0
VERTEX
  8
0
  6
CONTINUOUS
 10
6.054400
 20
2.117720
  0
VERTEX
  8
0
  6
CONTINUOUS
 10
6.055720
 20
1.377640
  0
VERTEX
  8
0
  6
CONTINUOUS
 10
6.047800
 20
1.360920
  0
SEQEND
  8
0
  0
SOLID
  8
0
 62
    15
 10
6.055720
 20
1.377640
 11
6.054400
 21
2.117720
 12
6.066280
 22
1.393040
 13
6.064960
 23
2.133120
  0
POLYLINE
  8
0
  6
CONTINUOUS
 66
     1
 40
0.000000
 41
0.000000
  0
VERTEX
  8
0
  6
CONTINUOUS
 10
6.055720
 20
1.377640
  0
VERTEX
  8
0
  6
CONTINUOUS
 10
6.054400
 20
2.117720
  0
VERTEX
  8
0
  6
CONTINUOUS
 10
6.064960
 20
2.133120
  0
VERTEX
  8
0
  6
CONTINUOUS
 10
6.066280
 20
1.393040
  0
VERTEX
  8
0
  6
CONTINUOUS
 10
6.055720
 20
1.377640
  0
SEQEND
  8
0
  0
SOLID
  8
0
 62
    15
 10
6.066280
 20
1.393040
 11
6.064960
 21
2.133120
 12
6.079040
 22
1.406240
 13
6.077720
 23
2.146320
  0
POLYLINE
  8
0
  6
CONTINUOUS
 66
     1
 40
0.000000
 41
0.000000
  0
VERTEX
  8
0
  6
CONTINUOUS
 10
6.066280
 20
1.393040
  0
VERTEX
  8
0
  6
CONTINUOUS
 10
6.064960
 20
2.133120
  0
VERTEX
  8
0
  6
CONTINUOUS
 10
6.077720
 20
2.146320
  0
VERTEX
  8
0
  6
CONTINUOUS
 10
6.079040
 20
1.406240
  0
VERTEX
  8
0
  6
CONTINUOUS
 10
6.066280
 20
1.393040
  0
SEQEND
  8
0
  0
SOLID
  8
0
 62
    15
 10
6.079040
 20
1.406240
 11
6.077720
 21
2.146320
 12
6.094000
 22
1.417240
 13
6.092680
 23
2.156880
  0
POLYLINE
  8
0
  6
CONTINUOUS
 66
     1
 40
0.000000
 41
0.000000
  0
VERTEX
  8
0
  6
CONTINUOUS
 10
6.079040
 20
1.406240
  0
VERTEX
  8
0
  6
CONTINUOUS
 10
6.077720
 20
2.146320
  0
VERTEX
  8
0
  6
CONTINUOUS
 10
6.092680
 20
2.156880
  0
VERTEX
  8
0
  6
CONTINUOUS
 10
6.094000
 20
1.417240
  0
VERTEX
  8
0
  6
CONTINUOUS
 10
6.079040
 20
1.406240
  0
SEQEND
  8
0
  0
SOLID
  8
0
 62
    15
 10
6.094000
 20
1.417240
 11
6.092680
 21
2.156880
 12
6.110720
 22
1.425160
 13
6.109400
 23
2.165240
  0
POLYLINE
  8
0
  6
CONTINUOUS
 66
     1
 40
0.000000
 41
0.000000
  0
VERTEX
  8
0
  6
CONTINUOUS
 10
6.094000
 20
1.417240
  0
VERTEX
  8
0
  6
CONTINUOUS
 10
6.092680
 20
2.156880
  0
VERTEX
  8
0
  6
CONTINUOUS
 10
6.109400
 20
2.165240
  0
VERTEX
  8
0
  6
CONTINUOUS
 10
6.110720
 20
1.425160
  0
VERTEX
  8
0
  6
CONTINUOUS
 10
6.094000
 20
1.417240
  0
SEQEND
  8
0
  0
SOLID
  8
0
 62
    15
 10
6.110720
 20
1.425160
 11
6.109400
 21
2.165240
 12
6.129200
 22
1.430440
 13
6.127880
 23
2.170520
  0
POLYLINE
  8
0
  6
CONTINUOUS
 66
     1
 40
0.000000
 41
0.000000
  0
VERTEX
  8
0
  6
CONTINUOUS
 10
6.110720
 20
1.425160
  0
VERTEX
  8
0
  6
CONTINUOUS
 10
6.109400
 20
2.165240
  0
VERTEX
  8
0
  6
CONTINUOUS
 10
6.127880
 20
2.170520
  0
VERTEX
  8
0
  6
CONTINUOUS
 10
6.129200
 20
1.430440
  0
VERTEX
  8
0
  6
CONTINUOUS
 10
6.110720
 20
1.425160
  0
SEQEND
  8
0
  0
SOLID
  8
0
 62
    15
 10
6.129200
 20
1.430440
 11
6.127880
 21
2.170520
 12
6.148560
 22
1.432200
 13
6.147240
 23
2.172280
  0
POLYLINE
  8
0
  6
CONTINUOUS
 66
     1
 40
0.000000
 41
0.000000
  0
VERTEX
  8
0
  6
CONTINUOUS
 10
6.129200
 20
1.430440
  0
VERTEX
  8
0
  6
CONTINUOUS
 10
6.127880
 20
2.170520
  0
VERTEX
  8
0
  6
CONTINUOUS
 10
6.147240
 20
2.172280
  0
VERTEX
  8
0
  6
CONTINUOUS
 10
6.148560
 20
1.432200
  0
VERTEX
  8
0
  6
CONTINUOUS
 10
6.129200
 20
1.430440
  0
SEQEND
  8
0
  0
SOLID
  8
0
 62
    15
 10
6.148560
 20
1.432200
 11
6.147240
 21
2.172280
 12
6.167920
 22
1.430440
 13
6.166600
 23
2.170520
  0
POLYLINE
  8
0
  6
CONTINUOUS
 66
     1
 40
0.000000
 41
0.000000
  0
VERTEX
  8
0
  6
CONTINUOUS
 10
6.148560
 20
1.432200
  0
VERTEX
  8
0
  6
CONTINUOUS
 10
6.147240
 20
2.172280
  0
VERTEX
  8
0
  6
CONTINUOUS
 10
6.166600
 20
2.170520
  0
VERTEX
  8
0
  6
CONTINUOUS
 10
6.167920
 20
1.430440
  0
VERTEX
  8
0
  6
CONTINUOUS
 10
6.148560
 20
1.432200
  0
SEQEND
  8
0
  0
SOLID
  8
0
 62
    15
 10
6.167920
 20
1.430440
 11
6.166600
 21
2.170520
 12
6.186400
 22
1.425160
 13
6.185080
 23
2.165240
  0
POLYLINE
  8
0
  6
CONTINUOUS
 66
     1
 40
0.000000
 41
0.000000
  0
VERTEX
  8
0
  6
CONTINUOUS
 10
6.167920
 20
1.430440
  0
VERTEX
  8
0
  6
CONTINUOUS
 10
6.166600
 20
2.170520
  0
VERTEX
  8
0
  6
CONTINUOUS
 10
6.185080
 20
2.165240
  0
VERTEX
  8
0
  6
CONTINUOUS
 10
6.186400
 20
1.425160
  0
VERTEX
  8
0
  6
CONTINUOUS
 10
6.167920
 20
1.430440
  0
SEQEND
  8
0
  0
SOLID
  8
0
 62
    15
 10
6.186400
 20
1.425160
 11
6.185080
 21
2.165240
 12
6.203120
 22
1.417240
 13
6.201800
 23
2.156880
  0
POLYLINE
  8
0
  6
CONTINUOUS
 66
     1
 40
0.000000
 41
0.000000
  0
VERTEX
  8
0
  6
CONTINUOUS
 10
6.186400
 20
1.425160
  0
VERTEX
  8
0
  6
CONTINUOUS
 10
6.185080
 20
2.165240
  0
VERTEX
  8
0
  6
CONTINUOUS
 10
6.201800
 20
2.156880
  0
VERTEX
  8
0
  6
CONTINUOUS
 10
6.203120
 20
1.417240
  0
VERTEX
  8
0
  6
CONTINUOUS
 10
6.186400
 20
1.425160
  0
SEQEND
  8
0
  0
SOLID
  8
0
 62
    15
 10
6.203120
 20
1.417240
 11
6.201800
 21
2.156880
 12
6.218080
 22
1.406240
 13
6.216760
 23
2.146320
  0
POLYLINE
  8
0
  6
CONTINUOUS
 66
     1
 40
0.000000
 41
0.000000
  0
VERTEX
  8
0
  6
CONTINUOUS
 10
6.203120
 20
1.417240
  0
VERTEX
  8
0
  6
CONTINUOUS
 10
6.201800
 20
2.156880
  0
VERTEX
  8
0
  6
CONTINUOUS
 10
6.216760
 20
2.146320
  0
VERTEX
  8
0
  6
CONTINUOUS
 10
6.218080
 20
1.406240
  0
VERTEX
  8
0
  6
CONTINUOUS
 10
6.203120
 20
1.417240
  0
SEQEND
  8
0
  0
SOLID
  8
0
 62
    15
 10
6.218080
 20
1.406240
 11
6.216760
 21
2.146320
 12
6.230840
 22
1.393040
 13
6.229520
 23
2.133120
  0
POLYLINE
  8
0
  6
CONTINUOUS
 66
     1
 40
0.000000
 41
0.000000
  0
VERTEX
  8
0
  6
CONTINUOUS
 10
6.218080
 20
1.406240
  0
VERTEX
  8
0
  6
CONTINUOUS
 10
6.216760
 20
2.146320
  0
VERTEX
  8
0
  6
CONTINUOUS
 10
6.229520
 20
2.133120
  0
VERTEX
  8
0
  6
CONTINUOUS
 10
6.230840
 20
1.393040
  0
VERTEX
  8
0
  6
CONTINUOUS
 10
6.218080
 20
1.406240
  0
SEQEND
  8
0
  0
SOLID
  8
0
 62
    15
 10
6.230840
 20
1.393040
 11
6.229520
 21
2.133120
 12
6.241400
 22
1.377640
 13
6.240080
 23
2.117720
  0
POLYLINE
  8
0
  6
CONTINUOUS
 66
     1
 40
0.000000
 41
0.000000
  0
VERTEX
  8
0
  6
CONTINUOUS
 10
6.230840
 20
1.393040
  0
VERTEX
  8
0
  6
CONTINUOUS
 10
6.229520
 20
2.133120
  0
VERTEX
  8
0
  6
CONTINUOUS
 10
6.240080
 20
2.117720
  0
VERTEX
  8
0
  6
CONTINUOUS
 10
6.241400
 20
1.377640
  0
VERTEX
  8
0
  6
CONTINUOUS
 10
6.230840
 20
1.393040
  0
SEQEND
  8
0
  0
SOLID
  8
0
 62
    15
 10
6.241400
 20
1.377640
 11
6.240080
 21
2.117720
 12
6.248880
 22
1.360920
 13
6.248000
 23
2.100560
  0
POLYLINE
  8
0
  6
CONTINUOUS
 66
     1
 40
0.000000
 41
0.000000
  0
VERTEX
  8
0
  6
CONTINUOUS
 10
6.241400
 20
1.377640
  0
VERTEX
  8
0
  6
CONTINUOUS
 10
6.240080
 20
2.117720
  0
VERTEX
  8
0
  6
CONTINUOUS
 10
6.248000
 20
2.100560
  0
VERTEX
  8
0
  6
CONTINUOUS
 10
6.248880
 20
1.360920
  0
VERTEX
  8
0
  6
CONTINUOUS
 10
6.241400
 20
1.377640
  0
SEQEND
  8
0
  0
SOLID
  8
0
 62
    15
 10
6.248880
 20
1.360920
 11
6.248000
 21
2.100560
 12
6.253720
 22
1.342440
 13
6.252400
 23
2.082080
  0
POLYLINE
  8
0
  6
CONTINUOUS
 66
     1
 40
0.000000
 41
0.000000
  0
VERTEX
  8
0
  6
CONTINUOUS
 10
6.248880
 20
1.360920
  0
VERTEX
  8
0
  6
CONTINUOUS
 10
6.248000
 20
2.100560
  0
VERTEX
  8
0
  6
CONTINUOUS
 10
6.252400
 20
2.082080
  0
VERTEX
  8
0
  6
CONTINUOUS
 10
6.253720
 20
1.342440
  0
VERTEX
  8
0
  6
CONTINUOUS
 10
6.248880
 20
1.360920
  0
SEQEND
  8
0
  0
SOLID
  8
0
 62
    15
 10
6.253720
 20
1.342440
 11
6.252400
 21
2.082080
 12
6.294640
 22
1.342880
 13
6.293320
 23
2.082520
  0
POLYLINE
  8
0
  6
CONTINUOUS
 66
     1
 40
0.000000
 41
0.000000
  0
VERTEX
  8
0
  6
CONTINUOUS
 10
6.253720
 20
1.342440
  0
VERTEX
  8
0
  6
CONTINUOUS
 10
6.252400
 20
2.082080
  0
VERTEX
  8
0
  6
CONTINUOUS
 10
6.293320
 20
2.082520
  0
VERTEX
  8
0
  6
CONTINUOUS
 10
6.294640
 20
1.342880
  0
VERTEX
  8
0
  6
CONTINUOUS
 10
6.253720
 20
1.342440
  0
SEQEND
  8
0
  0
POLYLINE
  8
0
  6
CONTINUOUS
 66
     1
 40
0.000000
 41
0.000000
  0
VERTEX
  8
0
  6
CONTINUOUS
 10
6.294640
 20
1.342880
  0
VERTEX
  8
0
  6
CONTINUOUS
 10
6.299480
 20
1.361360
  0
VERTEX
  8
0
  6
CONTINUOUS
 10
6.306960
 20
1.378080
  0
VERTEX
  8
0
  6
CONTINUOUS
 10
6.317520
 20
1.393480
  0
VERTEX
  8
0
  6
CONTINUOUS
 10
6.330280
 20
1.406680
  0
VERTEX
  8
0
  6
CONTINUOUS
 10
6.345240
 20
1.417680
  0
VERTEX
  8
0
  6
CONTINUOUS
 10
6.361960
 20
1.425600
  0
VERTEX
  8
0
  6
CONTINUOUS
 10
6.380440
 20
1.430880
  0
VERTEX
  8
0
  6
CONTINUOUS
 10
6.399800
 20
1.432640
  0
VERTEX
  8
0
  6
CONTINUOUS
 10
6.419160
 20
1.430880
  0
VERTEX
  8
0
  6
CONTINUOUS
 10
6.437640
 20
1.425600
  0
VERTEX
  8
0
  6
CONTINUOUS
 10
6.454360
 20
1.417680
  0
VERTEX
  8
0
  6
CONTINUOUS
 10
6.469320
 20
1.406680
  0
VERTEX
  8
0
  6
CONTINUOUS
 10
6.482520
 20
1.393480
  0
VERTEX
  8
0
  6
CONTINUOUS
 10
6.492640
 20
1.378080
  0
VERTEX
  8
0
  6
CONTINUOUS
 10
6.500560
 20
1.360920
  0
VERTEX
  8
0
  6
CONTINUOUS
 10
6.504960
 20
1.342440
  0
VERTEX
  8
0
  6
CONTINUOUS
 10
6.539720
 20
1.344640
  0
VERTEX
  8
0
  6
CONTINUOUS
 10
6.544120
 20
1.363120
  0
VERTEX
  8
0
  6
CONTINUOUS
 10
6.552040
 20
1.380280
  0
VERTEX
  8
0
  6
CONTINUOUS
 10
6.562600
 20
1.395240
  0
VERTEX
  8
0
  6
CONTINUOUS
 10
6.575360
 20
1.408440
  0
VERTEX
  8
0
  6
CONTINUOUS
 10
6.590320
 20
1.419440
  0
VERTEX
  8
0
  6
CONTINUOUS
 10
6.607040
 20
1.427800
  0
VERTEX
  8
0
  6
CONTINUOUS
 10
6.625520
 20
1.432640
  0
VERTEX
  8
0
  6
CONTINUOUS
 10
6.644880
 20
1.434400
  0
VERTEX
  8
0
  6
CONTINUOUS
 10
6.664240
 20
1.432640
  0
VERTEX
  8
0
  6
CONTINUOUS
 10
6.682720
 20
1.427800
  0
VERTEX
  8
0
  6
CONTINUOUS
 10
6.699440
 20
1.419440
  0
VERTEX
  8
0
  6
CONTINUOUS
 10
6.714400
 20
1.408440
  0
VERTEX
  8
0
  6
CONTINUOUS
 10
6.727160
 20
1.395240
  0
VERTEX
  8
0
  6
CONTINUOUS
 10
6.737720
 20
1.380280
  0
VERTEX
  8
0
  6
CONTINUOUS
 10
6.745200
 20
1.363120
  0
VERTEX
  8
0
  6
CONTINUOUS
 10
6.750040
 20
1.344640
  0
VERTEX
  8
0
  6
CONTINUOUS
 10
6.999080
 20
1.345080
  0
VERTEX
  8
0
  6
CONTINUOUS
 10
6.999080
 20
1.177000
  0
VERTEX
  8
0
  6
CONTINUOUS
 10
6.771160
 20
1.165560
  0
VERTEX
  8
0
  6
CONTINUOUS
 10
6.771160
 20
1.001880
  0
VERTEX
  8
0
  6
CONTINUOUS
 10
4.249520
 20
1.001880
  0
VERTEX
  8
0
  6
CONTINUOUS
 10
4.250400
 20
1.166440
  0
VERTEX
  8
0
  6
CONTINUOUS
 10
4.478320
 20
1.176560
  0
VERTEX
  8
0
  6
CONTINUOUS
 10
4.478320
 20
1.346400
  0
VERTEX
  8
0
  6
CONTINUOUS
 10
4.254360
 20
1.344640
  0
VERTEX
  8
0
  6
CONTINUOUS
 10
4.254360
 20
1.495120
  0
VERTEX
  8
0
  6
CONTINUOUS
 10
4.251720
 20
1.495560
  0
VERTEX
  8
0
  6
CONTINUOUS
 10
6.017880
 20
1.495560
  0
VERTEX
  8
0
  6
CONTINUOUS
 10
6.032840
 20
1.343320
  0
VERTEX
  8
0
  6
CONTINUOUS
 10
6.043400
 20
1.342440
  0
VERTEX
  8
0
  6
CONTINUOUS
 10
6.047800
 20
1.360920
  0
VERTEX
  8
0
  6
CONTINUOUS
 10
6.055720
 20
1.377640
  0
VERTEX
  8
0
  6
CONTINUOUS
 10
6.066280
 20
1.393040
  0
VERTEX
  8
0
  6
CONTINUOUS
 10
6.079040
 20
1.406240
  0
VERTEX
  8
0
  6
CONTINUOUS
 10
6.094000
 20
1.417240
  0
VERTEX
  8
0
  6
CONTINUOUS
 10
6.110720
 20
1.425160
  0
VERTEX
  8
0
  6
CONTINUOUS
 10
6.129200
 20
1.430440
  0
VERTEX
  8
0
  6
CONTINUOUS
 10
6.148560
 20
1.432200
  0
VERTEX
  8
0
  6
CONTINUOUS
 10
6.167920
 20
1.430440
  0
VERTEX
  8
0
  6
CONTINUOUS
 10
6.186400
 20
1.425160
  0
VERTEX
  8
0
  6
CONTINUOUS
 10
6.203120
 20
1.417240
  0
VERTEX
  8
0
  6
CONTINUOUS
 10
6.218080
 20
1.406240
  0
VERTEX
  8
0
  6
CONTINUOUS
 10
6.230840
 20
1.393040
  0
VERTEX
  8
0
  6
CONTINUOUS
 10
6.241400
 20
1.377640
  0
VERTEX
  8
0
  6
CONTINUOUS
 10
6.248880
 20
1.360920
  0
VERTEX
  8
0
  6
CONTINUOUS
 10
6.253720
 20
1.342440
  0
VERTEX
  8
0
  6
CONTINUOUS
 10
6.294640
 20
1.342880
  0
SEQEND
  8
0
  0
TEXT
  8
0
 10
5.328400
 20
0.772200
 40
0.138121
  1
BA  438
 41
1.000000
  7
SN0
 71
     0
 72
     5
 11
5.918066
 21
0.772200
  0
TEXT
  8
0
 10
5.172200
 20
0.580800
 40
0.138121
  1
1/2" x 2-3/4"
 41
1.000000
  7
SN0
 71
     0
 72
     5
 11
6.071753
 21
0.580800
  0
POLYLINE
  8
0
  6
CONTINUOUS
 66
     1
 40
0.014080
 41
0.014080
  0
VERTEX
  8
0
  6
CONTINUOUS
 10
6.210600
 20
3.003880
  0
VERTEX
  8
0
  6
CONTINUOUS
 10
6.206200
 20
3.022360
  0
VERTEX
  8
0
  6
CONTINUOUS
 10
6.193440
 20
3.047440
  0
VERTEX
  8
0
  6
CONTINUOUS
 10
6.174960
 20
3.067680
  0
VERTEX
  8
0
  6
CONTINUOUS
 10
6.160000
 20
3.078680
  0
VERTEX
  8
0
  6
CONTINUOUS
 10
6.134040
 20
3.089680
  0
VERTEX
  8
0
  6
CONTINUOUS
 10
6.115120
 20
3.093200
  0
VERTEX
  8
0
  6
CONTINUOUS
 10
6.095760
 20
3.093200
  0
VERTEX
  8
0
  6
CONTINUOUS
 10
6.076840
 20
3.089680
  0
VERTEX
  8
0
  6
CONTINUOUS
 10
6.050880
 20
3.078680
  0
VERTEX
  8
0
  6
CONTINUOUS
 10
6.029320
 20
3.061520
  0
VERTEX
  8
0
  6
CONTINUOUS
 10
6.017440
 20
3.047440
  0
VERTEX
  8
0
  6
CONTINUOUS
 10
6.004680
 20
3.022360
  0
VERTEX
  8
0
  6
CONTINUOUS
 10
6.000280
 20
3.003880
  0
VERTEX
  8
0
  6
CONTINUOUS
 10
5.989720
 20
3.004760
  0
VERTEX
  8
0
  6
CONTINUOUS
 10
5.974760
 20
3.157440
  0
VERTEX
  8
0
  6
CONTINUOUS
 10
4.208600
 20
3.157440
  0
VERTEX
  8
0
  6
CONTINUOUS
 10
4.211240
 20
3.156560
  0
VERTEX
  8
0
  6
CONTINUOUS
 10
4.211240
 20
3.006080
  0
VERTEX
  8
0
  6
CONTINUOUS
 10
4.435640
 20
3.007840
  0
VERTEX
  8
0
  6
CONTINUOUS
 10
4.435640
 20
2.838000
  0
VERTEX
  8
0
  6
CONTINUOUS
 10
4.207280
 20
2.827880
  0
VERTEX
  8
0
  6
CONTINUOUS
 10
4.206400
 20
2.663320
  0
VERTEX
  8
0
  6
CONTINUOUS
 10
6.728040
 20
2.663320
  0
VERTEX
  8
0
  6
CONTINUOUS
 10
6.728040
 20
2.827440
  0
VERTEX
  8
0
  6
CONTINUOUS
 10
6.956400
 20
2.838440
  0
VERTEX
  8
0
  6
CONTINUOUS
 10
6.956400
 20
3.006520
  0
VERTEX
  8
0
  6
CONTINUOUS
 10
6.706920
 20
3.006080
  0
VERTEX
  8
0
  6
CONTINUOUS
 10
6.702520
 20
3.024560
  0
VERTEX
  8
0
  6
CONTINUOUS
 10
6.689760
 20
3.049640
  0
VERTEX
  8
0
  6
CONTINUOUS
 10
6.671280
 20
3.069880
  0
VERTEX
  8
0
  6
CONTINUOUS
 10
6.656320
 20
3.080880
  0
VERTEX
  8
0
  6
CONTINUOUS
 10
6.630360
 20
3.091880
  0
VERTEX
  8
0
  6
CONTINUOUS
 10
6.611440
 20
3.095400
  0
VERTEX
  8
0
  6
CONTINUOUS
 10
6.592080
 20
3.095400
  0
VERTEX
  8
0
  6
CONTINUOUS
 10
6.573160
 20
3.091880
  0
VERTEX
  8
0
  6
CONTINUOUS
 10
6.547200
 20
3.080880
  0
VERTEX
  8
0
  6
CONTINUOUS
 10
6.525640
 20
3.063720
  0
VERTEX
  8
0
  6
CONTINUOUS
 10
6.513760
 20
3.049640
  0
VERTEX
  8
0
  6
CONTINUOUS
 10
6.504520
 20
3.033360
  0
VERTEX
  8
0
  6
CONTINUOUS
 10
6.498360
 20
3.015320
  0
VERTEX
  8
0
  6
CONTINUOUS
 10
6.496600
 20
3.006080
  0
VERTEX
  8
0
  6
CONTINUOUS
 10
6.462280
 20
3.004320
  0
VERTEX
  8
0
  6
CONTINUOUS
 10
6.457440
 20
3.022800
  0
VERTEX
  8
0
  6
CONTINUOUS
 10
6.449960
 20
3.039520
  0
VERTEX
  8
0
  6
CONTINUOUS
 10
6.433240
 20
3.061960
  0
VERTEX
  8
0
  6
CONTINUOUS
 10
6.411680
 20
3.079120
  0
VERTEX
  8
0
  6
CONTINUOUS
 10
6.385720
 20
3.090120
  0
VERTEX
  8
0
  6
CONTINUOUS
 10
6.366800
 20
3.093640
  0
VERTEX
  8
0
  6
CONTINUOUS
 10
6.347440
 20
3.093640
  0
VERTEX
  8
0
  6
CONTINUOUS
 10
6.328520
 20
3.090120
  0
VERTEX
  8
0
  6
CONTINUOUS
 10
6.302560
 20
3.079120
  0
VERTEX
  8
0
  6
CONTINUOUS
 10
6.280560
 20
3.061960
  0
VERTEX
  8
0
  6
CONTINUOUS
 10
6.264280
 20
3.039520
  0
VERTEX
  8
0
  6
CONTINUOUS
 10
6.256360
 20
3.022800
  0
VERTEX
  8
0
  6
CONTINUOUS
 10
6.251520
 20
3.004320
  0
VERTEX
  8
0
  6
CONTINUOUS
 10
6.210600
 20
3.003880
  0
SEQEND
  8
0
  0
TEXT
  8
0
 10
4.979480
 20
2.941840
 40
0.138121
  1
BA  438
 41
1.000000
  7
SN0
 71
     0
 72
     5
 11
5.569146
 21
2.941840
  0
TEXT
  8
0
 10
4.823720
 20
2.750440
 40
0.138121
  1
1/2" x 2-3/4"
 41
1.000000
  7
SN0
 71
     0
 72
     5
 11
5.723273
 21
2.750440
  0
ENDSEC
  0
EOF
