  0
SECTION
  2
HEADER
  9
$ACADVER
  1
AC1006
  9
$EXTMIN
 10
3.386680
 20
0.743160
  9
$EXTMAX
 10
7.526200
 20
5.110160
  9
$LTSCALE
 40
0.044000
  9
$PDMODE
 70
    35
  9
$PDSIZE
 40
0.035200
  0
ENDSEC
  0
SECTION
  2
TABLES
  0
TABLE
  2
LTYPE
 70
     9
  0
LTYPE
  2
CONTINUOUS
 70
    64
  3
Solid line
 72
    65
 73
     0
 40
0.000000
  0
LTYPE
  2
DASHED
 70
    64
  3
__ __ __ __ __ __ __ __ __ __ __ __ __ __ __
 72
    65
 73
     2
 40
0.000330
 49
0.000220
 49
-0.000110
  0
LTYPE
  2
HIDDEN
 70
    64
  3
 _ _ _ _ _ _ _ _ _ _ _ _ _ _ _ _ _ _ _ _ _ _
 72
    65
 73
     2
 40
0.000165
 49
0.000110
 49
-0.000055
  0
LTYPE
  2
CENTER
 70
    64
  3
____ _ ____ _ ____ _ ____ _ ____ _ ____ _ ____
 72
    65
 73
     4
 40
0.000880
 49
0.000550
 49
-0.000110
 49
0.000110
 49
-0.000110
  0
LTYPE
  2
PHANTOM
 70
    64
  3
_____ _ _ _____ _ _ _____ _ _ _____ _ _ ____
 72
    65
 73
     6
 40
0.001100
 49
0.000550
 49
-0.000110
 49
0.000110
 49
-0.000110
 49
0.000110
 49
-0.000110
  0
LTYPE
  2
DOT
 70
    64
  3
...............................................
 72
    65
 73
     2
 40
0.000110
 49
0.000000
 49
-0.000110
  0
LTYPE
  2
DASHDOT
 70
    64
  3
__ . __ . __ . __ . __ . __ . __ . __ . __ . __
 72
    65
 73
     4
 40
0.000440
 49
0.000220
 49
-0.000110
 49
0.000000
 49
-0.000110
  0
LTYPE
  2
BORDER
 70
    64
  3
__ __ . __ __ . __ __ . __ __ . __ __ . __ __
 72
    65
 73
     6
 40
0.000770
 49
0.000220
 49
-0.000110
 49
0.000220
 49
-0.000110
 49
0.000000
 49
-0.000110
  0
LTYPE
  2
DIVIDE
 70
    64
  3
__ . . __ . . __ . . __ . . __ . . __ . . __
 72
    65
 73
     6
 40
0.000550
 49
0.000220
 49
-0.000110
 49
0.000000
 49
-0.000110
 49
0.000000
 49
-0.000110
  0
LTYPE
  2
DOTDOT
 70
    64
  3
 . .  . .  . .  . .  . .  . . 
 72
    65
 73
     5
 40
0.000242
 49
-0.000110
 49
0.000000
 49
-0.000110
 49
0.000000
 49
-0.000110
  0
ENDTAB
  0
TABLE
  2
STYLE
 70
     2
  0
STYLE
 70
     0
  2
SN0
 40
0.000000
 41
0.000440
 50
0.000000
 71
     0
 42
0.000000
  3
ROMAND
  0
STYLE
 70
    68
  2
SV0
 40
0.000000
 41
0.000440
 50
0.000000
 71
     0
 42
0.000000
  3
ROMAND
  0
ENDTAB
  0
TABLE
  2
LAYER
 70
     3
  0
LAYER
  2
FOREGROUND
 70
    64
 62
     7
  6
CONTINUOUS
  0
LAYER
  2
BACKGROUND
 70
    65
 62
    -7
  6
CONTINUOUS
  0
LAYER
  2
0
 70
    64
 62
     7
  6
CONTINUOUS
  0
ENDTAB
  0
ENDSEC
  0
SECTION
  2
ENTITIES
  0
POLYLINE
  8
FOREGROUND
  6
CONTINUOUS
 66
     1
 40
0.000000
 41
0.000000
  0
VERTEX
  8
FOREGROUND
  6
CONTINUOUS
 10
0.000000
 20
5.853320
  0
VERTEX
  8
FOREGROUND
  6
CONTINUOUS
 10
8.499920
 20
5.853320
  0
VERTEX
  8
FOREGROUND
  6
CONTINUOUS
 10
8.499920
 20
-5.146680
  0
VERTEX
  8
FOREGROUND
  6
CONTINUOUS
 10
0.000000
 20
-5.146680
  0
VERTEX
  8
FOREGROUND
  6
CONTINUOUS
 10
0.000000
 20
5.853320
  0
SEQEND
  8
0
  0
POLYLINE
  8
0
  6
CONTINUOUS
 66
     1
 40
0.014080
 41
0.014080
  0
VERTEX
  8
0
  6
CONTINUOUS
 10
3.392400
 20
4.712400
  0
VERTEX
  8
0
  6
CONTINUOUS
 10
3.462360
 20
4.781920
  0
VERTEX
  8
0
  6
CONTINUOUS
 10
3.535400
 20
4.844400
  0
VERTEX
  8
0
  6
CONTINUOUS
 10
3.611520
 20
4.899840
  0
VERTEX
  8
0
  6
CONTINUOUS
 10
3.689840
 20
4.948680
  0
VERTEX
  8
0
  6
CONTINUOUS
 10
3.743520
 20
4.977280
  0
VERTEX
  8
0
  6
CONTINUOUS
 10
3.798080
 20
5.003240
  0
VERTEX
  8
0
  6
CONTINUOUS
 10
3.880800
 20
5.036240
  0
VERTEX
  8
0
  6
CONTINUOUS
 10
3.965280
 20
5.062200
  0
VERTEX
  8
0
  6
CONTINUOUS
 10
4.022040
 20
5.076280
  0
VERTEX
  8
0
  6
CONTINUOUS
 10
4.078800
 20
5.087280
  0
VERTEX
  8
0
  6
CONTINUOUS
 10
4.165040
 20
5.098280
  0
VERTEX
  8
0
  6
CONTINUOUS
 10
4.222680
 20
5.101800
  0
VERTEX
  8
0
  6
CONTINUOUS
 10
4.279880
 20
5.102680
  0
VERTEX
  8
0
  6
CONTINUOUS
 10
4.337520
 20
5.100920
  0
VERTEX
  8
0
  6
CONTINUOUS
 10
4.422880
 20
5.092560
  0
VERTEX
  8
0
  6
CONTINUOUS
 10
4.479200
 20
5.083760
  0
VERTEX
  8
0
  6
CONTINUOUS
 10
4.563240
 20
5.064840
  0
VERTEX
  8
0
  6
CONTINUOUS
 10
4.645520
 20
5.040200
  0
VERTEX
  8
0
  6
CONTINUOUS
 10
4.726480
 20
5.009400
  0
VERTEX
  8
0
  6
CONTINUOUS
 10
4.804800
 20
4.972440
  0
VERTEX
  8
0
  6
CONTINUOUS
 10
4.880920
 20
4.929320
  0
VERTEX
  8
0
  6
CONTINUOUS
 10
4.953960
 20
4.880040
  0
VERTEX
  8
0
  6
CONTINUOUS
 10
5.023920
 20
4.825480
  0
VERTEX
  8
0
  6
CONTINUOUS
 10
5.090360
 20
4.764760
  0
VERTEX
  8
0
  6
CONTINUOUS
 10
5.425200
 20
5.085960
  0
VERTEX
  8
0
  6
CONTINUOUS
 10
5.475800
 20
5.038000
  0
VERTEX
  8
0
  6
CONTINUOUS
 10
5.552360
 20
4.974200
  0
VERTEX
  8
0
  6
CONTINUOUS
 10
5.603840
 20
4.936800
  0
VERTEX
  8
0
  6
CONTINUOUS
 10
5.681720
 20
4.888400
  0
VERTEX
  8
0
  6
CONTINUOUS
 10
5.733640
 20
4.860680
  0
VERTEX
  8
0
  6
CONTINUOUS
 10
5.811520
 20
4.826360
  0
VERTEX
  8
0
  6
CONTINUOUS
 10
5.889400
 20
4.799960
  0
VERTEX
  8
0
  6
CONTINUOUS
 10
5.940880
 20
4.786320
  0
VERTEX
  8
0
  6
CONTINUOUS
 10
5.992360
 20
4.775760
  0
VERTEX
  8
0
  6
CONTINUOUS
 10
6.069360
 20
4.766080
  0
VERTEX
  8
0
  6
CONTINUOUS
 10
6.119960
 20
4.763440
  0
VERTEX
  8
0
  6
CONTINUOUS
 10
6.170120
 20
4.763440
  0
VERTEX
  8
0
  6
CONTINUOUS
 10
6.219840
 20
4.766080
  0
VERTEX
  8
0
  6
CONTINUOUS
 10
6.269120
 20
4.770920
  0
VERTEX
  8
0
  6
CONTINUOUS
 10
6.341720
 20
4.783240
  0
VERTEX
  8
0
  6
CONTINUOUS
 10
6.388800
 20
4.794240
  0
VERTEX
  8
0
  6
CONTINUOUS
 10
6.435440
 20
4.807440
  0
VERTEX
  8
0
  6
CONTINUOUS
 10
6.481200
 20
4.822400
  0
VERTEX
  8
0
  6
CONTINUOUS
 10
6.569640
 20
4.858040
  0
VERTEX
  8
0
  6
CONTINUOUS
 10
6.654120
 20
4.900280
  0
VERTEX
  8
0
  6
CONTINUOUS
 10
6.694600
 20
4.923600
  0
VERTEX
  8
0
  6
CONTINUOUS
 10
6.771160
 20
4.974200
  0
VERTEX
  8
0
  6
CONTINUOUS
 10
6.842000
 20
5.028320
  0
VERTEX
  8
0
  6
CONTINUOUS
 10
6.907120
 20
5.085960
  0
VERTEX
  8
0
  6
CONTINUOUS
 10
7.213800
 20
4.704920
  0
VERTEX
  8
0
  6
CONTINUOUS
 10
6.859600
 20
4.343240
  0
VERTEX
  8
0
  6
CONTINUOUS
 10
3.768600
 20
4.343240
  0
VERTEX
  8
0
  6
CONTINUOUS
 10
3.392400
 20
4.712400
  0
SEQEND
  8
0
  0
SOLID
  8
0
 62
    15
 10
5.679960
 20
2.196480
 11
6.322800
 21
1.834360
 12
5.543560
 22
2.191640
 13
6.186400
 23
1.829960
  0
POLYLINE
  8
0
  6
CONTINUOUS
 66
     1
 40
0.000000
 41
0.000000
  0
VERTEX
  8
0
  6
CONTINUOUS
 10
5.679960
 20
2.196480
  0
VERTEX
  8
0
  6
CONTINUOUS
 10
6.322800
 20
1.834360
  0
VERTEX
  8
0
  6
CONTINUOUS
 10
6.186400
 20
1.829960
  0
VERTEX
  8
0
  6
CONTINUOUS
 10
5.543560
 20
2.191640
  0
VERTEX
  8
0
  6
CONTINUOUS
 10
5.679960
 20
2.196480
  0
SEQEND
  8
0
  0
SOLID
  8
0
 62
    15
 10
6.878960
 20
3.746160
 11
7.521800
 21
3.384480
 12
6.862240
 22
3.620760
 13
7.504640
 23
3.259080
  0
POLYLINE
  8
0
  6
CONTINUOUS
 66
     1
 40
0.000000
 41
0.000000
  0
VERTEX
  8
0
  6
CONTINUOUS
 10
6.878960
 20
3.746160
  0
VERTEX
  8
0
  6
CONTINUOUS
 10
7.521800
 20
3.384480
  0
VERTEX
  8
0
  6
CONTINUOUS
 10
7.504640
 20
3.259080
  0
VERTEX
  8
0
  6
CONTINUOUS
 10
6.862240
 20
3.620760
  0
VERTEX
  8
0
  6
CONTINUOUS
 10
6.878960
 20
3.746160
  0
SEQEND
  8
0
  0
SOLID
  8
0
 62
    15
 10
6.862240
 20
3.620760
 11
7.504640
 21
3.259080
 12
6.833200
 22
3.500640
 13
7.476040
 23
3.138960
  0
POLYLINE
  8
0
  6
CONTINUOUS
 66
     1
 40
0.000000
 41
0.000000
  0
VERTEX
  8
0
  6
CONTINUOUS
 10
6.862240
 20
3.620760
  0
VERTEX
  8
0
  6
CONTINUOUS
 10
7.504640
 20
3.259080
  0
VERTEX
  8
0
  6
CONTINUOUS
 10
7.476040
 20
3.138960
  0
VERTEX
  8
0
  6
CONTINUOUS
 10
6.833200
 20
3.500640
  0
VERTEX
  8
0
  6
CONTINUOUS
 10
6.862240
 20
3.620760
  0
SEQEND
  8
0
  0
SOLID
  8
0
 62
    15
 10
6.833200
 20
3.500640
 11
7.476040
 21
3.138960
 12
6.793600
 22
3.386680
 13
7.436440
 23
3.024560
  0
POLYLINE
  8
0
  6
CONTINUOUS
 66
     1
 40
0.000000
 41
0.000000
  0
VERTEX
  8
0
  6
CONTINUOUS
 10
6.833200
 20
3.500640
  0
VERTEX
  8
0
  6
CONTINUOUS
 10
7.476040
 20
3.138960
  0
VERTEX
  8
0
  6
CONTINUOUS
 10
7.436440
 20
3.024560
  0
VERTEX
  8
0
  6
CONTINUOUS
 10
6.793600
 20
3.386680
  0
VERTEX
  8
0
  6
CONTINUOUS
 10
6.833200
 20
3.500640
  0
SEQEND
  8
0
  0
SOLID
  8
0
 62
    15
 10
6.793600
 20
3.386680
 11
7.436440
 21
3.024560
 12
6.683160
 22
3.178560
 13
7.326000
 23
2.816440
  0
POLYLINE
  8
0
  6
CONTINUOUS
 66
     1
 40
0.000000
 41
0.000000
  0
VERTEX
  8
0
  6
CONTINUOUS
 10
6.793600
 20
3.386680
  0
VERTEX
  8
0
  6
CONTINUOUS
 10
7.436440
 20
3.024560
  0
VERTEX
  8
0
  6
CONTINUOUS
 10
7.326000
 20
2.816440
  0
VERTEX
  8
0
  6
CONTINUOUS
 10
6.683160
 20
3.178560
  0
VERTEX
  8
0
  6
CONTINUOUS
 10
6.793600
 20
3.386680
  0
SEQEND
  8
0
  0
SOLID
  8
0
 62
    15
 10
6.683160
 20
3.178560
 11
7.326000
 21
2.816440
 12
6.536200
 22
2.999920
 13
7.179040
 23
2.638240
  0
POLYLINE
  8
0
  6
CONTINUOUS
 66
     1
 40
0.000000
 41
0.000000
  0
VERTEX
  8
0
  6
CONTINUOUS
 10
6.683160
 20
3.178560
  0
VERTEX
  8
0
  6
CONTINUOUS
 10
7.326000
 20
2.816440
  0
VERTEX
  8
0
  6
CONTINUOUS
 10
7.179040
 20
2.638240
  0
VERTEX
  8
0
  6
CONTINUOUS
 10
6.536200
 20
2.999920
  0
VERTEX
  8
0
  6
CONTINUOUS
 10
6.683160
 20
3.178560
  0
SEQEND
  8
0
  0
SOLID
  8
0
 62
    15
 10
6.536200
 20
2.999920
 11
7.179040
 21
2.638240
 12
6.358880
 22
2.855160
 13
7.001720
 23
2.493480
  0
POLYLINE
  8
0
  6
CONTINUOUS
 66
     1
 40
0.000000
 41
0.000000
  0
VERTEX
  8
0
  6
CONTINUOUS
 10
6.536200
 20
2.999920
  0
VERTEX
  8
0
  6
CONTINUOUS
 10
7.179040
 20
2.638240
  0
VERTEX
  8
0
  6
CONTINUOUS
 10
7.001720
 20
2.493480
  0
VERTEX
  8
0
  6
CONTINUOUS
 10
6.358880
 20
2.855160
  0
VERTEX
  8
0
  6
CONTINUOUS
 10
6.536200
 20
2.999920
  0
SEQEND
  8
0
  0
SOLID
  8
0
 62
    15
 10
6.358880
 20
2.855160
 11
7.001720
 21
2.493480
 12
6.156480
 22
2.747800
 13
6.799320
 23
2.386120
  0
POLYLINE
  8
0
  6
CONTINUOUS
 66
     1
 40
0.000000
 41
0.000000
  0
VERTEX
  8
0
  6
CONTINUOUS
 10
6.358880
 20
2.855160
  0
VERTEX
  8
0
  6
CONTINUOUS
 10
7.001720
 20
2.493480
  0
VERTEX
  8
0
  6
CONTINUOUS
 10
6.799320
 20
2.386120
  0
VERTEX
  8
0
  6
CONTINUOUS
 10
6.156480
 20
2.747800
  0
VERTEX
  8
0
  6
CONTINUOUS
 10
6.358880
 20
2.855160
  0
SEQEND
  8
0
  0
SOLID
  8
0
 62
    15
 10
6.156480
 20
2.747800
 11
6.799320
 21
2.386120
 12
5.934280
 22
2.681360
 13
6.577120
 23
2.319680
  0
POLYLINE
  8
0
  6
CONTINUOUS
 66
     1
 40
0.000000
 41
0.000000
  0
VERTEX
  8
0
  6
CONTINUOUS
 10
6.156480
 20
2.747800
  0
VERTEX
  8
0
  6
CONTINUOUS
 10
6.799320
 20
2.386120
  0
VERTEX
  8
0
  6
CONTINUOUS
 10
6.577120
 20
2.319680
  0
VERTEX
  8
0
  6
CONTINUOUS
 10
5.934280
 20
2.681360
  0
VERTEX
  8
0
  6
CONTINUOUS
 10
6.156480
 20
2.747800
  0
SEQEND
  8
0
  0
SOLID
  8
0
 62
    15
 10
5.934280
 20
2.681360
 11
6.577120
 21
2.319680
 12
5.698000
 22
2.659800
 13
6.340840
 23
2.298120
  0
POLYLINE
  8
0
  6
CONTINUOUS
 66
     1
 40
0.000000
 41
0.000000
  0
VERTEX
  8
0
  6
CONTINUOUS
 10
5.934280
 20
2.681360
  0
VERTEX
  8
0
  6
CONTINUOUS
 10
6.577120
 20
2.319680
  0
VERTEX
  8
0
  6
CONTINUOUS
 10
6.340840
 20
2.298120
  0
VERTEX
  8
0
  6
CONTINUOUS
 10
5.698000
 20
2.659800
  0
VERTEX
  8
0
  6
CONTINUOUS
 10
5.934280
 20
2.681360
  0
SEQEND
  8
0
  0
SOLID
  8
0
 62
    15
 10
5.698000
 20
2.659800
 11
6.340840
 21
2.298120
 12
5.679960
 22
2.196480
 13
6.322800
 23
1.834360
  0
POLYLINE
  8
0
  6
CONTINUOUS
 66
     1
 40
0.000000
 41
0.000000
  0
VERTEX
  8
0
  6
CONTINUOUS
 10
5.698000
 20
2.659800
  0
VERTEX
  8
0
  6
CONTINUOUS
 10
6.340840
 20
2.298120
  0
VERTEX
  8
0
  6
CONTINUOUS
 10
6.322800
 20
1.834360
  0
VERTEX
  8
0
  6
CONTINUOUS
 10
5.679960
 20
2.196480
  0
VERTEX
  8
0
  6
CONTINUOUS
 10
5.698000
 20
2.659800
  0
SEQEND
  8
0
  0
SOLID
  8
0
 62
    15
 10
6.883360
 20
3.877280
 11
7.526200
 21
3.515160
 12
6.878960
 22
3.746160
 13
7.521800
 23
3.384480
  0
POLYLINE
  8
0
  6
CONTINUOUS
 66
     1
 40
0.000000
 41
0.000000
  0
VERTEX
  8
0
  6
CONTINUOUS
 10
6.883360
 20
3.877280
  0
VERTEX
  8
0
  6
CONTINUOUS
 10
7.526200
 20
3.515160
  0
VERTEX
  8
0
  6
CONTINUOUS
 10
7.521800
 20
3.384480
  0
VERTEX
  8
0
  6
CONTINUOUS
 10
6.878960
 20
3.746160
  0
VERTEX
  8
0
  6
CONTINUOUS
 10
6.883360
 20
3.877280
  0
SEQEND
  8
0
  0
SOLID
  8
0
 62
    15
 10
5.543560
 20
2.191640
 11
6.186400
 21
1.829960
 12
5.417720
 22
2.173600
 13
6.060560
 23
1.811920
  0
POLYLINE
  8
0
  6
CONTINUOUS
 66
     1
 40
0.000000
 41
0.000000
  0
VERTEX
  8
0
  6
CONTINUOUS
 10
5.543560
 20
2.191640
  0
VERTEX
  8
0
  6
CONTINUOUS
 10
6.186400
 20
1.829960
  0
VERTEX
  8
0
  6
CONTINUOUS
 10
6.060560
 20
1.811920
  0
VERTEX
  8
0
  6
CONTINUOUS
 10
5.417720
 20
2.173600
  0
VERTEX
  8
0
  6
CONTINUOUS
 10
5.543560
 20
2.191640
  0
SEQEND
  8
0
  0
SOLID
  8
0
 62
    15
 10
5.417720
 20
2.173600
 11
6.060560
 21
1.811920
 12
5.302000
 22
2.144120
 13
5.944840
 23
1.782440
  0
POLYLINE
  8
0
  6
CONTINUOUS
 66
     1
 40
0.000000
 41
0.000000
  0
VERTEX
  8
0
  6
CONTINUOUS
 10
5.417720
 20
2.173600
  0
VERTEX
  8
0
  6
CONTINUOUS
 10
6.060560
 20
1.811920
  0
VERTEX
  8
0
  6
CONTINUOUS
 10
5.944840
 20
1.782440
  0
VERTEX
  8
0
  6
CONTINUOUS
 10
5.302000
 20
2.144120
  0
VERTEX
  8
0
  6
CONTINUOUS
 10
5.417720
 20
2.173600
  0
SEQEND
  8
0
  0
SOLID
  8
0
 62
    15
 10
5.302000
 20
2.144120
 11
5.944840
 21
1.782440
 12
5.196840
 22
2.103640
 13
5.839680
 23
1.741960
  0
POLYLINE
  8
0
  6
CONTINUOUS
 66
     1
 40
0.000000
 41
0.000000
  0
VERTEX
  8
0
  6
CONTINUOUS
 10
5.302000
 20
2.144120
  0
VERTEX
  8
0
  6
CONTINUOUS
 10
5.944840
 20
1.782440
  0
VERTEX
  8
0
  6
CONTINUOUS
 10
5.839680
 20
1.741960
  0
VERTEX
  8
0
  6
CONTINUOUS
 10
5.196840
 20
2.103640
  0
VERTEX
  8
0
  6
CONTINUOUS
 10
5.302000
 20
2.144120
  0
SEQEND
  8
0
  0
SOLID
  8
0
 62
    15
 10
5.196840
 20
2.103640
 11
5.839680
 21
1.741960
 12
5.015120
 22
1.994960
 13
5.657520
 23
1.633280
  0
POLYLINE
  8
0
  6
CONTINUOUS
 66
     1
 40
0.000000
 41
0.000000
  0
VERTEX
  8
0
  6
CONTINUOUS
 10
5.196840
 20
2.103640
  0
VERTEX
  8
0
  6
CONTINUOUS
 10
5.839680
 20
1.741960
  0
VERTEX
  8
0
  6
CONTINUOUS
 10
5.657520
 20
1.633280
  0
VERTEX
  8
0
  6
CONTINUOUS
 10
5.015120
 20
1.994960
  0
VERTEX
  8
0
  6
CONTINUOUS
 10
5.196840
 20
2.103640
  0
SEQEND
  8
0
  0
SOLID
  8
0
 62
    15
 10
5.015120
 20
1.994960
 11
5.657520
 21
1.633280
 12
4.870360
 22
1.855920
 13
5.512760
 23
1.494240
  0
POLYLINE
  8
0
  6
CONTINUOUS
 66
     1
 40
0.000000
 41
0.000000
  0
VERTEX
  8
0
  6
CONTINUOUS
 10
5.015120
 20
1.994960
  0
VERTEX
  8
0
  6
CONTINUOUS
 10
5.657520
 20
1.633280
  0
VERTEX
  8
0
  6
CONTINUOUS
 10
5.512760
 20
1.494240
  0
VERTEX
  8
0
  6
CONTINUOUS
 10
4.870360
 20
1.855920
  0
VERTEX
  8
0
  6
CONTINUOUS
 10
5.015120
 20
1.994960
  0
SEQEND
  8
0
  0
SOLID
  8
0
 62
    15
 10
4.870360
 20
1.855920
 11
5.512760
 21
1.494240
 12
4.759920
 22
1.694880
 13
5.402760
 23
1.333200
  0
POLYLINE
  8
0
  6
CONTINUOUS
 66
     1
 40
0.000000
 41
0.000000
  0
VERTEX
  8
0
  6
CONTINUOUS
 10
4.870360
 20
1.855920
  0
VERTEX
  8
0
  6
CONTINUOUS
 10
5.512760
 20
1.494240
  0
VERTEX
  8
0
  6
CONTINUOUS
 10
5.402760
 20
1.333200
  0
VERTEX
  8
0
  6
CONTINUOUS
 10
4.759920
 20
1.694880
  0
VERTEX
  8
0
  6
CONTINUOUS
 10
4.870360
 20
1.855920
  0
SEQEND
  8
0
  0
SOLID
  8
0
 62
    15
 10
4.759920
 20
1.694880
 11
5.402760
 21
1.333200
 12
4.682040
 22
1.520640
 13
5.324880
 23
1.158960
  0
POLYLINE
  8
0
  6
CONTINUOUS
 66
     1
 40
0.000000
 41
0.000000
  0
VERTEX
  8
0
  6
CONTINUOUS
 10
4.759920
 20
1.694880
  0
VERTEX
  8
0
  6
CONTINUOUS
 10
5.402760
 20
1.333200
  0
VERTEX
  8
0
  6
CONTINUOUS
 10
5.324880
 20
1.158960
  0
VERTEX
  8
0
  6
CONTINUOUS
 10
4.682040
 20
1.520640
  0
VERTEX
  8
0
  6
CONTINUOUS
 10
4.759920
 20
1.694880
  0
SEQEND
  8
0
  0
SOLID
  8
0
 62
    15
 10
4.682040
 20
1.520640
 11
5.324880
 21
1.158960
 12
4.634520
 22
1.342000
 13
5.276920
 23
0.980320
  0
POLYLINE
  8
0
  6
CONTINUOUS
 66
     1
 40
0.000000
 41
0.000000
  0
VERTEX
  8
0
  6
CONTINUOUS
 10
4.682040
 20
1.520640
  0
VERTEX
  8
0
  6
CONTINUOUS
 10
5.324880
 20
1.158960
  0
VERTEX
  8
0
  6
CONTINUOUS
 10
5.276920
 20
0.980320
  0
VERTEX
  8
0
  6
CONTINUOUS
 10
4.634520
 20
1.342000
  0
VERTEX
  8
0
  6
CONTINUOUS
 10
4.682040
 20
1.520640
  0
SEQEND
  8
0
  0
SOLID
  8
0
 62
    15
 10
4.634520
 20
1.342000
 11
5.276920
 21
0.980320
 12
4.614280
 22
1.166880
 13
5.257120
 23
0.805200
  0
POLYLINE
  8
0
  6
CONTINUOUS
 66
     1
 40
0.000000
 41
0.000000
  0
VERTEX
  8
0
  6
CONTINUOUS
 10
4.634520
 20
1.342000
  0
VERTEX
  8
0
  6
CONTINUOUS
 10
5.276920
 20
0.980320
  0
VERTEX
  8
0
  6
CONTINUOUS
 10
5.257120
 20
0.805200
  0
VERTEX
  8
0
  6
CONTINUOUS
 10
4.614280
 20
1.166880
  0
VERTEX
  8
0
  6
CONTINUOUS
 10
4.634520
 20
1.342000
  0
SEQEND
  8
0
  0
SOLID
  8
0
 62
    15
 10
4.614280
 20
1.166880
 11
5.257120
 21
0.805200
 12
4.128960
 22
1.227600
 13
4.771800
 23
0.865920
  0
POLYLINE
  8
0
  6
CONTINUOUS
 66
     1
 40
0.000000
 41
0.000000
  0
VERTEX
  8
0
  6
CONTINUOUS
 10
4.614280
 20
1.166880
  0
VERTEX
  8
0
  6
CONTINUOUS
 10
5.257120
 20
0.805200
  0
VERTEX
  8
0
  6
CONTINUOUS
 10
4.771800
 20
0.865920
  0
VERTEX
  8
0
  6
CONTINUOUS
 10
4.128960
 20
1.227600
  0
VERTEX
  8
0
  6
CONTINUOUS
 10
4.614280
 20
1.166880
  0
SEQEND
  8
0
  0
POLYLINE
  8
0
  6
CONTINUOUS
 66
     1
 40
0.000000
 41
0.000000
  0
VERTEX
  8
0
  6
CONTINUOUS
 10
6.883360
 20
3.877280
  0
VERTEX
  8
0
  6
CONTINUOUS
 10
6.878960
 20
3.746160
  0
VERTEX
  8
0
  6
CONTINUOUS
 10
6.862240
 20
3.620760
  0
VERTEX
  8
0
  6
CONTINUOUS
 10
6.833200
 20
3.500640
  0
VERTEX
  8
0
  6
CONTINUOUS
 10
6.793600
 20
3.386680
  0
VERTEX
  8
0
  6
CONTINUOUS
 10
6.683160
 20
3.178560
  0
VERTEX
  8
0
  6
CONTINUOUS
 10
6.536200
 20
2.999920
  0
VERTEX
  8
0
  6
CONTINUOUS
 10
6.358880
 20
2.855160
  0
VERTEX
  8
0
  6
CONTINUOUS
 10
6.156480
 20
2.747800
  0
VERTEX
  8
0
  6
CONTINUOUS
 10
5.934280
 20
2.681360
  0
VERTEX
  8
0
  6
CONTINUOUS
 10
5.698000
 20
2.659800
  0
VERTEX
  8
0
  6
CONTINUOUS
 10
5.679960
 20
2.196480
  0
VERTEX
  8
0
  6
CONTINUOUS
 10
5.543560
 20
2.191640
  0
VERTEX
  8
0
  6
CONTINUOUS
 10
5.417720
 20
2.173600
  0
VERTEX
  8
0
  6
CONTINUOUS
 10
5.302000
 20
2.144120
  0
VERTEX
  8
0
  6
CONTINUOUS
 10
5.196840
 20
2.103640
  0
VERTEX
  8
0
  6
CONTINUOUS
 10
5.015120
 20
1.994960
  0
VERTEX
  8
0
  6
CONTINUOUS
 10
4.870360
 20
1.855920
  0
VERTEX
  8
0
  6
CONTINUOUS
 10
4.759920
 20
1.694880
  0
VERTEX
  8
0
  6
CONTINUOUS
 10
4.682040
 20
1.520640
  0
VERTEX
  8
0
  6
CONTINUOUS
 10
4.634520
 20
1.342000
  0
VERTEX
  8
0
  6
CONTINUOUS
 10
4.614280
 20
1.166880
  0
VERTEX
  8
0
  6
CONTINUOUS
 10
4.128960
 20
1.227600
  0
VERTEX
  8
0
  6
CONTINUOUS
 10
4.132480
 20
1.734480
  0
VERTEX
  8
0
  6
CONTINUOUS
 10
6.356240
 20
3.881680
  0
VERTEX
  8
0
  6
CONTINUOUS
 10
6.883360
 20
3.877280
  0
SEQEND
  8
0
  0
TEXT
  8
0
 10
5.785120
 20
0.977680
 40
0.138111
  1
BA  437
 41
1.000000
  7
SN0
 71
     0
 72
     5
 11
6.374665
 21
0.977680
  0
TEXT
  8
0
 10
5.536960
 20
0.786280
 40
0.138111
  1
3/4" x 3-13/16"
 41
1.000000
  7
SN0
 71
     0
 72
     5
 11
6.620631
 21
0.786280
  0
ENDSEC
  0
EOF
