  0
SECTION
  2
HEADER
  9
$ACADVER
  1
AC1006
  9
$EXTMIN
 10
1.128600
 20
0.623040
  9
$EXTMAX
 10
7.307520
 20
7.308400
  9
$LTSCALE
 40
0.044000
  9
$PDMODE
 70
    35
  9
$PDSIZE
 40
0.035200
  0
ENDSEC
  0
SECTION
  2
TABLES
  0
TABLE
  2
LTYPE
 70
     9
  0
LTYPE
  2
CONTINUOUS
 70
    64
  3
Solid line
 72
    65
 73
     0
 40
0.000000
  0
LTYPE
  2
DASHED
 70
    64
  3
__ __ __ __ __ __ __ __ __ __ __ __ __ __ __
 72
    65
 73
     2
 40
0.000330
 49
0.000220
 49
-0.000110
  0
LTYPE
  2
HIDDEN
 70
    64
  3
 _ _ _ _ _ _ _ _ _ _ _ _ _ _ _ _ _ _ _ _ _ _
 72
    65
 73
     2
 40
0.000165
 49
0.000110
 49
-0.000055
  0
LTYPE
  2
CENTER
 70
    64
  3
____ _ ____ _ ____ _ ____ _ ____ _ ____ _ ____
 72
    65
 73
     4
 40
0.000880
 49
0.000550
 49
-0.000110
 49
0.000110
 49
-0.000110
  0
LTYPE
  2
PHANTOM
 70
    64
  3
_____ _ _ _____ _ _ _____ _ _ _____ _ _ ____
 72
    65
 73
     6
 40
0.001100
 49
0.000550
 49
-0.000110
 49
0.000110
 49
-0.000110
 49
0.000110
 49
-0.000110
  0
LTYPE
  2
DOT
 70
    64
  3
...............................................
 72
    65
 73
     2
 40
0.000110
 49
0.000000
 49
-0.000110
  0
LTYPE
  2
DASHDOT
 70
    64
  3
__ . __ . __ . __ . __ . __ . __ . __ . __ . __
 72
    65
 73
     4
 40
0.000440
 49
0.000220
 49
-0.000110
 49
0.000000
 49
-0.000110
  0
LTYPE
  2
BORDER
 70
    64
  3
__ __ . __ __ . __ __ . __ __ . __ __ . __ __
 72
    65
 73
     6
 40
0.000770
 49
0.000220
 49
-0.000110
 49
0.000220
 49
-0.000110
 49
0.000000
 49
-0.000110
  0
LTYPE
  2
DIVIDE
 70
    64
  3
__ . . __ . . __ . . __ . . __ . . __ . . __
 72
    65
 73
     6
 40
0.000550
 49
0.000220
 49
-0.000110
 49
0.000000
 49
-0.000110
 49
0.000000
 49
-0.000110
  0
LTYPE
  2
DOTDOT
 70
    64
  3
 . .  . .  . .  . .  . .  . . 
 72
    65
 73
     5
 40
0.000242
 49
-0.000110
 49
0.000000
 49
-0.000110
 49
0.000000
 49
-0.000110
  0
ENDTAB
  0
TABLE
  2
STYLE
 70
     2
  0
STYLE
 70
     0
  2
SN0
 40
0.000000
 41
0.000440
 50
0.000000
 71
     0
 42
0.000000
  3
ROMAND
  0
STYLE
 70
    68
  2
SV0
 40
0.000000
 41
0.000440
 50
0.000000
 71
     0
 42
0.000000
  3
ROMAND
  0
ENDTAB
  0
TABLE
  2
LAYER
 70
     3
  0
LAYER
  2
FOREGROUND
 70
    64
 62
     7
  6
CONTINUOUS
  0
LAYER
  2
BACKGROUND
 70
    65
 62
    -7
  6
CONTINUOUS
  0
LAYER
  2
0
 70
    64
 62
     7
  6
CONTINUOUS
  0
ENDTAB
  0
ENDSEC
  0
SECTION
  2
ENTITIES
  0
POLYLINE
  8
FOREGROUND
  6
CONTINUOUS
 66
     1
 40
0.000000
 41
0.000000
  0
VERTEX
  8
FOREGROUND
  6
CONTINUOUS
 10
0.000000
 20
7.931440
  0
VERTEX
  8
FOREGROUND
  6
CONTINUOUS
 10
8.499920
 20
7.931440
  0
VERTEX
  8
FOREGROUND
  6
CONTINUOUS
 10
8.499920
 20
-3.068560
  0
VERTEX
  8
FOREGROUND
  6
CONTINUOUS
 10
0.000000
 20
-3.068560
  0
VERTEX
  8
FOREGROUND
  6
CONTINUOUS
 10
0.000000
 20
7.931440
  0
SEQEND
  8
0
  0
POLYLINE
  8
0
  6
CONTINUOUS
 66
     1
 40
0.000000
 41
0.000000
  0
VERTEX
  8
0
  6
CONTINUOUS
 10
6.802400
 20
6.163520
  0
VERTEX
  8
0
  6
CONTINUOUS
 10
1.455080
 20
6.213680
  0
VERTEX
  8
0
  6
CONTINUOUS
 10
1.129040
 20
6.613640
  0
VERTEX
  8
0
  6
CONTINUOUS
 10
1.805760
 20
7.151760
  0
VERTEX
  8
0
  6
CONTINUOUS
 10
1.886720
 20
7.088400
  0
VERTEX
  8
0
  6
CONTINUOUS
 10
1.965480
 20
7.031640
  0
VERTEX
  8
0
  6
CONTINUOUS
 10
2.068440
 20
6.967400
  0
VERTEX
  8
0
  6
CONTINUOUS
 10
2.119480
 20
6.939680
  0
VERTEX
  8
0
  6
CONTINUOUS
 10
2.170080
 20
6.914600
  0
VERTEX
  8
0
  6
CONTINUOUS
 10
2.245760
 20
6.882920
  0
VERTEX
  8
0
  6
CONTINUOUS
 10
2.321880
 20
6.857400
  0
VERTEX
  8
0
  6
CONTINUOUS
 10
2.398000
 20
6.838480
  0
VERTEX
  8
0
  6
CONTINUOUS
 10
2.449040
 20
6.828800
  0
VERTEX
  8
0
  6
CONTINUOUS
 10
2.500960
 20
6.822200
  0
VERTEX
  8
0
  6
CONTINUOUS
 10
2.579720
 20
6.816920
  0
VERTEX
  8
0
  6
CONTINUOUS
 10
2.660680
 20
6.817360
  0
VERTEX
  8
0
  6
CONTINUOUS
 10
2.743400
 20
6.823520
  0
VERTEX
  8
0
  6
CONTINUOUS
 10
2.829200
 20
6.835400
  0
VERTEX
  8
0
  6
CONTINUOUS
 10
2.917640
 20
6.852120
  0
VERTEX
  8
0
  6
CONTINUOUS
 10
3.009600
 20
6.874120
  0
VERTEX
  8
0
  6
CONTINUOUS
 10
3.138080
 20
6.911080
  0
VERTEX
  8
0
  6
CONTINUOUS
 10
3.274480
 20
6.956840
  0
VERTEX
  8
0
  6
CONTINUOUS
 10
3.419240
 20
7.010520
  0
VERTEX
  8
0
  6
CONTINUOUS
 10
3.655080
 20
7.106000
  0
VERTEX
  8
0
  6
CONTINUOUS
 10
3.780040
 20
7.157040
  0
VERTEX
  8
0
  6
CONTINUOUS
 10
3.902360
 20
7.200600
  0
VERTEX
  8
0
  6
CONTINUOUS
 10
4.021160
 20
7.236240
  0
VERTEX
  8
0
  6
CONTINUOUS
 10
4.098160
 20
7.256040
  0
VERTEX
  8
0
  6
CONTINUOUS
 10
4.211240
 20
7.278920
  0
VERTEX
  8
0
  6
CONTINUOUS
 10
4.320360
 20
7.295200
  0
VERTEX
  8
0
  6
CONTINUOUS
 10
4.391200
 20
7.302240
  0
VERTEX
  8
0
  6
CONTINUOUS
 10
4.494160
 20
7.307520
  0
VERTEX
  8
0
  6
CONTINUOUS
 10
4.560600
 20
7.307520
  0
VERTEX
  8
0
  6
CONTINUOUS
 10
4.624840
 20
7.305320
  0
VERTEX
  8
0
  6
CONTINUOUS
 10
4.687760
 20
7.300480
  0
VERTEX
  8
0
  6
CONTINUOUS
 10
4.778840
 20
7.288600
  0
VERTEX
  8
0
  6
CONTINUOUS
 10
4.865520
 20
7.272320
  0
VERTEX
  8
0
  6
CONTINUOUS
 10
4.947800
 20
7.251200
  0
VERTEX
  8
0
  6
CONTINUOUS
 10
5.025680
 20
7.225680
  0
VERTEX
  8
0
  6
CONTINUOUS
 10
5.099160
 20
7.196640
  0
VERTEX
  8
0
  6
CONTINUOUS
 10
5.167800
 20
7.164080
  0
VERTEX
  8
0
  6
CONTINUOUS
 10
5.232040
 20
7.128440
  0
VERTEX
  8
0
  6
CONTINUOUS
 10
5.272080
 20
7.102920
  0
VERTEX
  8
0
  6
CONTINUOUS
 10
5.309920
 20
7.076520
  0
VERTEX
  8
0
  6
CONTINUOUS
 10
5.346000
 20
7.048800
  0
VERTEX
  8
0
  6
CONTINUOUS
 10
5.379440
 20
7.020640
  0
VERTEX
  8
0
  6
CONTINUOUS
 10
5.410680
 20
6.991600
  0
VERTEX
  8
0
  6
CONTINUOUS
 10
5.439720
 20
6.961680
  0
VERTEX
  8
0
  6
CONTINUOUS
 10
5.466560
 20
6.931320
  0
VERTEX
  8
0
  6
CONTINUOUS
 10
5.491200
 20
6.900520
  0
VERTEX
  8
0
  6
CONTINUOUS
 10
5.788200
 20
7.132840
  0
VERTEX
  8
0
  6
CONTINUOUS
 10
5.838800
 20
7.083560
  0
VERTEX
  8
0
  6
CONTINUOUS
 10
5.923280
 20
7.012280
  0
VERTEX
  8
0
  6
CONTINUOUS
 10
5.985320
 20
6.967400
  0
VERTEX
  8
0
  6
CONTINUOUS
 10
6.051320
 20
6.925600
  0
VERTEX
  8
0
  6
CONTINUOUS
 10
6.120840
 20
6.887320
  0
VERTEX
  8
0
  6
CONTINUOUS
 10
6.157360
 20
6.869720
  0
VERTEX
  8
0
  6
CONTINUOUS
 10
6.232600
 20
6.838920
  0
VERTEX
  8
0
  6
CONTINUOUS
 10
6.311360
 20
6.813840
  0
VERTEX
  8
0
  6
CONTINUOUS
 10
6.351840
 20
6.803720
  0
VERTEX
  8
0
  6
CONTINUOUS
 10
6.393200
 20
6.795360
  0
VERTEX
  8
0
  6
CONTINUOUS
 10
6.435000
 20
6.788760
  0
VERTEX
  8
0
  6
CONTINUOUS
 10
6.478120
 20
6.784360
  0
VERTEX
  8
0
  6
CONTINUOUS
 10
6.521240
 20
6.781720
  0
VERTEX
  8
0
  6
CONTINUOUS
 10
6.565680
 20
6.781280
  0
VERTEX
  8
0
  6
CONTINUOUS
 10
6.633000
 20
6.784800
  0
VERTEX
  8
0
  6
CONTINUOUS
 10
6.701640
 20
6.794040
  0
VERTEX
  8
0
  6
CONTINUOUS
 10
6.771600
 20
6.808560
  0
VERTEX
  8
0
  6
CONTINUOUS
 10
6.842440
 20
6.829680
  0
VERTEX
  8
0
  6
CONTINUOUS
 10
6.890840
 20
6.846840
  0
VERTEX
  8
0
  6
CONTINUOUS
 10
6.963440
 20
6.878520
  0
VERTEX
  8
0
  6
CONTINUOUS
 10
7.037360
 20
6.917240
  0
VERTEX
  8
0
  6
CONTINUOUS
 10
7.307520
 20
6.566120
  0
VERTEX
  8
0
  6
CONTINUOUS
 10
6.802400
 20
6.163520
  0
SEQEND
  8
0
  0
SOLID
  8
0
 62
    15
 10
4.781920
 20
2.701600
 11
5.319600
 21
2.164800
 12
4.600640
 22
2.572680
 13
5.137880
 23
2.036320
  0
POLYLINE
  8
0
  6
CONTINUOUS
 66
     1
 40
0.000000
 41
0.000000
  0
VERTEX
  8
0
  6
CONTINUOUS
 10
4.781920
 20
2.701600
  0
VERTEX
  8
0
  6
CONTINUOUS
 10
5.319600
 20
2.164800
  0
VERTEX
  8
0
  6
CONTINUOUS
 10
5.137880
 20
2.036320
  0
VERTEX
  8
0
  6
CONTINUOUS
 10
4.600640
 20
2.572680
  0
VERTEX
  8
0
  6
CONTINUOUS
 10
4.781920
 20
2.701600
  0
SEQEND
  8
0
  0
SOLID
  8
0
 62
    15
 10
6.570080
 20
5.152400
 11
7.107320
 21
4.615600
 12
6.317960
 22
5.082440
 13
6.855200
 23
4.545640
  0
POLYLINE
  8
0
  6
CONTINUOUS
 66
     1
 40
0.000000
 41
0.000000
  0
VERTEX
  8
0
  6
CONTINUOUS
 10
6.570080
 20
5.152400
  0
VERTEX
  8
0
  6
CONTINUOUS
 10
7.107320
 20
4.615600
  0
VERTEX
  8
0
  6
CONTINUOUS
 10
6.855200
 20
4.545640
  0
VERTEX
  8
0
  6
CONTINUOUS
 10
6.317960
 20
5.082440
  0
VERTEX
  8
0
  6
CONTINUOUS
 10
6.570080
 20
5.152400
  0
SEQEND
  8
0
  0
SOLID
  8
0
 62
    15
 10
6.317960
 20
5.082440
 11
6.855200
 21
4.545640
 12
6.108960
 22
4.988720
 13
6.646640
 23
4.452360
  0
POLYLINE
  8
0
  6
CONTINUOUS
 66
     1
 40
0.000000
 41
0.000000
  0
VERTEX
  8
0
  6
CONTINUOUS
 10
6.317960
 20
5.082440
  0
VERTEX
  8
0
  6
CONTINUOUS
 10
6.855200
 20
4.545640
  0
VERTEX
  8
0
  6
CONTINUOUS
 10
6.646640
 20
4.452360
  0
VERTEX
  8
0
  6
CONTINUOUS
 10
6.108960
 20
4.988720
  0
VERTEX
  8
0
  6
CONTINUOUS
 10
6.317960
 20
5.082440
  0
SEQEND
  8
0
  0
SOLID
  8
0
 62
    15
 10
6.108960
 20
4.988720
 11
6.646640
 21
4.452360
 12
5.936040
 22
4.867280
 13
6.473720
 23
4.330480
  0
POLYLINE
  8
0
  6
CONTINUOUS
 66
     1
 40
0.000000
 41
0.000000
  0
VERTEX
  8
0
  6
CONTINUOUS
 10
6.108960
 20
4.988720
  0
VERTEX
  8
0
  6
CONTINUOUS
 10
6.646640
 20
4.452360
  0
VERTEX
  8
0
  6
CONTINUOUS
 10
6.473720
 20
4.330480
  0
VERTEX
  8
0
  6
CONTINUOUS
 10
5.936040
 20
4.867280
  0
VERTEX
  8
0
  6
CONTINUOUS
 10
6.108960
 20
4.988720
  0
SEQEND
  8
0
  0
SOLID
  8
0
 62
    15
 10
5.936040
 20
4.867280
 11
6.473720
 21
4.330480
 12
5.792600
 22
4.712840
 13
6.329840
 23
4.176480
  0
POLYLINE
  8
0
  6
CONTINUOUS
 66
     1
 40
0.000000
 41
0.000000
  0
VERTEX
  8
0
  6
CONTINUOUS
 10
5.936040
 20
4.867280
  0
VERTEX
  8
0
  6
CONTINUOUS
 10
6.473720
 20
4.330480
  0
VERTEX
  8
0
  6
CONTINUOUS
 10
6.329840
 20
4.176480
  0
VERTEX
  8
0
  6
CONTINUOUS
 10
5.792600
 20
4.712840
  0
VERTEX
  8
0
  6
CONTINUOUS
 10
5.936040
 20
4.867280
  0
SEQEND
  8
0
  0
SOLID
  8
0
 62
    15
 10
5.792600
 20
4.712840
 11
6.329840
 21
4.176480
 12
5.671160
 22
4.522760
 13
6.208400
 23
3.985960
  0
POLYLINE
  8
0
  6
CONTINUOUS
 66
     1
 40
0.000000
 41
0.000000
  0
VERTEX
  8
0
  6
CONTINUOUS
 10
5.792600
 20
4.712840
  0
VERTEX
  8
0
  6
CONTINUOUS
 10
6.329840
 20
4.176480
  0
VERTEX
  8
0
  6
CONTINUOUS
 10
6.208400
 20
3.985960
  0
VERTEX
  8
0
  6
CONTINUOUS
 10
5.671160
 20
4.522760
  0
VERTEX
  8
0
  6
CONTINUOUS
 10
5.792600
 20
4.712840
  0
SEQEND
  8
0
  0
SOLID
  8
0
 62
    15
 10
5.671160
 20
4.522760
 11
6.208400
 21
3.985960
 12
5.565120
 22
4.291320
 13
6.102360
 23
3.754960
  0
POLYLINE
  8
0
  6
CONTINUOUS
 66
     1
 40
0.000000
 41
0.000000
  0
VERTEX
  8
0
  6
CONTINUOUS
 10
5.671160
 20
4.522760
  0
VERTEX
  8
0
  6
CONTINUOUS
 10
6.208400
 20
3.985960
  0
VERTEX
  8
0
  6
CONTINUOUS
 10
6.102360
 20
3.754960
  0
VERTEX
  8
0
  6
CONTINUOUS
 10
5.565120
 20
4.291320
  0
VERTEX
  8
0
  6
CONTINUOUS
 10
5.671160
 20
4.522760
  0
SEQEND
  8
0
  0
SOLID
  8
0
 62
    15
 10
5.565120
 20
4.291320
 11
6.102360
 21
3.754960
 12
5.467000
 22
4.015000
 13
6.004240
 23
3.478640
  0
POLYLINE
  8
0
  6
CONTINUOUS
 66
     1
 40
0.000000
 41
0.000000
  0
VERTEX
  8
0
  6
CONTINUOUS
 10
5.565120
 20
4.291320
  0
VERTEX
  8
0
  6
CONTINUOUS
 10
6.102360
 20
3.754960
  0
VERTEX
  8
0
  6
CONTINUOUS
 10
6.004240
 20
3.478640
  0
VERTEX
  8
0
  6
CONTINUOUS
 10
5.467000
 20
4.015000
  0
VERTEX
  8
0
  6
CONTINUOUS
 10
5.565120
 20
4.291320
  0
SEQEND
  8
0
  0
SOLID
  8
0
 62
    15
 10
5.467000
 20
4.015000
 11
6.004240
 21
3.478640
 12
5.370640
 22
3.689840
 13
5.907880
 23
3.153040
  0
POLYLINE
  8
0
  6
CONTINUOUS
 66
     1
 40
0.000000
 41
0.000000
  0
VERTEX
  8
0
  6
CONTINUOUS
 10
5.467000
 20
4.015000
  0
VERTEX
  8
0
  6
CONTINUOUS
 10
6.004240
 20
3.478640
  0
VERTEX
  8
0
  6
CONTINUOUS
 10
5.907880
 20
3.153040
  0
VERTEX
  8
0
  6
CONTINUOUS
 10
5.370640
 20
3.689840
  0
VERTEX
  8
0
  6
CONTINUOUS
 10
5.467000
 20
4.015000
  0
SEQEND
  8
0
  0
SOLID
  8
0
 62
    15
 10
5.370640
 20
3.689840
 11
5.907880
 21
3.153040
 12
5.257120
 22
3.366000
 13
5.794360
 23
2.829200
  0
POLYLINE
  8
0
  6
CONTINUOUS
 66
     1
 40
0.000000
 41
0.000000
  0
VERTEX
  8
0
  6
CONTINUOUS
 10
5.370640
 20
3.689840
  0
VERTEX
  8
0
  6
CONTINUOUS
 10
5.907880
 20
3.153040
  0
VERTEX
  8
0
  6
CONTINUOUS
 10
5.794360
 20
2.829200
  0
VERTEX
  8
0
  6
CONTINUOUS
 10
5.257120
 20
3.366000
  0
VERTEX
  8
0
  6
CONTINUOUS
 10
5.370640
 20
3.689840
  0
SEQEND
  8
0
  0
SOLID
  8
0
 62
    15
 10
5.257120
 20
3.366000
 11
5.794360
 21
2.829200
 12
5.116760
 22
3.094960
 13
5.654000
 23
2.558600
  0
POLYLINE
  8
0
  6
CONTINUOUS
 66
     1
 40
0.000000
 41
0.000000
  0
VERTEX
  8
0
  6
CONTINUOUS
 10
5.257120
 20
3.366000
  0
VERTEX
  8
0
  6
CONTINUOUS
 10
5.794360
 20
2.829200
  0
VERTEX
  8
0
  6
CONTINUOUS
 10
5.654000
 20
2.558600
  0
VERTEX
  8
0
  6
CONTINUOUS
 10
5.116760
 20
3.094960
  0
VERTEX
  8
0
  6
CONTINUOUS
 10
5.257120
 20
3.366000
  0
SEQEND
  8
0
  0
SOLID
  8
0
 62
    15
 10
5.116760
 20
3.094960
 11
5.654000
 21
2.558600
 12
4.956160
 22
2.874520
 13
5.493840
 23
2.338160
  0
POLYLINE
  8
0
  6
CONTINUOUS
 66
     1
 40
0.000000
 41
0.000000
  0
VERTEX
  8
0
  6
CONTINUOUS
 10
5.116760
 20
3.094960
  0
VERTEX
  8
0
  6
CONTINUOUS
 10
5.654000
 20
2.558600
  0
VERTEX
  8
0
  6
CONTINUOUS
 10
5.493840
 20
2.338160
  0
VERTEX
  8
0
  6
CONTINUOUS
 10
4.956160
 20
2.874520
  0
VERTEX
  8
0
  6
CONTINUOUS
 10
5.116760
 20
3.094960
  0
SEQEND
  8
0
  0
SOLID
  8
0
 62
    15
 10
4.956160
 20
2.874520
 11
5.493840
 21
2.338160
 12
4.781920
 22
2.701600
 13
5.319600
 23
2.164800
  0
POLYLINE
  8
0
  6
CONTINUOUS
 66
     1
 40
0.000000
 41
0.000000
  0
VERTEX
  8
0
  6
CONTINUOUS
 10
4.956160
 20
2.874520
  0
VERTEX
  8
0
  6
CONTINUOUS
 10
5.493840
 20
2.338160
  0
VERTEX
  8
0
  6
CONTINUOUS
 10
5.319600
 20
2.164800
  0
VERTEX
  8
0
  6
CONTINUOUS
 10
4.781920
 20
2.701600
  0
VERTEX
  8
0
  6
CONTINUOUS
 10
4.956160
 20
2.874520
  0
SEQEND
  8
0
  0
SOLID
  8
0
 62
    15
 10
6.570080
 20
6.016560
 11
7.107320
 21
5.480200
 12
6.570080
 22
5.152400
 13
7.107320
 23
4.615600
  0
POLYLINE
  8
0
  6
CONTINUOUS
 66
     1
 40
0.000000
 41
0.000000
  0
VERTEX
  8
0
  6
CONTINUOUS
 10
6.570080
 20
6.016560
  0
VERTEX
  8
0
  6
CONTINUOUS
 10
7.107320
 20
5.480200
  0
VERTEX
  8
0
  6
CONTINUOUS
 10
7.107320
 20
4.615600
  0
VERTEX
  8
0
  6
CONTINUOUS
 10
6.570080
 20
5.152400
  0
VERTEX
  8
0
  6
CONTINUOUS
 10
6.570080
 20
6.016560
  0
SEQEND
  8
0
  0
SOLID
  8
0
 62
    15
 10
4.600640
 20
2.572680
 11
5.137880
 21
2.036320
 12
4.418920
 22
2.485560
 13
4.956160
 23
1.949200
  0
POLYLINE
  8
0
  6
CONTINUOUS
 66
     1
 40
0.000000
 41
0.000000
  0
VERTEX
  8
0
  6
CONTINUOUS
 10
4.600640
 20
2.572680
  0
VERTEX
  8
0
  6
CONTINUOUS
 10
5.137880
 20
2.036320
  0
VERTEX
  8
0
  6
CONTINUOUS
 10
4.956160
 20
1.949200
  0
VERTEX
  8
0
  6
CONTINUOUS
 10
4.418920
 20
2.485560
  0
VERTEX
  8
0
  6
CONTINUOUS
 10
4.600640
 20
2.572680
  0
SEQEND
  8
0
  0
SOLID
  8
0
 62
    15
 10
4.418920
 20
2.485560
 11
4.956160
 21
1.949200
 12
4.242920
 22
2.437160
 13
4.780160
 23
1.900800
  0
POLYLINE
  8
0
  6
CONTINUOUS
 66
     1
 40
0.000000
 41
0.000000
  0
VERTEX
  8
0
  6
CONTINUOUS
 10
4.418920
 20
2.485560
  0
VERTEX
  8
0
  6
CONTINUOUS
 10
4.956160
 20
1.949200
  0
VERTEX
  8
0
  6
CONTINUOUS
 10
4.780160
 20
1.900800
  0
VERTEX
  8
0
  6
CONTINUOUS
 10
4.242920
 20
2.437160
  0
VERTEX
  8
0
  6
CONTINUOUS
 10
4.418920
 20
2.485560
  0
SEQEND
  8
0
  0
SOLID
  8
0
 62
    15
 10
4.242920
 20
2.437160
 11
4.780160
 21
1.900800
 12
4.079240
 22
2.424840
 13
4.616480
 23
1.888040
  0
POLYLINE
  8
0
  6
CONTINUOUS
 66
     1
 40
0.000000
 41
0.000000
  0
VERTEX
  8
0
  6
CONTINUOUS
 10
4.242920
 20
2.437160
  0
VERTEX
  8
0
  6
CONTINUOUS
 10
4.780160
 20
1.900800
  0
VERTEX
  8
0
  6
CONTINUOUS
 10
4.616480
 20
1.888040
  0
VERTEX
  8
0
  6
CONTINUOUS
 10
4.079240
 20
2.424840
  0
VERTEX
  8
0
  6
CONTINUOUS
 10
4.242920
 20
2.437160
  0
SEQEND
  8
0
  0
SOLID
  8
0
 62
    15
 10
4.079240
 20
2.424840
 11
4.616480
 21
1.888040
 12
4.076160
 22
2.047760
 13
4.613400
 23
1.510960
  0
POLYLINE
  8
0
  6
CONTINUOUS
 66
     1
 40
0.000000
 41
0.000000
  0
VERTEX
  8
0
  6
CONTINUOUS
 10
4.079240
 20
2.424840
  0
VERTEX
  8
0
  6
CONTINUOUS
 10
4.616480
 20
1.888040
  0
VERTEX
  8
0
  6
CONTINUOUS
 10
4.613400
 20
1.510960
  0
VERTEX
  8
0
  6
CONTINUOUS
 10
4.076160
 20
2.047760
  0
VERTEX
  8
0
  6
CONTINUOUS
 10
4.079240
 20
2.424840
  0
SEQEND
  8
0
  0
SOLID
  8
0
 62
    15
 10
4.076160
 20
2.047760
 11
4.613400
 21
1.510960
 12
3.934040
 22
2.025320
 13
4.471280
 23
1.488520
  0
POLYLINE
  8
0
  6
CONTINUOUS
 66
     1
 40
0.000000
 41
0.000000
  0
VERTEX
  8
0
  6
CONTINUOUS
 10
4.076160
 20
2.047760
  0
VERTEX
  8
0
  6
CONTINUOUS
 10
4.613400
 20
1.510960
  0
VERTEX
  8
0
  6
CONTINUOUS
 10
4.471280
 20
1.488520
  0
VERTEX
  8
0
  6
CONTINUOUS
 10
3.934040
 20
2.025320
  0
VERTEX
  8
0
  6
CONTINUOUS
 10
4.076160
 20
2.047760
  0
SEQEND
  8
0
  0
SOLID
  8
0
 62
    15
 10
3.934040
 20
2.025320
 11
4.471280
 21
1.488520
 12
3.787080
 22
1.984400
 13
4.324320
 23
1.447600
  0
POLYLINE
  8
0
  6
CONTINUOUS
 66
     1
 40
0.000000
 41
0.000000
  0
VERTEX
  8
0
  6
CONTINUOUS
 10
3.934040
 20
2.025320
  0
VERTEX
  8
0
  6
CONTINUOUS
 10
4.471280
 20
1.488520
  0
VERTEX
  8
0
  6
CONTINUOUS
 10
4.324320
 20
1.447600
  0
VERTEX
  8
0
  6
CONTINUOUS
 10
3.787080
 20
1.984400
  0
VERTEX
  8
0
  6
CONTINUOUS
 10
3.934040
 20
2.025320
  0
SEQEND
  8
0
  0
SOLID
  8
0
 62
    15
 10
3.787080
 20
1.984400
 11
4.324320
 21
1.447600
 12
3.640560
 22
1.922360
 13
4.177800
 23
1.385560
  0
POLYLINE
  8
0
  6
CONTINUOUS
 66
     1
 40
0.000000
 41
0.000000
  0
VERTEX
  8
0
  6
CONTINUOUS
 10
3.787080
 20
1.984400
  0
VERTEX
  8
0
  6
CONTINUOUS
 10
4.324320
 20
1.447600
  0
VERTEX
  8
0
  6
CONTINUOUS
 10
4.177800
 20
1.385560
  0
VERTEX
  8
0
  6
CONTINUOUS
 10
3.640560
 20
1.922360
  0
VERTEX
  8
0
  6
CONTINUOUS
 10
3.787080
 20
1.984400
  0
SEQEND
  8
0
  0
SOLID
  8
0
 62
    15
 10
3.640560
 20
1.922360
 11
4.177800
 21
1.385560
 12
3.500640
 22
1.836560
 13
4.038320
 23
1.300200
  0
POLYLINE
  8
0
  6
CONTINUOUS
 66
     1
 40
0.000000
 41
0.000000
  0
VERTEX
  8
0
  6
CONTINUOUS
 10
3.640560
 20
1.922360
  0
VERTEX
  8
0
  6
CONTINUOUS
 10
4.177800
 20
1.385560
  0
VERTEX
  8
0
  6
CONTINUOUS
 10
4.038320
 20
1.300200
  0
VERTEX
  8
0
  6
CONTINUOUS
 10
3.500640
 20
1.836560
  0
VERTEX
  8
0
  6
CONTINUOUS
 10
3.640560
 20
1.922360
  0
SEQEND
  8
0
  0
SOLID
  8
0
 62
    15
 10
3.500640
 20
1.836560
 11
4.038320
 21
1.300200
 12
3.373920
 22
1.724800
 13
3.911160
 23
1.188000
  0
POLYLINE
  8
0
  6
CONTINUOUS
 66
     1
 40
0.000000
 41
0.000000
  0
VERTEX
  8
0
  6
CONTINUOUS
 10
3.500640
 20
1.836560
  0
VERTEX
  8
0
  6
CONTINUOUS
 10
4.038320
 20
1.300200
  0
VERTEX
  8
0
  6
CONTINUOUS
 10
3.911160
 20
1.188000
  0
VERTEX
  8
0
  6
CONTINUOUS
 10
3.373920
 20
1.724800
  0
VERTEX
  8
0
  6
CONTINUOUS
 10
3.500640
 20
1.836560
  0
SEQEND
  8
0
  0
SOLID
  8
0
 62
    15
 10
3.373920
 20
1.724800
 11
3.911160
 21
1.188000
 12
3.265680
 22
1.583560
 13
3.802920
 23
1.047200
  0
POLYLINE
  8
0
  6
CONTINUOUS
 66
     1
 40
0.000000
 41
0.000000
  0
VERTEX
  8
0
  6
CONTINUOUS
 10
3.373920
 20
1.724800
  0
VERTEX
  8
0
  6
CONTINUOUS
 10
3.911160
 20
1.188000
  0
VERTEX
  8
0
  6
CONTINUOUS
 10
3.802920
 20
1.047200
  0
VERTEX
  8
0
  6
CONTINUOUS
 10
3.265680
 20
1.583560
  0
VERTEX
  8
0
  6
CONTINUOUS
 10
3.373920
 20
1.724800
  0
SEQEND
  8
0
  0
SOLID
  8
0
 62
    15
 10
3.265680
 20
1.583560
 11
3.802920
 21
1.047200
 12
3.182520
 22
1.411080
 13
3.719760
 23
0.874280
  0
POLYLINE
  8
0
  6
CONTINUOUS
 66
     1
 40
0.000000
 41
0.000000
  0
VERTEX
  8
0
  6
CONTINUOUS
 10
3.265680
 20
1.583560
  0
VERTEX
  8
0
  6
CONTINUOUS
 10
3.802920
 20
1.047200
  0
VERTEX
  8
0
  6
CONTINUOUS
 10
3.719760
 20
0.874280
  0
VERTEX
  8
0
  6
CONTINUOUS
 10
3.182520
 20
1.411080
  0
VERTEX
  8
0
  6
CONTINUOUS
 10
3.265680
 20
1.583560
  0
SEQEND
  8
0
  0
SOLID
  8
0
 62
    15
 10
3.182520
 20
1.411080
 11
3.719760
 21
0.874280
 12
3.129720
 22
1.204280
 13
3.667400
 23
0.667480
  0
POLYLINE
  8
0
  6
CONTINUOUS
 66
     1
 40
0.000000
 41
0.000000
  0
VERTEX
  8
0
  6
CONTINUOUS
 10
3.182520
 20
1.411080
  0
VERTEX
  8
0
  6
CONTINUOUS
 10
3.719760
 20
0.874280
  0
VERTEX
  8
0
  6
CONTINUOUS
 10
3.667400
 20
0.667480
  0
VERTEX
  8
0
  6
CONTINUOUS
 10
3.129720
 20
1.204280
  0
VERTEX
  8
0
  6
CONTINUOUS
 10
3.182520
 20
1.411080
  0
SEQEND
  8
0
  0
SOLID
  8
0
 62
    15
 10
3.129720
 20
1.204280
 11
3.667400
 21
0.667480
 12
2.687080
 22
1.211320
 13
3.224320
 23
0.674520
  0
POLYLINE
  8
0
  6
CONTINUOUS
 66
     1
 40
0.000000
 41
0.000000
  0
VERTEX
  8
0
  6
CONTINUOUS
 10
3.129720
 20
1.204280
  0
VERTEX
  8
0
  6
CONTINUOUS
 10
3.667400
 20
0.667480
  0
VERTEX
  8
0
  6
CONTINUOUS
 10
3.224320
 20
0.674520
  0
VERTEX
  8
0
  6
CONTINUOUS
 10
2.687080
 20
1.211320
  0
VERTEX
  8
0
  6
CONTINUOUS
 10
3.129720
 20
1.204280
  0
SEQEND
  8
0
  0
POLYLINE
  8
0
  6
CONTINUOUS
 66
     1
 40
0.000000
 41
0.000000
  0
VERTEX
  8
0
  6
CONTINUOUS
 10
2.686200
 20
1.857240
  0
VERTEX
  8
0
  6
CONTINUOUS
 10
6.053960
 20
6.010840
  0
VERTEX
  8
0
  6
CONTINUOUS
 10
6.570080
 20
6.016560
  0
VERTEX
  8
0
  6
CONTINUOUS
 10
6.570080
 20
5.152400
  0
VERTEX
  8
0
  6
CONTINUOUS
 10
6.317960
 20
5.082440
  0
VERTEX
  8
0
  6
CONTINUOUS
 10
6.108960
 20
4.988720
  0
VERTEX
  8
0
  6
CONTINUOUS
 10
5.936040
 20
4.867280
  0
VERTEX
  8
0
  6
CONTINUOUS
 10
5.792600
 20
4.712840
  0
VERTEX
  8
0
  6
CONTINUOUS
 10
5.671160
 20
4.522760
  0
VERTEX
  8
0
  6
CONTINUOUS
 10
5.565120
 20
4.291320
  0
VERTEX
  8
0
  6
CONTINUOUS
 10
5.467000
 20
4.015000
  0
VERTEX
  8
0
  6
CONTINUOUS
 10
5.370640
 20
3.689840
  0
VERTEX
  8
0
  6
CONTINUOUS
 10
5.257120
 20
3.366000
  0
VERTEX
  8
0
  6
CONTINUOUS
 10
5.116760
 20
3.094960
  0
VERTEX
  8
0
  6
CONTINUOUS
 10
4.956160
 20
2.874520
  0
VERTEX
  8
0
  6
CONTINUOUS
 10
4.781920
 20
2.701600
  0
VERTEX
  8
0
  6
CONTINUOUS
 10
4.600640
 20
2.572680
  0
VERTEX
  8
0
  6
CONTINUOUS
 10
4.418920
 20
2.485560
  0
VERTEX
  8
0
  6
CONTINUOUS
 10
4.242920
 20
2.437160
  0
VERTEX
  8
0
  6
CONTINUOUS
 10
4.079240
 20
2.424840
  0
VERTEX
  8
0
  6
CONTINUOUS
 10
4.076160
 20
2.047760
  0
VERTEX
  8
0
  6
CONTINUOUS
 10
3.934040
 20
2.025320
  0
VERTEX
  8
0
  6
CONTINUOUS
 10
3.787080
 20
1.984400
  0
VERTEX
  8
0
  6
CONTINUOUS
 10
3.640560
 20
1.922360
  0
VERTEX
  8
0
  6
CONTINUOUS
 10
3.500640
 20
1.836560
  0
VERTEX
  8
0
  6
CONTINUOUS
 10
3.373920
 20
1.724800
  0
VERTEX
  8
0
  6
CONTINUOUS
 10
3.265680
 20
1.583560
  0
VERTEX
  8
0
  6
CONTINUOUS
 10
3.182520
 20
1.411080
  0
VERTEX
  8
0
  6
CONTINUOUS
 10
3.129720
 20
1.204280
  0
VERTEX
  8
0
  6
CONTINUOUS
 10
2.687080
 20
1.211320
  0
VERTEX
  8
0
  6
CONTINUOUS
 10
2.686200
 20
1.857240
  0
SEQEND
  8
0
  0
TEXT
  8
0
 10
4.543000
 20
0.858440
 40
0.138197
  1
BA  435
 41
1.000000
  7
SN0
 71
     0
 72
     5
 11
5.132983
 21
0.858440
  0
TEXT
  8
0
 10
4.313320
 20
0.666600
 40
0.138197
  1
1-1/8" x 6-1/8"
 41
1.000000
  7
SN0
 71
     0
 72
     5
 11
5.361250
 21
0.666600
  0
ENDSEC
  0
EOF
