  0
SECTION
  2
HEADER
  9
$ACADVER
  1
AC1006
  9
$EXTMIN
 10
1.653080
 20
0.481360
  9
$EXTMAX
 10
7.178160
 20
7.155280
  9
$LTSCALE
 40
0.044000
  9
$PDMODE
 70
    35
  9
$PDSIZE
 40
0.035200
  0
ENDSEC
  0
SECTION
  2
TABLES
  0
TABLE
  2
LTYPE
 70
     9
  0
LTYPE
  2
CONTINUOUS
 70
    64
  3
Solid line
 72
    65
 73
     0
 40
0.000000
  0
LTYPE
  2
DASHED
 70
    64
  3
__ __ __ __ __ __ __ __ __ __ __ __ __ __ __
 72
    65
 73
     2
 40
0.000330
 49
0.000220
 49
-0.000110
  0
LTYPE
  2
HIDDEN
 70
    64
  3
 _ _ _ _ _ _ _ _ _ _ _ _ _ _ _ _ _ _ _ _ _ _
 72
    65
 73
     2
 40
0.000165
 49
0.000110
 49
-0.000055
  0
LTYPE
  2
CENTER
 70
    64
  3
____ _ ____ _ ____ _ ____ _ ____ _ ____ _ ____
 72
    65
 73
     4
 40
0.000880
 49
0.000550
 49
-0.000110
 49
0.000110
 49
-0.000110
  0
LTYPE
  2
PHANTOM
 70
    64
  3
_____ _ _ _____ _ _ _____ _ _ _____ _ _ ____
 72
    65
 73
     6
 40
0.001100
 49
0.000550
 49
-0.000110
 49
0.000110
 49
-0.000110
 49
0.000110
 49
-0.000110
  0
LTYPE
  2
DOT
 70
    64
  3
...............................................
 72
    65
 73
     2
 40
0.000110
 49
0.000000
 49
-0.000110
  0
LTYPE
  2
DASHDOT
 70
    64
  3
__ . __ . __ . __ . __ . __ . __ . __ . __ . __
 72
    65
 73
     4
 40
0.000440
 49
0.000220
 49
-0.000110
 49
0.000000
 49
-0.000110
  0
LTYPE
  2
BORDER
 70
    64
  3
__ __ . __ __ . __ __ . __ __ . __ __ . __ __
 72
    65
 73
     6
 40
0.000770
 49
0.000220
 49
-0.000110
 49
0.000220
 49
-0.000110
 49
0.000000
 49
-0.000110
  0
LTYPE
  2
DIVIDE
 70
    64
  3
__ . . __ . . __ . . __ . . __ . . __ . . __
 72
    65
 73
     6
 40
0.000550
 49
0.000220
 49
-0.000110
 49
0.000000
 49
-0.000110
 49
0.000000
 49
-0.000110
  0
LTYPE
  2
DOTDOT
 70
    64
  3
 . .  . .  . .  . .  . .  . . 
 72
    65
 73
     5
 40
0.000242
 49
-0.000110
 49
0.000000
 49
-0.000110
 49
0.000000
 49
-0.000110
  0
ENDTAB
  0
TABLE
  2
STYLE
 70
     2
  0
STYLE
 70
     0
  2
SN0
 40
0.000000
 41
0.000440
 50
0.000000
 71
     0
 42
0.000000
  3
ROMAND
  0
STYLE
 70
    68
  2
SV0
 40
0.000000
 41
0.000440
 50
0.000000
 71
     0
 42
0.000000
  3
ROMAND
  0
ENDTAB
  0
TABLE
  2
LAYER
 70
     3
  0
LAYER
  2
FOREGROUND
 70
    64
 62
     7
  6
CONTINUOUS
  0
LAYER
  2
BACKGROUND
 70
    65
 62
    -7
  6
CONTINUOUS
  0
LAYER
  2
0
 70
    64
 62
     7
  6
CONTINUOUS
  0
ENDTAB
  0
ENDSEC
  0
SECTION
  2
ENTITIES
  0
POLYLINE
  8
FOREGROUND
  6
CONTINUOUS
 66
     1
 40
0.000000
 41
0.000000
  0
VERTEX
  8
FOREGROUND
  6
CONTINUOUS
 10
0.000000
 20
7.636640
  0
VERTEX
  8
FOREGROUND
  6
CONTINUOUS
 10
8.499920
 20
7.636640
  0
VERTEX
  8
FOREGROUND
  6
CONTINUOUS
 10
8.499920
 20
-3.363360
  0
VERTEX
  8
FOREGROUND
  6
CONTINUOUS
 10
0.000000
 20
-3.363360
  0
VERTEX
  8
FOREGROUND
  6
CONTINUOUS
 10
0.000000
 20
7.636640
  0
SEQEND
  8
0
  0
POLYLINE
  8
0
  6
CONTINUOUS
 66
     1
 40
0.014080
 41
0.014080
  0
VERTEX
  8
0
  6
CONTINUOUS
 10
1.851520
 20
6.969160
  0
VERTEX
  8
0
  6
CONTINUOUS
 10
1.925440
 20
6.917680
  0
VERTEX
  8
0
  6
CONTINUOUS
 10
2.001120
 20
6.872360
  0
VERTEX
  8
0
  6
CONTINUOUS
 10
2.078120
 20
6.832760
  0
VERTEX
  8
0
  6
CONTINUOUS
 10
2.156440
 20
6.799320
  0
VERTEX
  8
0
  6
CONTINUOUS
 10
2.208800
 20
6.779960
  0
VERTEX
  8
0
  6
CONTINUOUS
 10
2.262040
 20
6.763240
  0
VERTEX
  8
0
  6
CONTINUOUS
 10
2.315280
 20
6.748720
  0
VERTEX
  8
0
  6
CONTINUOUS
 10
2.368520
 20
6.736840
  0
VERTEX
  8
0
  6
CONTINUOUS
 10
2.421760
 20
6.727600
  0
VERTEX
  8
0
  6
CONTINUOUS
 10
2.475440
 20
6.720120
  0
VERTEX
  8
0
  6
CONTINUOUS
 10
2.528680
 20
6.715280
  0
VERTEX
  8
0
  6
CONTINUOUS
 10
2.581920
 20
6.713080
  0
VERTEX
  8
0
  6
CONTINUOUS
 10
2.634720
 20
6.712640
  0
VERTEX
  8
0
  6
CONTINUOUS
 10
2.687520
 20
6.714840
  0
VERTEX
  8
0
  6
CONTINUOUS
 10
2.740320
 20
6.718800
  0
VERTEX
  8
0
  6
CONTINUOUS
 10
2.792240
 20
6.725400
  0
VERTEX
  8
0
  6
CONTINUOUS
 10
2.843720
 20
6.733760
  0
VERTEX
  8
0
  6
CONTINUOUS
 10
2.894320
 20
6.744760
  0
VERTEX
  8
0
  6
CONTINUOUS
 10
2.944920
 20
6.757520
  0
VERTEX
  8
0
  6
CONTINUOUS
 10
2.994200
 20
6.772040
  0
VERTEX
  8
0
  6
CONTINUOUS
 10
3.043040
 20
6.788760
  0
VERTEX
  8
0
  6
CONTINUOUS
 10
3.091000
 20
6.807680
  0
VERTEX
  8
0
  6
CONTINUOUS
 10
3.138080
 20
6.828360
  0
VERTEX
  8
0
  6
CONTINUOUS
 10
3.183840
 20
6.850800
  0
VERTEX
  8
0
  6
CONTINUOUS
 10
3.228720
 20
6.875440
  0
VERTEX
  8
0
  6
CONTINUOUS
 10
3.272280
 20
6.901840
  0
VERTEX
  8
0
  6
CONTINUOUS
 10
3.314520
 20
6.930000
  0
VERTEX
  8
0
  6
CONTINUOUS
 10
3.355880
 20
6.959920
  0
VERTEX
  8
0
  6
CONTINUOUS
 10
3.395480
 20
6.991600
  0
VERTEX
  8
0
  6
CONTINUOUS
 10
3.433760
 20
7.025040
  0
VERTEX
  8
0
  6
CONTINUOUS
 10
3.797200
 20
6.814280
  0
VERTEX
  8
0
  6
CONTINUOUS
 10
3.828000
 20
6.845960
  0
VERTEX
  8
0
  6
CONTINUOUS
 10
3.860560
 20
6.876320
  0
VERTEX
  8
0
  6
CONTINUOUS
 10
3.894880
 20
6.904920
  0
VERTEX
  8
0
  6
CONTINUOUS
 10
3.930960
 20
6.932200
  0
VERTEX
  8
0
  6
CONTINUOUS
 10
3.967920
 20
6.957280
  0
VERTEX
  8
0
  6
CONTINUOUS
 10
4.046240
 20
7.003480
  0
VERTEX
  8
0
  6
CONTINUOUS
 10
4.087600
 20
7.024160
  0
VERTEX
  8
0
  6
CONTINUOUS
 10
4.129400
 20
7.043080
  0
VERTEX
  8
0
  6
CONTINUOUS
 10
4.216520
 20
7.076080
  0
VERTEX
  8
0
  6
CONTINUOUS
 10
4.260960
 20
7.090600
  0
VERTEX
  8
0
  6
CONTINUOUS
 10
4.352480
 20
7.114360
  0
VERTEX
  8
0
  6
CONTINUOUS
 10
4.445320
 20
7.131520
  0
VERTEX
  8
0
  6
CONTINUOUS
 10
4.492400
 20
7.138120
  0
VERTEX
  8
0
  6
CONTINUOUS
 10
4.539920
 20
7.142960
  0
VERTEX
  8
0
  6
CONTINUOUS
 10
4.634520
 20
7.147800
  0
VERTEX
  8
0
  6
CONTINUOUS
 10
4.681600
 20
7.147800
  0
VERTEX
  8
0
  6
CONTINUOUS
 10
4.728680
 20
7.146480
  0
VERTEX
  8
0
  6
CONTINUOUS
 10
4.821960
 20
7.139000
  0
VERTEX
  8
0
  6
CONTINUOUS
 10
4.867720
 20
7.133280
  0
VERTEX
  8
0
  6
CONTINUOUS
 10
4.957920
 20
7.116560
  0
VERTEX
  8
0
  6
CONTINUOUS
 10
5.001480
 20
7.106000
  0
VERTEX
  8
0
  6
CONTINUOUS
 10
5.044600
 20
7.093680
  0
VERTEX
  8
0
  6
CONTINUOUS
 10
5.127760
 20
7.065080
  0
VERTEX
  8
0
  6
CONTINUOUS
 10
5.281760
 20
6.996440
  0
VERTEX
  8
0
  6
CONTINUOUS
 10
5.426960
 20
6.930440
  0
VERTEX
  8
0
  6
CONTINUOUS
 10
5.532120
 20
6.887760
  0
VERTEX
  8
0
  6
CONTINUOUS
 10
5.601640
 20
6.863560
  0
VERTEX
  8
0
  6
CONTINUOUS
 10
5.670720
 20
6.843760
  0
VERTEX
  8
0
  6
CONTINUOUS
 10
5.740680
 20
6.829680
  0
VERTEX
  8
0
  6
CONTINUOUS
 10
5.775880
 20
6.824840
  0
VERTEX
  8
0
  6
CONTINUOUS
 10
5.811080
 20
6.821760
  0
VERTEX
  8
0
  6
CONTINUOUS
 10
5.846720
 20
6.820440
  0
VERTEX
  8
0
  6
CONTINUOUS
 10
5.883240
 20
6.820880
  0
VERTEX
  8
0
  6
CONTINUOUS
 10
5.919760
 20
6.823520
  0
VERTEX
  8
0
  6
CONTINUOUS
 10
5.957160
 20
6.827920
  0
VERTEX
  8
0
  6
CONTINUOUS
 10
5.995000
 20
6.834520
  0
VERTEX
  8
0
  6
CONTINUOUS
 10
6.052640
 20
6.849040
  0
VERTEX
  8
0
  6
CONTINUOUS
 10
6.112480
 20
6.868840
  0
VERTEX
  8
0
  6
CONTINUOUS
 10
6.174080
 20
6.894800
  0
VERTEX
  8
0
  6
CONTINUOUS
 10
6.237440
 20
6.926480
  0
VERTEX
  8
0
  6
CONTINUOUS
 10
6.303440
 20
6.964760
  0
VERTEX
  8
0
  6
CONTINUOUS
 10
6.372080
 20
7.010080
  0
VERTEX
  8
0
  6
CONTINUOUS
 10
7.168480
 20
6.369000
  0
VERTEX
  8
0
  6
CONTINUOUS
 10
6.778640
 20
5.818560
  0
VERTEX
  8
0
  6
CONTINUOUS
 10
2.942280
 20
5.818560
  0
VERTEX
  8
0
  6
CONTINUOUS
 10
1.663640
 20
6.693720
  0
VERTEX
  8
0
  6
CONTINUOUS
 10
1.851520
 20
6.969160
  0
SEQEND
  8
0
  0
SOLID
  8
0
 62
    15
 10
4.740120
 20
2.776400
 11
5.396600
 21
2.406360
 12
4.585680
 22
2.673440
 13
5.242160
 23
2.303400
  0
POLYLINE
  8
0
  6
CONTINUOUS
 66
     1
 40
0.000000
 41
0.000000
  0
VERTEX
  8
0
  6
CONTINUOUS
 10
4.740120
 20
2.776400
  0
VERTEX
  8
0
  6
CONTINUOUS
 10
5.396600
 20
2.406360
  0
VERTEX
  8
0
  6
CONTINUOUS
 10
5.242160
 20
2.303400
  0
VERTEX
  8
0
  6
CONTINUOUS
 10
4.585680
 20
2.673440
  0
VERTEX
  8
0
  6
CONTINUOUS
 10
4.740120
 20
2.776400
  0
SEQEND
  8
0
  0
SOLID
  8
0
 62
    15
 10
5.894680
 20
4.546080
 11
6.551160
 21
4.176040
 12
5.705920
 22
4.462480
 13
6.362840
 23
4.092440
  0
POLYLINE
  8
0
  6
CONTINUOUS
 66
     1
 40
0.000000
 41
0.000000
  0
VERTEX
  8
0
  6
CONTINUOUS
 10
5.894680
 20
4.546080
  0
VERTEX
  8
0
  6
CONTINUOUS
 10
6.551160
 20
4.176040
  0
VERTEX
  8
0
  6
CONTINUOUS
 10
6.362840
 20
4.092440
  0
VERTEX
  8
0
  6
CONTINUOUS
 10
5.705920
 20
4.462480
  0
VERTEX
  8
0
  6
CONTINUOUS
 10
5.894680
 20
4.546080
  0
SEQEND
  8
0
  0
SOLID
  8
0
 62
    15
 10
5.705920
 20
4.462480
 11
6.362840
 21
4.092440
 12
5.562920
 22
4.365680
 13
6.219840
 23
3.995640
  0
POLYLINE
  8
0
  6
CONTINUOUS
 66
     1
 40
0.000000
 41
0.000000
  0
VERTEX
  8
0
  6
CONTINUOUS
 10
5.705920
 20
4.462480
  0
VERTEX
  8
0
  6
CONTINUOUS
 10
6.362840
 20
4.092440
  0
VERTEX
  8
0
  6
CONTINUOUS
 10
6.219840
 20
3.995640
  0
VERTEX
  8
0
  6
CONTINUOUS
 10
5.562920
 20
4.365680
  0
VERTEX
  8
0
  6
CONTINUOUS
 10
5.705920
 20
4.462480
  0
SEQEND
  8
0
  0
SOLID
  8
0
 62
    15
 10
5.562920
 20
4.365680
 11
6.219840
 21
3.995640
 12
5.457760
 22
4.256120
 13
6.114240
 23
3.886080
  0
POLYLINE
  8
0
  6
CONTINUOUS
 66
     1
 40
0.000000
 41
0.000000
  0
VERTEX
  8
0
  6
CONTINUOUS
 10
5.562920
 20
4.365680
  0
VERTEX
  8
0
  6
CONTINUOUS
 10
6.219840
 20
3.995640
  0
VERTEX
  8
0
  6
CONTINUOUS
 10
6.114240
 20
3.886080
  0
VERTEX
  8
0
  6
CONTINUOUS
 10
5.457760
 20
4.256120
  0
VERTEX
  8
0
  6
CONTINUOUS
 10
5.562920
 20
4.365680
  0
SEQEND
  8
0
  0
SOLID
  8
0
 62
    15
 10
5.457760
 20
4.256120
 11
6.114240
 21
3.886080
 12
5.382520
 22
4.134680
 13
6.039000
 23
3.764640
  0
POLYLINE
  8
0
  6
CONTINUOUS
 66
     1
 40
0.000000
 41
0.000000
  0
VERTEX
  8
0
  6
CONTINUOUS
 10
5.457760
 20
4.256120
  0
VERTEX
  8
0
  6
CONTINUOUS
 10
6.114240
 20
3.886080
  0
VERTEX
  8
0
  6
CONTINUOUS
 10
6.039000
 20
3.764640
  0
VERTEX
  8
0
  6
CONTINUOUS
 10
5.382520
 20
4.134680
  0
VERTEX
  8
0
  6
CONTINUOUS
 10
5.457760
 20
4.256120
  0
SEQEND
  8
0
  0
SOLID
  8
0
 62
    15
 10
5.382520
 20
4.134680
 11
6.039000
 21
3.764640
 12
5.329280
 22
4.001800
 13
5.986200
 23
3.631760
  0
POLYLINE
  8
0
  6
CONTINUOUS
 66
     1
 40
0.000000
 41
0.000000
  0
VERTEX
  8
0
  6
CONTINUOUS
 10
5.382520
 20
4.134680
  0
VERTEX
  8
0
  6
CONTINUOUS
 10
6.039000
 20
3.764640
  0
VERTEX
  8
0
  6
CONTINUOUS
 10
5.986200
 20
3.631760
  0
VERTEX
  8
0
  6
CONTINUOUS
 10
5.329280
 20
4.001800
  0
VERTEX
  8
0
  6
CONTINUOUS
 10
5.382520
 20
4.134680
  0
SEQEND
  8
0
  0
SOLID
  8
0
 62
    15
 10
5.329280
 20
4.001800
 11
5.986200
 21
3.631760
 12
5.291440
 22
3.857920
 13
5.948360
 23
3.487880
  0
POLYLINE
  8
0
  6
CONTINUOUS
 66
     1
 40
0.000000
 41
0.000000
  0
VERTEX
  8
0
  6
CONTINUOUS
 10
5.329280
 20
4.001800
  0
VERTEX
  8
0
  6
CONTINUOUS
 10
5.986200
 20
3.631760
  0
VERTEX
  8
0
  6
CONTINUOUS
 10
5.948360
 20
3.487880
  0
VERTEX
  8
0
  6
CONTINUOUS
 10
5.291440
 20
3.857920
  0
VERTEX
  8
0
  6
CONTINUOUS
 10
5.329280
 20
4.001800
  0
SEQEND
  8
0
  0
SOLID
  8
0
 62
    15
 10
5.291440
 20
3.857920
 11
5.948360
 21
3.487880
 12
5.229840
 22
3.540680
 13
5.886320
 23
3.170640
  0
POLYLINE
  8
0
  6
CONTINUOUS
 66
     1
 40
0.000000
 41
0.000000
  0
VERTEX
  8
0
  6
CONTINUOUS
 10
5.291440
 20
3.857920
  0
VERTEX
  8
0
  6
CONTINUOUS
 10
5.948360
 20
3.487880
  0
VERTEX
  8
0
  6
CONTINUOUS
 10
5.886320
 20
3.170640
  0
VERTEX
  8
0
  6
CONTINUOUS
 10
5.229840
 20
3.540680
  0
VERTEX
  8
0
  6
CONTINUOUS
 10
5.291440
 20
3.857920
  0
SEQEND
  8
0
  0
SOLID
  8
0
 62
    15
 10
5.229840
 20
3.540680
 11
5.886320
 21
3.170640
 12
5.180560
 22
3.372160
 13
5.837480
 23
3.002120
  0
POLYLINE
  8
0
  6
CONTINUOUS
 66
     1
 40
0.000000
 41
0.000000
  0
VERTEX
  8
0
  6
CONTINUOUS
 10
5.229840
 20
3.540680
  0
VERTEX
  8
0
  6
CONTINUOUS
 10
5.886320
 20
3.170640
  0
VERTEX
  8
0
  6
CONTINUOUS
 10
5.837480
 20
3.002120
  0
VERTEX
  8
0
  6
CONTINUOUS
 10
5.180560
 20
3.372160
  0
VERTEX
  8
0
  6
CONTINUOUS
 10
5.229840
 20
3.540680
  0
SEQEND
  8
0
  0
SOLID
  8
0
 62
    15
 10
5.180560
 20
3.372160
 11
5.837480
 21
3.002120
 12
5.104000
 22
3.206280
 13
5.760920
 23
2.836240
  0
POLYLINE
  8
0
  6
CONTINUOUS
 66
     1
 40
0.000000
 41
0.000000
  0
VERTEX
  8
0
  6
CONTINUOUS
 10
5.180560
 20
3.372160
  0
VERTEX
  8
0
  6
CONTINUOUS
 10
5.837480
 20
3.002120
  0
VERTEX
  8
0
  6
CONTINUOUS
 10
5.760920
 20
2.836240
  0
VERTEX
  8
0
  6
CONTINUOUS
 10
5.104000
 20
3.206280
  0
VERTEX
  8
0
  6
CONTINUOUS
 10
5.180560
 20
3.372160
  0
SEQEND
  8
0
  0
SOLID
  8
0
 62
    15
 10
5.104000
 20
3.206280
 11
5.760920
 21
2.836240
 12
5.002800
 22
3.048320
 13
5.659280
 23
2.678280
  0
POLYLINE
  8
0
  6
CONTINUOUS
 66
     1
 40
0.000000
 41
0.000000
  0
VERTEX
  8
0
  6
CONTINUOUS
 10
5.104000
 20
3.206280
  0
VERTEX
  8
0
  6
CONTINUOUS
 10
5.760920
 20
2.836240
  0
VERTEX
  8
0
  6
CONTINUOUS
 10
5.659280
 20
2.678280
  0
VERTEX
  8
0
  6
CONTINUOUS
 10
5.002800
 20
3.048320
  0
VERTEX
  8
0
  6
CONTINUOUS
 10
5.104000
 20
3.206280
  0
SEQEND
  8
0
  0
SOLID
  8
0
 62
    15
 10
5.002800
 20
3.048320
 11
5.659280
 21
2.678280
 12
4.880040
 22
2.903120
 13
5.536960
 23
2.533080
  0
POLYLINE
  8
0
  6
CONTINUOUS
 66
     1
 40
0.000000
 41
0.000000
  0
VERTEX
  8
0
  6
CONTINUOUS
 10
5.002800
 20
3.048320
  0
VERTEX
  8
0
  6
CONTINUOUS
 10
5.659280
 20
2.678280
  0
VERTEX
  8
0
  6
CONTINUOUS
 10
5.536960
 20
2.533080
  0
VERTEX
  8
0
  6
CONTINUOUS
 10
4.880040
 20
2.903120
  0
VERTEX
  8
0
  6
CONTINUOUS
 10
5.002800
 20
3.048320
  0
SEQEND
  8
0
  0
SOLID
  8
0
 62
    15
 10
4.880040
 20
2.903120
 11
5.536960
 21
2.533080
 12
4.740120
 22
2.776400
 13
5.396600
 23
2.406360
  0
POLYLINE
  8
0
  6
CONTINUOUS
 66
     1
 40
0.000000
 41
0.000000
  0
VERTEX
  8
0
  6
CONTINUOUS
 10
4.880040
 20
2.903120
  0
VERTEX
  8
0
  6
CONTINUOUS
 10
5.536960
 20
2.533080
  0
VERTEX
  8
0
  6
CONTINUOUS
 10
5.396600
 20
2.406360
  0
VERTEX
  8
0
  6
CONTINUOUS
 10
4.740120
 20
2.776400
  0
VERTEX
  8
0
  6
CONTINUOUS
 10
4.880040
 20
2.903120
  0
SEQEND
  8
0
  0
SOLID
  8
0
 62
    15
 10
5.831760
 20
5.566000
 11
6.488240
 21
5.196400
 12
5.894680
 22
4.546080
 13
6.551160
 23
4.176040
  0
POLYLINE
  8
0
  6
CONTINUOUS
 66
     1
 40
0.000000
 41
0.000000
  0
VERTEX
  8
0
  6
CONTINUOUS
 10
5.831760
 20
5.566000
  0
VERTEX
  8
0
  6
CONTINUOUS
 10
6.488240
 20
5.196400
  0
VERTEX
  8
0
  6
CONTINUOUS
 10
6.551160
 20
4.176040
  0
VERTEX
  8
0
  6
CONTINUOUS
 10
5.894680
 20
4.546080
  0
VERTEX
  8
0
  6
CONTINUOUS
 10
5.831760
 20
5.566000
  0
SEQEND
  8
0
  0
SOLID
  8
0
 62
    15
 10
4.585680
 20
2.673440
 11
5.242160
 21
2.303400
 12
4.419800
 22
2.598640
 13
5.076720
 23
2.228600
  0
POLYLINE
  8
0
  6
CONTINUOUS
 66
     1
 40
0.000000
 41
0.000000
  0
VERTEX
  8
0
  6
CONTINUOUS
 10
4.585680
 20
2.673440
  0
VERTEX
  8
0
  6
CONTINUOUS
 10
5.242160
 20
2.303400
  0
VERTEX
  8
0
  6
CONTINUOUS
 10
5.076720
 20
2.228600
  0
VERTEX
  8
0
  6
CONTINUOUS
 10
4.419800
 20
2.598640
  0
VERTEX
  8
0
  6
CONTINUOUS
 10
4.585680
 20
2.673440
  0
SEQEND
  8
0
  0
SOLID
  8
0
 62
    15
 10
4.419800
 20
2.598640
 11
5.076720
 21
2.228600
 12
4.246880
 22
2.557720
 13
4.903360
 23
2.187680
  0
POLYLINE
  8
0
  6
CONTINUOUS
 66
     1
 40
0.000000
 41
0.000000
  0
VERTEX
  8
0
  6
CONTINUOUS
 10
4.419800
 20
2.598640
  0
VERTEX
  8
0
  6
CONTINUOUS
 10
5.076720
 20
2.228600
  0
VERTEX
  8
0
  6
CONTINUOUS
 10
4.903360
 20
2.187680
  0
VERTEX
  8
0
  6
CONTINUOUS
 10
4.246880
 20
2.557720
  0
VERTEX
  8
0
  6
CONTINUOUS
 10
4.419800
 20
2.598640
  0
SEQEND
  8
0
  0
SOLID
  8
0
 62
    15
 10
4.246880
 20
2.557720
 11
4.903360
 21
2.187680
 12
4.208600
 22
2.139280
 13
4.865520
 23
1.769240
  0
POLYLINE
  8
0
  6
CONTINUOUS
 66
     1
 40
0.000000
 41
0.000000
  0
VERTEX
  8
0
  6
CONTINUOUS
 10
4.246880
 20
2.557720
  0
VERTEX
  8
0
  6
CONTINUOUS
 10
4.903360
 20
2.187680
  0
VERTEX
  8
0
  6
CONTINUOUS
 10
4.865520
 20
1.769240
  0
VERTEX
  8
0
  6
CONTINUOUS
 10
4.208600
 20
2.139280
  0
VERTEX
  8
0
  6
CONTINUOUS
 10
4.246880
 20
2.557720
  0
SEQEND
  8
0
  0
SOLID
  8
0
 62
    15
 10
4.208600
 20
2.139280
 11
4.865520
 21
1.769240
 12
4.014560
 22
2.078560
 13
4.671480
 23
1.708520
  0
POLYLINE
  8
0
  6
CONTINUOUS
 66
     1
 40
0.000000
 41
0.000000
  0
VERTEX
  8
0
  6
CONTINUOUS
 10
4.208600
 20
2.139280
  0
VERTEX
  8
0
  6
CONTINUOUS
 10
4.865520
 20
1.769240
  0
VERTEX
  8
0
  6
CONTINUOUS
 10
4.671480
 20
1.708520
  0
VERTEX
  8
0
  6
CONTINUOUS
 10
4.014560
 20
2.078560
  0
VERTEX
  8
0
  6
CONTINUOUS
 10
4.208600
 20
2.139280
  0
SEQEND
  8
0
  0
SOLID
  8
0
 62
    15
 10
4.014560
 20
2.078560
 11
4.671480
 21
1.708520
 12
3.833280
 22
1.985280
 13
4.489760
 23
1.615240
  0
POLYLINE
  8
0
  6
CONTINUOUS
 66
     1
 40
0.000000
 41
0.000000
  0
VERTEX
  8
0
  6
CONTINUOUS
 10
4.014560
 20
2.078560
  0
VERTEX
  8
0
  6
CONTINUOUS
 10
4.671480
 20
1.708520
  0
VERTEX
  8
0
  6
CONTINUOUS
 10
4.489760
 20
1.615240
  0
VERTEX
  8
0
  6
CONTINUOUS
 10
3.833280
 20
1.985280
  0
VERTEX
  8
0
  6
CONTINUOUS
 10
4.014560
 20
2.078560
  0
SEQEND
  8
0
  0
SOLID
  8
0
 62
    15
 10
3.833280
 20
1.985280
 11
4.489760
 21
1.615240
 12
3.668280
 22
1.861200
 13
4.325200
 23
1.491160
  0
POLYLINE
  8
0
  6
CONTINUOUS
 66
     1
 40
0.000000
 41
0.000000
  0
VERTEX
  8
0
  6
CONTINUOUS
 10
3.833280
 20
1.985280
  0
VERTEX
  8
0
  6
CONTINUOUS
 10
4.489760
 20
1.615240
  0
VERTEX
  8
0
  6
CONTINUOUS
 10
4.325200
 20
1.491160
  0
VERTEX
  8
0
  6
CONTINUOUS
 10
3.668280
 20
1.861200
  0
VERTEX
  8
0
  6
CONTINUOUS
 10
3.833280
 20
1.985280
  0
SEQEND
  8
0
  0
SOLID
  8
0
 62
    15
 10
3.668280
 20
1.861200
 11
4.325200
 21
1.491160
 12
3.524400
 22
1.709400
 13
4.181320
 23
1.339360
  0
POLYLINE
  8
0
  6
CONTINUOUS
 66
     1
 40
0.000000
 41
0.000000
  0
VERTEX
  8
0
  6
CONTINUOUS
 10
3.668280
 20
1.861200
  0
VERTEX
  8
0
  6
CONTINUOUS
 10
4.325200
 20
1.491160
  0
VERTEX
  8
0
  6
CONTINUOUS
 10
4.181320
 20
1.339360
  0
VERTEX
  8
0
  6
CONTINUOUS
 10
3.524400
 20
1.709400
  0
VERTEX
  8
0
  6
CONTINUOUS
 10
3.668280
 20
1.861200
  0
SEQEND
  8
0
  0
SOLID
  8
0
 62
    15
 10
3.524400
 20
1.709400
 11
4.181320
 21
1.339360
 12
3.406040
 22
1.532960
 13
4.062960
 23
1.162920
  0
POLYLINE
  8
0
  6
CONTINUOUS
 66
     1
 40
0.000000
 41
0.000000
  0
VERTEX
  8
0
  6
CONTINUOUS
 10
3.524400
 20
1.709400
  0
VERTEX
  8
0
  6
CONTINUOUS
 10
4.181320
 20
1.339360
  0
VERTEX
  8
0
  6
CONTINUOUS
 10
4.062960
 20
1.162920
  0
VERTEX
  8
0
  6
CONTINUOUS
 10
3.406040
 20
1.532960
  0
VERTEX
  8
0
  6
CONTINUOUS
 10
3.524400
 20
1.709400
  0
SEQEND
  8
0
  0
SOLID
  8
0
 62
    15
 10
3.406040
 20
1.532960
 11
4.062960
 21
1.162920
 12
3.317600
 22
1.334080
 13
3.974520
 23
0.964040
  0
POLYLINE
  8
0
  6
CONTINUOUS
 66
     1
 40
0.000000
 41
0.000000
  0
VERTEX
  8
0
  6
CONTINUOUS
 10
3.406040
 20
1.532960
  0
VERTEX
  8
0
  6
CONTINUOUS
 10
4.062960
 20
1.162920
  0
VERTEX
  8
0
  6
CONTINUOUS
 10
3.974520
 20
0.964040
  0
VERTEX
  8
0
  6
CONTINUOUS
 10
3.317600
 20
1.334080
  0
VERTEX
  8
0
  6
CONTINUOUS
 10
3.406040
 20
1.532960
  0
SEQEND
  8
0
  0
SOLID
  8
0
 62
    15
 10
3.317600
 20
1.334080
 11
3.974520
 21
0.964040
 12
3.263920
 22
1.115400
 13
3.920400
 23
0.745360
  0
POLYLINE
  8
0
  6
CONTINUOUS
 66
     1
 40
0.000000
 41
0.000000
  0
VERTEX
  8
0
  6
CONTINUOUS
 10
3.317600
 20
1.334080
  0
VERTEX
  8
0
  6
CONTINUOUS
 10
3.974520
 20
0.964040
  0
VERTEX
  8
0
  6
CONTINUOUS
 10
3.920400
 20
0.745360
  0
VERTEX
  8
0
  6
CONTINUOUS
 10
3.263920
 20
1.115400
  0
VERTEX
  8
0
  6
CONTINUOUS
 10
3.317600
 20
1.334080
  0
SEQEND
  8
0
  0
SOLID
  8
0
 62
    15
 10
3.263920
 20
1.115400
 11
3.920400
 21
0.745360
 12
3.248520
 22
0.880000
 13
3.905440
 23
0.509960
  0
POLYLINE
  8
0
  6
CONTINUOUS
 66
     1
 40
0.000000
 41
0.000000
  0
VERTEX
  8
0
  6
CONTINUOUS
 10
3.263920
 20
1.115400
  0
VERTEX
  8
0
  6
CONTINUOUS
 10
3.920400
 20
0.745360
  0
VERTEX
  8
0
  6
CONTINUOUS
 10
3.905440
 20
0.509960
  0
VERTEX
  8
0
  6
CONTINUOUS
 10
3.248520
 20
0.880000
  0
VERTEX
  8
0
  6
CONTINUOUS
 10
3.263920
 20
1.115400
  0
SEQEND
  8
0
  0
SOLID
  8
0
 62
    15
 10
3.248520
 20
0.880000
 11
3.905440
 21
0.509960
 12
2.915440
 22
0.885720
 13
3.571920
 23
0.516120
  0
POLYLINE
  8
0
  6
CONTINUOUS
 66
     1
 40
0.000000
 41
0.000000
  0
VERTEX
  8
0
  6
CONTINUOUS
 10
3.248520
 20
0.880000
  0
VERTEX
  8
0
  6
CONTINUOUS
 10
3.905440
 20
0.509960
  0
VERTEX
  8
0
  6
CONTINUOUS
 10
3.571920
 20
0.516120
  0
VERTEX
  8
0
  6
CONTINUOUS
 10
2.915440
 20
0.885720
  0
VERTEX
  8
0
  6
CONTINUOUS
 10
3.248520
 20
0.880000
  0
SEQEND
  8
0
  0
POLYLINE
  8
0
  6
CONTINUOUS
 66
     1
 40
0.000000
 41
0.000000
  0
VERTEX
  8
0
  6
CONTINUOUS
 10
2.915440
 20
0.885720
  0
VERTEX
  8
0
  6
CONTINUOUS
 10
2.940080
 20
2.434960
  0
VERTEX
  8
0
  6
CONTINUOUS
 10
5.156800
 20
5.566000
  0
VERTEX
  8
0
  6
CONTINUOUS
 10
5.831760
 20
5.566000
  0
VERTEX
  8
0
  6
CONTINUOUS
 10
5.894680
 20
4.546080
  0
VERTEX
  8
0
  6
CONTINUOUS
 10
5.705920
 20
4.462480
  0
VERTEX
  8
0
  6
CONTINUOUS
 10
5.562920
 20
4.365680
  0
VERTEX
  8
0
  6
CONTINUOUS
 10
5.457760
 20
4.256120
  0
VERTEX
  8
0
  6
CONTINUOUS
 10
5.382520
 20
4.134680
  0
VERTEX
  8
0
  6
CONTINUOUS
 10
5.329280
 20
4.001800
  0
VERTEX
  8
0
  6
CONTINUOUS
 10
5.291440
 20
3.857920
  0
VERTEX
  8
0
  6
CONTINUOUS
 10
5.229840
 20
3.540680
  0
VERTEX
  8
0
  6
CONTINUOUS
 10
5.180560
 20
3.372160
  0
VERTEX
  8
0
  6
CONTINUOUS
 10
5.104000
 20
3.206280
  0
VERTEX
  8
0
  6
CONTINUOUS
 10
5.002800
 20
3.048320
  0
VERTEX
  8
0
  6
CONTINUOUS
 10
4.880040
 20
2.903120
  0
VERTEX
  8
0
  6
CONTINUOUS
 10
4.740120
 20
2.776400
  0
VERTEX
  8
0
  6
CONTINUOUS
 10
4.585680
 20
2.673440
  0
VERTEX
  8
0
  6
CONTINUOUS
 10
4.419800
 20
2.598640
  0
VERTEX
  8
0
  6
CONTINUOUS
 10
4.246880
 20
2.557720
  0
VERTEX
  8
0
  6
CONTINUOUS
 10
4.208600
 20
2.139280
  0
VERTEX
  8
0
  6
CONTINUOUS
 10
4.014560
 20
2.078560
  0
VERTEX
  8
0
  6
CONTINUOUS
 10
3.833280
 20
1.985280
  0
VERTEX
  8
0
  6
CONTINUOUS
 10
3.668280
 20
1.861200
  0
VERTEX
  8
0
  6
CONTINUOUS
 10
3.524400
 20
1.709400
  0
VERTEX
  8
0
  6
CONTINUOUS
 10
3.406040
 20
1.532960
  0
VERTEX
  8
0
  6
CONTINUOUS
 10
3.317600
 20
1.334080
  0
VERTEX
  8
0
  6
CONTINUOUS
 10
3.263920
 20
1.115400
  0
VERTEX
  8
0
  6
CONTINUOUS
 10
3.248520
 20
0.880000
  0
VERTEX
  8
0
  6
CONTINUOUS
 10
2.915440
 20
0.885720
  0
SEQEND
  8
0
  0
TEXT
  8
0
 10
4.498560
 20
0.715880
 40
0.138266
  1
BA  434
 41
1.000000
  7
SN0
 71
     0
 72
     5
 11
5.089869
 21
0.715880
  0
TEXT
  8
0
 10
4.222680
 20
0.524480
 40
0.138266
  1
1-5/16" x 5-1/2"
 41
1.000000
  7
SN0
 71
     0
 72
     5
 11
5.364921
 21
0.524480
  0
ENDSEC
  0
EOF
