  0
SECTION
  2
HEADER
  9
$ACADVER
  1
AC1006
  9
$EXTMIN
 10
2.095720
 20
0.564080
  9
$EXTMAX
 10
7.311920
 20
5.533000
  9
$LTSCALE
 40
0.044000
  9
$PDMODE
 70
    35
  9
$PDSIZE
 40
0.035200
  0
ENDSEC
  0
SECTION
  2
TABLES
  0
TABLE
  2
LTYPE
 70
     9
  0
LTYPE
  2
CONTINUOUS
 70
    64
  3
Solid line
 72
    65
 73
     0
 40
0.000000
  0
LTYPE
  2
DASHED
 70
    64
  3
__ __ __ __ __ __ __ __ __ __ __ __ __ __ __
 72
    65
 73
     2
 40
0.000330
 49
0.000220
 49
-0.000110
  0
LTYPE
  2
HIDDEN
 70
    64
  3
 _ _ _ _ _ _ _ _ _ _ _ _ _ _ _ _ _ _ _ _ _ _
 72
    65
 73
     2
 40
0.000165
 49
0.000110
 49
-0.000055
  0
LTYPE
  2
CENTER
 70
    64
  3
____ _ ____ _ ____ _ ____ _ ____ _ ____ _ ____
 72
    65
 73
     4
 40
0.000880
 49
0.000550
 49
-0.000110
 49
0.000110
 49
-0.000110
  0
LTYPE
  2
PHANTOM
 70
    64
  3
_____ _ _ _____ _ _ _____ _ _ _____ _ _ ____
 72
    65
 73
     6
 40
0.001100
 49
0.000550
 49
-0.000110
 49
0.000110
 49
-0.000110
 49
0.000110
 49
-0.000110
  0
LTYPE
  2
DOT
 70
    64
  3
...............................................
 72
    65
 73
     2
 40
0.000110
 49
0.000000
 49
-0.000110
  0
LTYPE
  2
DASHDOT
 70
    64
  3
__ . __ . __ . __ . __ . __ . __ . __ . __ . __
 72
    65
 73
     4
 40
0.000440
 49
0.000220
 49
-0.000110
 49
0.000000
 49
-0.000110
  0
LTYPE
  2
BORDER
 70
    64
  3
__ __ . __ __ . __ __ . __ __ . __ __ . __ __
 72
    65
 73
     6
 40
0.000770
 49
0.000220
 49
-0.000110
 49
0.000220
 49
-0.000110
 49
0.000000
 49
-0.000110
  0
LTYPE
  2
DIVIDE
 70
    64
  3
__ . . __ . . __ . . __ . . __ . . __ . . __
 72
    65
 73
     6
 40
0.000550
 49
0.000220
 49
-0.000110
 49
0.000000
 49
-0.000110
 49
0.000000
 49
-0.000110
  0
LTYPE
  2
DOTDOT
 70
    64
  3
 . .  . .  . .  . .  . .  . . 
 72
    65
 73
     5
 40
0.000242
 49
-0.000110
 49
0.000000
 49
-0.000110
 49
0.000000
 49
-0.000110
  0
ENDTAB
  0
TABLE
  2
STYLE
 70
     2
  0
STYLE
 70
     0
  2
SN0
 40
0.000000
 41
0.000440
 50
0.000000
 71
     0
 42
0.000000
  3
ROMAND
  0
STYLE
 70
    68
  2
SV0
 40
0.000000
 41
0.000440
 50
0.000000
 71
     0
 42
0.000000
  3
ROMAND
  0
ENDTAB
  0
TABLE
  2
LAYER
 70
     3
  0
LAYER
  2
FOREGROUND
 70
    64
 62
     7
  6
CONTINUOUS
  0
LAYER
  2
BACKGROUND
 70
    65
 62
    -7
  6
CONTINUOUS
  0
LAYER
  2
0
 70
    64
 62
     7
  6
CONTINUOUS
  0
ENDTAB
  0
ENDSEC
  0
SECTION
  2
ENTITIES
  0
POLYLINE
  8
FOREGROUND
  6
CONTINUOUS
 66
     1
 40
0.000000
 41
0.000000
  0
VERTEX
  8
FOREGROUND
  6
CONTINUOUS
 10
0.000000
 20
6.097080
  0
VERTEX
  8
FOREGROUND
  6
CONTINUOUS
 10
8.499920
 20
6.097080
  0
VERTEX
  8
FOREGROUND
  6
CONTINUOUS
 10
8.499920
 20
-4.902920
  0
VERTEX
  8
FOREGROUND
  6
CONTINUOUS
 10
0.000000
 20
-4.902920
  0
VERTEX
  8
FOREGROUND
  6
CONTINUOUS
 10
0.000000
 20
6.097080
  0
SEQEND
  8
0
  0
SOLID
  8
0
 62
    15
 10
5.388240
 20
2.258520
 11
6.026240
 21
1.883640
 12
5.245680
 22
2.174480
 13
5.883680
 23
1.799600
  0
POLYLINE
  8
0
  6
CONTINUOUS
 66
     1
 40
0.000000
 41
0.000000
  0
VERTEX
  8
0
  6
CONTINUOUS
 10
5.388240
 20
2.258520
  0
VERTEX
  8
0
  6
CONTINUOUS
 10
6.026240
 20
1.883640
  0
VERTEX
  8
0
  6
CONTINUOUS
 10
5.883680
 20
1.799600
  0
VERTEX
  8
0
  6
CONTINUOUS
 10
5.245680
 20
2.174480
  0
VERTEX
  8
0
  6
CONTINUOUS
 10
5.388240
 20
2.258520
  0
SEQEND
  8
0
  0
SOLID
  8
0
 62
    15
 10
6.667320
 20
3.689400
 11
7.305320
 21
3.314520
 12
6.546320
 22
3.655080
 13
7.184760
 23
3.280200
  0
POLYLINE
  8
0
  6
CONTINUOUS
 66
     1
 40
0.000000
 41
0.000000
  0
VERTEX
  8
0
  6
CONTINUOUS
 10
6.667320
 20
3.689400
  0
VERTEX
  8
0
  6
CONTINUOUS
 10
7.305320
 20
3.314520
  0
VERTEX
  8
0
  6
CONTINUOUS
 10
7.184760
 20
3.280200
  0
VERTEX
  8
0
  6
CONTINUOUS
 10
6.546320
 20
3.655080
  0
VERTEX
  8
0
  6
CONTINUOUS
 10
6.667320
 20
3.689400
  0
SEQEND
  8
0
  0
SOLID
  8
0
 62
    15
 10
6.546320
 20
3.655080
 11
7.184760
 21
3.280200
 12
6.427520
 22
3.598320
 13
7.065520
 23
3.223440
  0
POLYLINE
  8
0
  6
CONTINUOUS
 66
     1
 40
0.000000
 41
0.000000
  0
VERTEX
  8
0
  6
CONTINUOUS
 10
6.546320
 20
3.655080
  0
VERTEX
  8
0
  6
CONTINUOUS
 10
7.184760
 20
3.280200
  0
VERTEX
  8
0
  6
CONTINUOUS
 10
7.065520
 20
3.223440
  0
VERTEX
  8
0
  6
CONTINUOUS
 10
6.427520
 20
3.598320
  0
VERTEX
  8
0
  6
CONTINUOUS
 10
6.546320
 20
3.655080
  0
SEQEND
  8
0
  0
SOLID
  8
0
 62
    15
 10
6.427520
 20
3.598320
 11
7.065520
 21
3.223440
 12
6.311800
 22
3.522200
 13
6.949800
 23
3.146880
  0
POLYLINE
  8
0
  6
CONTINUOUS
 66
     1
 40
0.000000
 41
0.000000
  0
VERTEX
  8
0
  6
CONTINUOUS
 10
6.427520
 20
3.598320
  0
VERTEX
  8
0
  6
CONTINUOUS
 10
7.065520
 20
3.223440
  0
VERTEX
  8
0
  6
CONTINUOUS
 10
6.949800
 20
3.146880
  0
VERTEX
  8
0
  6
CONTINUOUS
 10
6.311800
 20
3.522200
  0
VERTEX
  8
0
  6
CONTINUOUS
 10
6.427520
 20
3.598320
  0
SEQEND
  8
0
  0
SOLID
  8
0
 62
    15
 10
6.311800
 20
3.522200
 11
6.949800
 21
3.146880
 12
6.202680
 22
3.429360
 13
6.840680
 23
3.054480
  0
POLYLINE
  8
0
  6
CONTINUOUS
 66
     1
 40
0.000000
 41
0.000000
  0
VERTEX
  8
0
  6
CONTINUOUS
 10
6.311800
 20
3.522200
  0
VERTEX
  8
0
  6
CONTINUOUS
 10
6.949800
 20
3.146880
  0
VERTEX
  8
0
  6
CONTINUOUS
 10
6.840680
 20
3.054480
  0
VERTEX
  8
0
  6
CONTINUOUS
 10
6.202680
 20
3.429360
  0
VERTEX
  8
0
  6
CONTINUOUS
 10
6.311800
 20
3.522200
  0
SEQEND
  8
0
  0
SOLID
  8
0
 62
    15
 10
6.202680
 20
3.429360
 11
6.840680
 21
3.054480
 12
6.101480
 22
3.323320
 13
6.739480
 23
2.948440
  0
POLYLINE
  8
0
  6
CONTINUOUS
 66
     1
 40
0.000000
 41
0.000000
  0
VERTEX
  8
0
  6
CONTINUOUS
 10
6.202680
 20
3.429360
  0
VERTEX
  8
0
  6
CONTINUOUS
 10
6.840680
 20
3.054480
  0
VERTEX
  8
0
  6
CONTINUOUS
 10
6.739480
 20
2.948440
  0
VERTEX
  8
0
  6
CONTINUOUS
 10
6.101480
 20
3.323320
  0
VERTEX
  8
0
  6
CONTINUOUS
 10
6.202680
 20
3.429360
  0
SEQEND
  8
0
  0
SOLID
  8
0
 62
    15
 10
6.101480
 20
3.323320
 11
6.739480
 21
2.948440
 12
6.010840
 22
3.207600
 13
6.648840
 23
2.832720
  0
POLYLINE
  8
0
  6
CONTINUOUS
 66
     1
 40
0.000000
 41
0.000000
  0
VERTEX
  8
0
  6
CONTINUOUS
 10
6.101480
 20
3.323320
  0
VERTEX
  8
0
  6
CONTINUOUS
 10
6.739480
 20
2.948440
  0
VERTEX
  8
0
  6
CONTINUOUS
 10
6.648840
 20
2.832720
  0
VERTEX
  8
0
  6
CONTINUOUS
 10
6.010840
 20
3.207600
  0
VERTEX
  8
0
  6
CONTINUOUS
 10
6.101480
 20
3.323320
  0
SEQEND
  8
0
  0
SOLID
  8
0
 62
    15
 10
6.010840
 20
3.207600
 11
6.648840
 21
2.832720
 12
5.932960
 22
3.084840
 13
6.570960
 23
2.709520
  0
POLYLINE
  8
0
  6
CONTINUOUS
 66
     1
 40
0.000000
 41
0.000000
  0
VERTEX
  8
0
  6
CONTINUOUS
 10
6.010840
 20
3.207600
  0
VERTEX
  8
0
  6
CONTINUOUS
 10
6.648840
 20
2.832720
  0
VERTEX
  8
0
  6
CONTINUOUS
 10
6.570960
 20
2.709520
  0
VERTEX
  8
0
  6
CONTINUOUS
 10
5.932960
 20
3.084840
  0
VERTEX
  8
0
  6
CONTINUOUS
 10
6.010840
 20
3.207600
  0
SEQEND
  8
0
  0
SOLID
  8
0
 62
    15
 10
5.932960
 20
3.084840
 11
6.570960
 21
2.709520
 12
5.870480
 22
2.958120
 13
6.508480
 23
2.582800
  0
POLYLINE
  8
0
  6
CONTINUOUS
 66
     1
 40
0.000000
 41
0.000000
  0
VERTEX
  8
0
  6
CONTINUOUS
 10
5.932960
 20
3.084840
  0
VERTEX
  8
0
  6
CONTINUOUS
 10
6.570960
 20
2.709520
  0
VERTEX
  8
0
  6
CONTINUOUS
 10
6.508480
 20
2.582800
  0
VERTEX
  8
0
  6
CONTINUOUS
 10
5.870480
 20
2.958120
  0
VERTEX
  8
0
  6
CONTINUOUS
 10
5.932960
 20
3.084840
  0
SEQEND
  8
0
  0
SOLID
  8
0
 62
    15
 10
5.870480
 20
2.958120
 11
6.508480
 21
2.582800
 12
5.755200
 22
2.703800
 13
6.393200
 23
2.328920
  0
POLYLINE
  8
0
  6
CONTINUOUS
 66
     1
 40
0.000000
 41
0.000000
  0
VERTEX
  8
0
  6
CONTINUOUS
 10
5.870480
 20
2.958120
  0
VERTEX
  8
0
  6
CONTINUOUS
 10
6.508480
 20
2.582800
  0
VERTEX
  8
0
  6
CONTINUOUS
 10
6.393200
 20
2.328920
  0
VERTEX
  8
0
  6
CONTINUOUS
 10
5.755200
 20
2.703800
  0
VERTEX
  8
0
  6
CONTINUOUS
 10
5.870480
 20
2.958120
  0
SEQEND
  8
0
  0
SOLID
  8
0
 62
    15
 10
5.755200
 20
2.703800
 11
6.393200
 21
2.328920
 12
5.686120
 22
2.581040
 13
6.324120
 23
2.206160
  0
POLYLINE
  8
0
  6
CONTINUOUS
 66
     1
 40
0.000000
 41
0.000000
  0
VERTEX
  8
0
  6
CONTINUOUS
 10
5.755200
 20
2.703800
  0
VERTEX
  8
0
  6
CONTINUOUS
 10
6.393200
 20
2.328920
  0
VERTEX
  8
0
  6
CONTINUOUS
 10
6.324120
 20
2.206160
  0
VERTEX
  8
0
  6
CONTINUOUS
 10
5.686120
 20
2.581040
  0
VERTEX
  8
0
  6
CONTINUOUS
 10
5.755200
 20
2.703800
  0
SEQEND
  8
0
  0
SOLID
  8
0
 62
    15
 10
5.686120
 20
2.581040
 11
6.324120
 21
2.206160
 12
5.604720
 22
2.464440
 13
6.242720
 23
2.089120
  0
POLYLINE
  8
0
  6
CONTINUOUS
 66
     1
 40
0.000000
 41
0.000000
  0
VERTEX
  8
0
  6
CONTINUOUS
 10
5.686120
 20
2.581040
  0
VERTEX
  8
0
  6
CONTINUOUS
 10
6.324120
 20
2.206160
  0
VERTEX
  8
0
  6
CONTINUOUS
 10
6.242720
 20
2.089120
  0
VERTEX
  8
0
  6
CONTINUOUS
 10
5.604720
 20
2.464440
  0
VERTEX
  8
0
  6
CONTINUOUS
 10
5.686120
 20
2.581040
  0
SEQEND
  8
0
  0
SOLID
  8
0
 62
    15
 10
5.604720
 20
2.464440
 11
6.242720
 21
2.089120
 12
5.506600
 22
2.356200
 13
6.144600
 23
1.980880
  0
POLYLINE
  8
0
  6
CONTINUOUS
 66
     1
 40
0.000000
 41
0.000000
  0
VERTEX
  8
0
  6
CONTINUOUS
 10
5.604720
 20
2.464440
  0
VERTEX
  8
0
  6
CONTINUOUS
 10
6.242720
 20
2.089120
  0
VERTEX
  8
0
  6
CONTINUOUS
 10
6.144600
 20
1.980880
  0
VERTEX
  8
0
  6
CONTINUOUS
 10
5.506600
 20
2.356200
  0
VERTEX
  8
0
  6
CONTINUOUS
 10
5.604720
 20
2.464440
  0
SEQEND
  8
0
  0
SOLID
  8
0
 62
    15
 10
5.506600
 20
2.356200
 11
6.144600
 21
1.980880
 12
5.388240
 22
2.258520
 13
6.026240
 23
1.883640
  0
POLYLINE
  8
0
  6
CONTINUOUS
 66
     1
 40
0.000000
 41
0.000000
  0
VERTEX
  8
0
  6
CONTINUOUS
 10
5.506600
 20
2.356200
  0
VERTEX
  8
0
  6
CONTINUOUS
 10
6.144600
 20
1.980880
  0
VERTEX
  8
0
  6
CONTINUOUS
 10
6.026240
 20
1.883640
  0
VERTEX
  8
0
  6
CONTINUOUS
 10
5.388240
 20
2.258520
  0
VERTEX
  8
0
  6
CONTINUOUS
 10
5.506600
 20
2.356200
  0
SEQEND
  8
0
  0
SOLID
  8
0
 62
    15
 10
6.673480
 20
4.197160
 11
7.311480
 21
3.822280
 12
6.667320
 22
3.689400
 13
7.305320
 23
3.314520
  0
POLYLINE
  8
0
  6
CONTINUOUS
 66
     1
 40
0.000000
 41
0.000000
  0
VERTEX
  8
0
  6
CONTINUOUS
 10
6.673480
 20
4.197160
  0
VERTEX
  8
0
  6
CONTINUOUS
 10
7.311480
 20
3.822280
  0
VERTEX
  8
0
  6
CONTINUOUS
 10
7.305320
 20
3.314520
  0
VERTEX
  8
0
  6
CONTINUOUS
 10
6.667320
 20
3.689400
  0
VERTEX
  8
0
  6
CONTINUOUS
 10
6.673480
 20
4.197160
  0
SEQEND
  8
0
  0
SOLID
  8
0
 62
    15
 10
5.245680
 20
2.174480
 11
5.883680
 21
1.799600
 12
5.074960
 22
2.105840
 13
5.712960
 23
1.730960
  0
POLYLINE
  8
0
  6
CONTINUOUS
 66
     1
 40
0.000000
 41
0.000000
  0
VERTEX
  8
0
  6
CONTINUOUS
 10
5.245680
 20
2.174480
  0
VERTEX
  8
0
  6
CONTINUOUS
 10
5.883680
 20
1.799600
  0
VERTEX
  8
0
  6
CONTINUOUS
 10
5.712960
 20
1.730960
  0
VERTEX
  8
0
  6
CONTINUOUS
 10
5.074960
 20
2.105840
  0
VERTEX
  8
0
  6
CONTINUOUS
 10
5.245680
 20
2.174480
  0
SEQEND
  8
0
  0
SOLID
  8
0
 62
    15
 10
5.074960
 20
2.105840
 11
5.712960
 21
1.730960
 12
5.045040
 22
1.818960
 13
5.683480
 23
1.444080
  0
POLYLINE
  8
0
  6
CONTINUOUS
 66
     1
 40
0.000000
 41
0.000000
  0
VERTEX
  8
0
  6
CONTINUOUS
 10
5.074960
 20
2.105840
  0
VERTEX
  8
0
  6
CONTINUOUS
 10
5.712960
 20
1.730960
  0
VERTEX
  8
0
  6
CONTINUOUS
 10
5.683480
 20
1.444080
  0
VERTEX
  8
0
  6
CONTINUOUS
 10
5.045040
 20
1.818960
  0
VERTEX
  8
0
  6
CONTINUOUS
 10
5.074960
 20
2.105840
  0
SEQEND
  8
0
  0
SOLID
  8
0
 62
    15
 10
5.045040
 20
1.818960
 11
5.683480
 21
1.444080
 12
4.897200
 22
1.818080
 13
5.535200
 23
1.442760
  0
POLYLINE
  8
0
  6
CONTINUOUS
 66
     1
 40
0.000000
 41
0.000000
  0
VERTEX
  8
0
  6
CONTINUOUS
 10
5.045040
 20
1.818960
  0
VERTEX
  8
0
  6
CONTINUOUS
 10
5.683480
 20
1.444080
  0
VERTEX
  8
0
  6
CONTINUOUS
 10
5.535200
 20
1.442760
  0
VERTEX
  8
0
  6
CONTINUOUS
 10
4.897200
 20
1.818080
  0
VERTEX
  8
0
  6
CONTINUOUS
 10
5.045040
 20
1.818960
  0
SEQEND
  8
0
  0
SOLID
  8
0
 62
    15
 10
4.897200
 20
1.818080
 11
5.535200
 21
1.442760
 12
4.739680
 22
1.784640
 13
5.377680
 23
1.409760
  0
POLYLINE
  8
0
  6
CONTINUOUS
 66
     1
 40
0.000000
 41
0.000000
  0
VERTEX
  8
0
  6
CONTINUOUS
 10
4.897200
 20
1.818080
  0
VERTEX
  8
0
  6
CONTINUOUS
 10
5.535200
 20
1.442760
  0
VERTEX
  8
0
  6
CONTINUOUS
 10
5.377680
 20
1.409760
  0
VERTEX
  8
0
  6
CONTINUOUS
 10
4.739680
 20
1.784640
  0
VERTEX
  8
0
  6
CONTINUOUS
 10
4.897200
 20
1.818080
  0
SEQEND
  8
0
  0
SOLID
  8
0
 62
    15
 10
4.739680
 20
1.784640
 11
5.377680
 21
1.409760
 12
4.581280
 22
1.720840
 13
5.219280
 23
1.345960
  0
POLYLINE
  8
0
  6
CONTINUOUS
 66
     1
 40
0.000000
 41
0.000000
  0
VERTEX
  8
0
  6
CONTINUOUS
 10
4.739680
 20
1.784640
  0
VERTEX
  8
0
  6
CONTINUOUS
 10
5.377680
 20
1.409760
  0
VERTEX
  8
0
  6
CONTINUOUS
 10
5.219280
 20
1.345960
  0
VERTEX
  8
0
  6
CONTINUOUS
 10
4.581280
 20
1.720840
  0
VERTEX
  8
0
  6
CONTINUOUS
 10
4.739680
 20
1.784640
  0
SEQEND
  8
0
  0
SOLID
  8
0
 62
    15
 10
4.581280
 20
1.720840
 11
5.219280
 21
1.345960
 12
4.431240
 22
1.626680
 13
5.069240
 23
1.251800
  0
POLYLINE
  8
0
  6
CONTINUOUS
 66
     1
 40
0.000000
 41
0.000000
  0
VERTEX
  8
0
  6
CONTINUOUS
 10
4.581280
 20
1.720840
  0
VERTEX
  8
0
  6
CONTINUOUS
 10
5.219280
 20
1.345960
  0
VERTEX
  8
0
  6
CONTINUOUS
 10
5.069240
 20
1.251800
  0
VERTEX
  8
0
  6
CONTINUOUS
 10
4.431240
 20
1.626680
  0
VERTEX
  8
0
  6
CONTINUOUS
 10
4.581280
 20
1.720840
  0
SEQEND
  8
0
  0
SOLID
  8
0
 62
    15
 10
4.431240
 20
1.626680
 11
5.069240
 21
1.251800
 12
4.297920
 22
1.503480
 13
4.935920
 23
1.128600
  0
POLYLINE
  8
0
  6
CONTINUOUS
 66
     1
 40
0.000000
 41
0.000000
  0
VERTEX
  8
0
  6
CONTINUOUS
 10
4.431240
 20
1.626680
  0
VERTEX
  8
0
  6
CONTINUOUS
 10
5.069240
 20
1.251800
  0
VERTEX
  8
0
  6
CONTINUOUS
 10
4.935920
 20
1.128600
  0
VERTEX
  8
0
  6
CONTINUOUS
 10
4.297920
 20
1.503480
  0
VERTEX
  8
0
  6
CONTINUOUS
 10
4.431240
 20
1.626680
  0
SEQEND
  8
0
  0
SOLID
  8
0
 62
    15
 10
4.297920
 20
1.503480
 11
4.935920
 21
1.128600
 12
4.190120
 22
1.352120
 13
4.828120
 23
0.976800
  0
POLYLINE
  8
0
  6
CONTINUOUS
 66
     1
 40
0.000000
 41
0.000000
  0
VERTEX
  8
0
  6
CONTINUOUS
 10
4.297920
 20
1.503480
  0
VERTEX
  8
0
  6
CONTINUOUS
 10
4.935920
 20
1.128600
  0
VERTEX
  8
0
  6
CONTINUOUS
 10
4.828120
 20
0.976800
  0
VERTEX
  8
0
  6
CONTINUOUS
 10
4.190120
 20
1.352120
  0
VERTEX
  8
0
  6
CONTINUOUS
 10
4.297920
 20
1.503480
  0
SEQEND
  8
0
  0
SOLID
  8
0
 62
    15
 10
4.190120
 20
1.352120
 11
4.828120
 21
0.976800
 12
4.116640
 22
1.172600
 13
4.754640
 23
0.797720
  0
POLYLINE
  8
0
  6
CONTINUOUS
 66
     1
 40
0.000000
 41
0.000000
  0
VERTEX
  8
0
  6
CONTINUOUS
 10
4.190120
 20
1.352120
  0
VERTEX
  8
0
  6
CONTINUOUS
 10
4.828120
 20
0.976800
  0
VERTEX
  8
0
  6
CONTINUOUS
 10
4.754640
 20
0.797720
  0
VERTEX
  8
0
  6
CONTINUOUS
 10
4.116640
 20
1.172600
  0
VERTEX
  8
0
  6
CONTINUOUS
 10
4.190120
 20
1.352120
  0
SEQEND
  8
0
  0
SOLID
  8
0
 62
    15
 10
4.116640
 20
1.172600
 11
4.754640
 21
0.797720
 12
4.095080
 22
1.073160
 13
4.733080
 23
0.697840
  0
POLYLINE
  8
0
  6
CONTINUOUS
 66
     1
 40
0.000000
 41
0.000000
  0
VERTEX
  8
0
  6
CONTINUOUS
 10
4.116640
 20
1.172600
  0
VERTEX
  8
0
  6
CONTINUOUS
 10
4.754640
 20
0.797720
  0
VERTEX
  8
0
  6
CONTINUOUS
 10
4.733080
 20
0.697840
  0
VERTEX
  8
0
  6
CONTINUOUS
 10
4.095080
 20
1.073160
  0
VERTEX
  8
0
  6
CONTINUOUS
 10
4.116640
 20
1.172600
  0
SEQEND
  8
0
  0
SOLID
  8
0
 62
    15
 10
4.095080
 20
1.073160
 11
4.733080
 21
0.697840
 12
4.085840
 22
0.966680
 13
4.723840
 23
0.591360
  0
POLYLINE
  8
0
  6
CONTINUOUS
 66
     1
 40
0.000000
 41
0.000000
  0
VERTEX
  8
0
  6
CONTINUOUS
 10
4.095080
 20
1.073160
  0
VERTEX
  8
0
  6
CONTINUOUS
 10
4.733080
 20
0.697840
  0
VERTEX
  8
0
  6
CONTINUOUS
 10
4.723840
 20
0.591360
  0
VERTEX
  8
0
  6
CONTINUOUS
 10
4.085840
 20
0.966680
  0
VERTEX
  8
0
  6
CONTINUOUS
 10
4.095080
 20
1.073160
  0
SEQEND
  8
0
  0
SOLID
  8
0
 62
    15
 10
4.085840
 20
0.966680
 11
4.723840
 21
0.591360
 12
3.729880
 22
0.983840
 13
4.367880
 23
0.608960
  0
POLYLINE
  8
0
  6
CONTINUOUS
 66
     1
 40
0.000000
 41
0.000000
  0
VERTEX
  8
0
  6
CONTINUOUS
 10
4.085840
 20
0.966680
  0
VERTEX
  8
0
  6
CONTINUOUS
 10
4.723840
 20
0.591360
  0
VERTEX
  8
0
  6
CONTINUOUS
 10
4.367880
 20
0.608960
  0
VERTEX
  8
0
  6
CONTINUOUS
 10
3.729880
 20
0.983840
  0
VERTEX
  8
0
  6
CONTINUOUS
 10
4.085840
 20
0.966680
  0
SEQEND
  8
0
  0
SOLID
  8
0
 62
    15
 10
3.729880
 20
0.983840
 11
4.367880
 21
0.608960
 12
3.728560
 22
0.983840
 13
4.366560
 23
0.608960
  0
POLYLINE
  8
0
  6
CONTINUOUS
 66
     1
 40
0.000000
 41
0.000000
  0
VERTEX
  8
0
  6
CONTINUOUS
 10
3.729880
 20
0.983840
  0
VERTEX
  8
0
  6
CONTINUOUS
 10
4.367880
 20
0.608960
  0
VERTEX
  8
0
  6
CONTINUOUS
 10
4.366560
 20
0.608960
  0
VERTEX
  8
0
  6
CONTINUOUS
 10
3.728560
 20
0.983840
  0
VERTEX
  8
0
  6
CONTINUOUS
 10
3.729880
 20
0.983840
  0
SEQEND
  8
0
  0
POLYLINE
  8
0
  6
CONTINUOUS
 66
     1
 40
0.000000
 41
0.000000
  0
VERTEX
  8
0
  6
CONTINUOUS
 10
3.728560
 20
0.983840
  0
VERTEX
  8
0
  6
CONTINUOUS
 10
3.728560
 20
1.606440
  0
VERTEX
  8
0
  6
CONTINUOUS
 10
6.036360
 20
4.197160
  0
VERTEX
  8
0
  6
CONTINUOUS
 10
6.673480
 20
4.197160
  0
VERTEX
  8
0
  6
CONTINUOUS
 10
6.667320
 20
3.689400
  0
VERTEX
  8
0
  6
CONTINUOUS
 10
6.546320
 20
3.655080
  0
VERTEX
  8
0
  6
CONTINUOUS
 10
6.427520
 20
3.598320
  0
VERTEX
  8
0
  6
CONTINUOUS
 10
6.311800
 20
3.522200
  0
VERTEX
  8
0
  6
CONTINUOUS
 10
6.202680
 20
3.429360
  0
VERTEX
  8
0
  6
CONTINUOUS
 10
6.101480
 20
3.323320
  0
VERTEX
  8
0
  6
CONTINUOUS
 10
6.010840
 20
3.207600
  0
VERTEX
  8
0
  6
CONTINUOUS
 10
5.932960
 20
3.084840
  0
VERTEX
  8
0
  6
CONTINUOUS
 10
5.870480
 20
2.958120
  0
VERTEX
  8
0
  6
CONTINUOUS
 10
5.755200
 20
2.703800
  0
VERTEX
  8
0
  6
CONTINUOUS
 10
5.686120
 20
2.581040
  0
VERTEX
  8
0
  6
CONTINUOUS
 10
5.604720
 20
2.464440
  0
VERTEX
  8
0
  6
CONTINUOUS
 10
5.506600
 20
2.356200
  0
VERTEX
  8
0
  6
CONTINUOUS
 10
5.388240
 20
2.258520
  0
VERTEX
  8
0
  6
CONTINUOUS
 10
5.245680
 20
2.174480
  0
VERTEX
  8
0
  6
CONTINUOUS
 10
5.074960
 20
2.105840
  0
VERTEX
  8
0
  6
CONTINUOUS
 10
5.045040
 20
1.818960
  0
VERTEX
  8
0
  6
CONTINUOUS
 10
4.897200
 20
1.818080
  0
VERTEX
  8
0
  6
CONTINUOUS
 10
4.739680
 20
1.784640
  0
VERTEX
  8
0
  6
CONTINUOUS
 10
4.581280
 20
1.720840
  0
VERTEX
  8
0
  6
CONTINUOUS
 10
4.431240
 20
1.626680
  0
VERTEX
  8
0
  6
CONTINUOUS
 10
4.297920
 20
1.503480
  0
VERTEX
  8
0
  6
CONTINUOUS
 10
4.190120
 20
1.352120
  0
VERTEX
  8
0
  6
CONTINUOUS
 10
4.116640
 20
1.172600
  0
VERTEX
  8
0
  6
CONTINUOUS
 10
4.095080
 20
1.073160
  0
VERTEX
  8
0
  6
CONTINUOUS
 10
4.085840
 20
0.966680
  0
VERTEX
  8
0
  6
CONTINUOUS
 10
3.729880
 20
0.983840
  0
VERTEX
  8
0
  6
CONTINUOUS
 10
3.728560
 20
0.983840
  0
SEQEND
  8
0
  0
TEXT
  8
0
 10
5.808880
 20
0.799480
 40
0.138191
  1
BA  433
 41
1.000000
  7
SN0
 71
     0
 72
     5
 11
6.399615
 21
0.799480
  0
TEXT
  8
0
 10
5.653120
 20
0.607640
 40
0.138191
  1
7/8" x 4-3/8"
 41
1.000000
  7
SN0
 71
     0
 72
     5
 11
6.553958
 21
0.607640
  0
POLYLINE
  8
0
  6
CONTINUOUS
 66
     1
 40
0.000000
 41
0.000000
  0
VERTEX
  8
0
  6
CONTINUOUS
 10
6.454360
 20
5.102680
  0
VERTEX
  8
0
  6
CONTINUOUS
 10
5.988840
 20
4.689080
  0
VERTEX
  8
0
  6
CONTINUOUS
 10
2.519440
 20
4.694800
  0
VERTEX
  8
0
  6
CONTINUOUS
 10
2.096160
 20
5.171320
  0
VERTEX
  8
0
  6
CONTINUOUS
 10
2.480280
 20
5.503520
  0
VERTEX
  8
0
  6
CONTINUOUS
 10
2.530880
 20
5.467880
  0
VERTEX
  8
0
  6
CONTINUOUS
 10
2.585880
 20
5.436200
  0
VERTEX
  8
0
  6
CONTINUOUS
 10
2.644840
 20
5.408480
  0
VERTEX
  8
0
  6
CONTINUOUS
 10
2.707320
 20
5.384720
  0
VERTEX
  8
0
  6
CONTINUOUS
 10
2.773320
 20
5.365360
  0
VERTEX
  8
0
  6
CONTINUOUS
 10
2.841080
 20
5.349080
  0
VERTEX
  8
0
  6
CONTINUOUS
 10
2.911480
 20
5.337200
  0
VERTEX
  8
0
  6
CONTINUOUS
 10
2.983200
 20
5.328840
  0
VERTEX
  8
0
  6
CONTINUOUS
 10
3.056240
 20
5.324440
  0
VERTEX
  8
0
  6
CONTINUOUS
 10
3.129720
 20
5.323560
  0
VERTEX
  8
0
  6
CONTINUOUS
 10
3.203200
 20
5.326200
  0
VERTEX
  8
0
  6
CONTINUOUS
 10
3.276240
 20
5.332800
  0
VERTEX
  8
0
  6
CONTINUOUS
 10
3.348840
 20
5.342480
  0
VERTEX
  8
0
  6
CONTINUOUS
 10
3.454880
 20
5.364040
  0
VERTEX
  8
0
  6
CONTINUOUS
 10
3.523080
 20
5.382960
  0
VERTEX
  8
0
  6
CONTINUOUS
 10
3.688520
 20
5.437080
  0
VERTEX
  8
0
  6
CONTINUOUS
 10
3.755400
 20
5.457320
  0
VERTEX
  8
0
  6
CONTINUOUS
 10
3.857040
 20
5.484600
  0
VERTEX
  8
0
  6
CONTINUOUS
 10
3.960440
 20
5.506160
  0
VERTEX
  8
0
  6
CONTINUOUS
 10
4.030840
 20
5.516280
  0
VERTEX
  8
0
  6
CONTINUOUS
 10
4.102120
 20
5.522440
  0
VERTEX
  8
0
  6
CONTINUOUS
 10
4.137760
 20
5.524200
  0
VERTEX
  8
0
  6
CONTINUOUS
 10
4.210800
 20
5.523320
  0
VERTEX
  8
0
  6
CONTINUOUS
 10
4.285160
 20
5.517600
  0
VERTEX
  8
0
  6
CONTINUOUS
 10
4.360840
 20
5.505720
  0
VERTEX
  8
0
  6
CONTINUOUS
 10
4.438280
 20
5.487240
  0
VERTEX
  8
0
  6
CONTINUOUS
 10
4.477440
 20
5.475800
  0
VERTEX
  8
0
  6
CONTINUOUS
 10
4.557080
 20
5.446760
  0
VERTEX
  8
0
  6
CONTINUOUS
 10
4.638480
 20
5.409800
  0
VERTEX
  8
0
  6
CONTINUOUS
 10
4.721640
 20
5.364480
  0
VERTEX
  8
0
  6
CONTINUOUS
 10
4.955720
 20
5.532560
  0
VERTEX
  8
0
  6
CONTINUOUS
 10
4.977280
 20
5.503960
  0
VERTEX
  8
0
  6
CONTINUOUS
 10
5.001040
 20
5.476240
  0
VERTEX
  8
0
  6
CONTINUOUS
 10
5.027000
 20
5.448960
  0
VERTEX
  8
0
  6
CONTINUOUS
 10
5.084640
 20
5.397040
  0
VERTEX
  8
0
  6
CONTINUOUS
 10
5.149760
 20
5.349080
  0
VERTEX
  8
0
  6
CONTINUOUS
 10
5.220600
 20
5.305960
  0
VERTEX
  8
0
  6
CONTINUOUS
 10
5.297160
 20
5.267680
  0
VERTEX
  8
0
  6
CONTINUOUS
 10
5.337200
 20
5.250960
  0
VERTEX
  8
0
  6
CONTINUOUS
 10
5.420360
 20
5.222360
  0
VERTEX
  8
0
  6
CONTINUOUS
 10
5.463480
 20
5.210920
  0
VERTEX
  8
0
  6
CONTINUOUS
 10
5.507480
 20
5.201240
  0
VERTEX
  8
0
  6
CONTINUOUS
 10
5.551480
 20
5.193320
  0
VERTEX
  8
0
  6
CONTINUOUS
 10
5.596800
 20
5.187600
  0
VERTEX
  8
0
  6
CONTINUOUS
 10
5.642120
 20
5.184520
  0
VERTEX
  8
0
  6
CONTINUOUS
 10
5.687880
 20
5.183200
  0
VERTEX
  8
0
  6
CONTINUOUS
 10
5.734080
 20
5.184520
  0
VERTEX
  8
0
  6
CONTINUOUS
 10
5.780280
 20
5.188040
  0
VERTEX
  8
0
  6
CONTINUOUS
 10
5.826920
 20
5.194200
  0
VERTEX
  8
0
  6
CONTINUOUS
 10
5.896000
 20
5.208720
  0
VERTEX
  8
0
  6
CONTINUOUS
 10
5.965080
 20
5.229400
  0
VERTEX
  8
0
  6
CONTINUOUS
 10
6.033280
 20
5.256680
  0
VERTEX
  8
0
  6
CONTINUOUS
 10
6.078600
 20
5.278680
  0
VERTEX
  8
0
  6
CONTINUOUS
 10
6.144600
 20
5.317400
  0
VERTEX
  8
0
  6
CONTINUOUS
 10
6.209280
 20
5.364040
  0
VERTEX
  8
0
  6
CONTINUOUS
 10
6.230400
 20
5.381200
  0
VERTEX
  8
0
  6
CONTINUOUS
 10
6.454360
 20
5.102680
  0
SEQEND
  8
0
  0
ENDSEC
  0
EOF
