  0
SECTION
  2
HEADER
  9
$ACADVER
  1
AC1006
  9
$EXTMIN
 10
4.976400
 20
0.535040
  9
$EXTMAX
 10
6.808560
 20
4.128960
  9
$LTSCALE
 40
0.044000
  9
$PDMODE
 70
    35
  9
$PDSIZE
 40
0.035200
  0
ENDSEC
  0
SECTION
  2
TABLES
  0
TABLE
  2
LTYPE
 70
     9
  0
LTYPE
  2
CONTINUOUS
 70
    64
  3
Solid line
 72
    65
 73
     0
 40
0.000000
  0
LTYPE
  2
DASHED
 70
    64
  3
__ __ __ __ __ __ __ __ __ __ __ __ __ __ __
 72
    65
 73
     2
 40
0.000330
 49
0.000220
 49
-0.000110
  0
LTYPE
  2
HIDDEN
 70
    64
  3
 _ _ _ _ _ _ _ _ _ _ _ _ _ _ _ _ _ _ _ _ _ _
 72
    65
 73
     2
 40
0.000165
 49
0.000110
 49
-0.000055
  0
LTYPE
  2
CENTER
 70
    64
  3
____ _ ____ _ ____ _ ____ _ ____ _ ____ _ ____
 72
    65
 73
     4
 40
0.000880
 49
0.000550
 49
-0.000110
 49
0.000110
 49
-0.000110
  0
LTYPE
  2
PHANTOM
 70
    64
  3
_____ _ _ _____ _ _ _____ _ _ _____ _ _ ____
 72
    65
 73
     6
 40
0.001100
 49
0.000550
 49
-0.000110
 49
0.000110
 49
-0.000110
 49
0.000110
 49
-0.000110
  0
LTYPE
  2
DOT
 70
    64
  3
...............................................
 72
    65
 73
     2
 40
0.000110
 49
0.000000
 49
-0.000110
  0
LTYPE
  2
DASHDOT
 70
    64
  3
__ . __ . __ . __ . __ . __ . __ . __ . __ . __
 72
    65
 73
     4
 40
0.000440
 49
0.000220
 49
-0.000110
 49
0.000000
 49
-0.000110
  0
LTYPE
  2
BORDER
 70
    64
  3
__ __ . __ __ . __ __ . __ __ . __ __ . __ __
 72
    65
 73
     6
 40
0.000770
 49
0.000220
 49
-0.000110
 49
0.000220
 49
-0.000110
 49
0.000000
 49
-0.000110
  0
LTYPE
  2
DIVIDE
 70
    64
  3
__ . . __ . . __ . . __ . . __ . . __ . . __
 72
    65
 73
     6
 40
0.000550
 49
0.000220
 49
-0.000110
 49
0.000000
 49
-0.000110
 49
0.000000
 49
-0.000110
  0
LTYPE
  2
DOTDOT
 70
    64
  3
 . .  . .  . .  . .  . .  . . 
 72
    65
 73
     5
 40
0.000242
 49
-0.000110
 49
0.000000
 49
-0.000110
 49
0.000000
 49
-0.000110
  0
ENDTAB
  0
TABLE
  2
STYLE
 70
     2
  0
STYLE
 70
     0
  2
SN0
 40
0.000000
 41
0.000440
 50
0.000000
 71
     0
 42
0.000000
  3
ROMAND
  0
STYLE
 70
    68
  2
SV0
 40
0.000000
 41
0.000440
 50
0.000000
 71
     0
 42
0.000000
  3
ROMAND
  0
ENDTAB
  0
TABLE
  2
LAYER
 70
     3
  0
LAYER
  2
FOREGROUND
 70
    64
 62
     7
  6
CONTINUOUS
  0
LAYER
  2
BACKGROUND
 70
    65
 62
    -7
  6
CONTINUOUS
  0
LAYER
  2
0
 70
    64
 62
     7
  6
CONTINUOUS
  0
ENDTAB
  0
ENDSEC
  0
SECTION
  2
ENTITIES
  0
POLYLINE
  8
FOREGROUND
  6
CONTINUOUS
 66
     1
 40
0.000000
 41
0.000000
  0
VERTEX
  8
FOREGROUND
  6
CONTINUOUS
 10
0.000000
 20
4.664000
  0
VERTEX
  8
FOREGROUND
  6
CONTINUOUS
 10
8.499920
 20
4.664000
  0
VERTEX
  8
FOREGROUND
  6
CONTINUOUS
 10
8.499920
 20
-6.336000
  0
VERTEX
  8
FOREGROUND
  6
CONTINUOUS
 10
0.000000
 20
-6.336000
  0
VERTEX
  8
FOREGROUND
  6
CONTINUOUS
 10
0.000000
 20
4.664000
  0
SEQEND
  8
0
  0
POLYLINE
  8
0
  6
CONTINUOUS
 66
     1
 40
0.014080
 41
0.014080
  0
VERTEX
  8
0
  6
CONTINUOUS
 10
5.061320
 20
3.868920
  0
VERTEX
  8
0
  6
CONTINUOUS
 10
4.983880
 20
3.868920
  0
VERTEX
  8
0
  6
CONTINUOUS
 10
4.983880
 20
3.312320
  0
VERTEX
  8
0
  6
CONTINUOUS
 10
6.801520
 20
3.312320
  0
VERTEX
  8
0
  6
CONTINUOUS
 10
6.801520
 20
3.494040
  0
VERTEX
  8
0
  6
CONTINUOUS
 10
6.779960
 20
3.496680
  0
VERTEX
  8
0
  6
CONTINUOUS
 10
6.755320
 20
3.504160
  0
VERTEX
  8
0
  6
CONTINUOUS
 10
6.720560
 20
3.521760
  0
VERTEX
  8
0
  6
CONTINUOUS
 10
6.685360
 20
3.546840
  0
VERTEX
  8
0
  6
CONTINUOUS
 10
6.651920
 20
3.578960
  0
VERTEX
  8
0
  6
CONTINUOUS
 10
6.636520
 20
3.597440
  0
VERTEX
  8
0
  6
CONTINUOUS
 10
6.622880
 20
3.617240
  0
VERTEX
  8
0
  6
CONTINUOUS
 10
6.605280
 20
3.649360
  0
VERTEX
  8
0
  6
CONTINUOUS
 10
6.592520
 20
3.684120
  0
VERTEX
  8
0
  6
CONTINUOUS
 10
6.585480
 20
3.721520
  0
VERTEX
  8
0
  6
CONTINUOUS
 10
6.584600
 20
3.734280
  0
VERTEX
  8
0
  6
CONTINUOUS
 10
6.511120
 20
3.734280
  0
VERTEX
  8
0
  6
CONTINUOUS
 10
6.492200
 20
3.778280
  0
VERTEX
  8
0
  6
CONTINUOUS
 10
6.469760
 20
3.815680
  0
VERTEX
  8
0
  6
CONTINUOUS
 10
6.445560
 20
3.846920
  0
VERTEX
  8
0
  6
CONTINUOUS
 10
6.418720
 20
3.871120
  0
VERTEX
  8
0
  6
CONTINUOUS
 10
6.405080
 20
3.881240
  0
VERTEX
  8
0
  6
CONTINUOUS
 10
6.376040
 20
3.896640
  0
VERTEX
  8
0
  6
CONTINUOUS
 10
6.346560
 20
3.905880
  0
VERTEX
  8
0
  6
CONTINUOUS
 10
6.316640
 20
3.909840
  0
VERTEX
  8
0
  6
CONTINUOUS
 10
6.287160
 20
3.908080
  0
VERTEX
  8
0
  6
CONTINUOUS
 10
6.257680
 20
3.901040
  0
VERTEX
  8
0
  6
CONTINUOUS
 10
6.229520
 20
3.888280
  0
VERTEX
  8
0
  6
CONTINUOUS
 10
6.203120
 20
3.871120
  0
VERTEX
  8
0
  6
CONTINUOUS
 10
6.178480
 20
3.848680
  0
VERTEX
  8
0
  6
CONTINUOUS
 10
6.156040
 20
3.821840
  0
VERTEX
  8
0
  6
CONTINUOUS
 10
6.137120
 20
3.790600
  0
VERTEX
  8
0
  6
CONTINUOUS
 10
6.121280
 20
3.754520
  0
VERTEX
  8
0
  6
CONTINUOUS
 10
6.114680
 20
3.735160
  0
VERTEX
  8
0
  6
CONTINUOUS
 10
6.022280
 20
3.735160
  0
VERTEX
  8
0
  6
CONTINUOUS
 10
6.018760
 20
3.718000
  0
VERTEX
  8
0
  6
CONTINUOUS
 10
6.013920
 20
3.702160
  0
VERTEX
  8
0
  6
CONTINUOUS
 10
6.000280
 20
3.674000
  0
VERTEX
  8
0
  6
CONTINUOUS
 10
5.991480
 20
3.662120
  0
VERTEX
  8
0
  6
CONTINUOUS
 10
5.970360
 20
3.642320
  0
VERTEX
  8
0
  6
CONTINUOUS
 10
5.945720
 20
3.627800
  0
VERTEX
  8
0
  6
CONTINUOUS
 10
5.918440
 20
3.619000
  0
VERTEX
  8
0
  6
CONTINUOUS
 10
5.904360
 20
3.616360
  0
VERTEX
  8
0
  6
CONTINUOUS
 10
5.874440
 20
3.615920
  0
VERTEX
  8
0
  6
CONTINUOUS
 10
5.844080
 20
3.620760
  0
VERTEX
  8
0
  6
CONTINUOUS
 10
5.814160
 20
3.631320
  0
VERTEX
  8
0
  6
CONTINUOUS
 10
5.785120
 20
3.647600
  0
VERTEX
  8
0
  6
CONTINUOUS
 10
5.758280
 20
3.669600
  0
VERTEX
  8
0
  6
CONTINUOUS
 10
5.734520
 20
3.697760
  0
VERTEX
  8
0
  6
CONTINUOUS
 10
5.723520
 20
3.714040
  0
VERTEX
  8
0
  6
CONTINUOUS
 10
5.705480
 20
3.751000
  0
VERTEX
  8
0
  6
CONTINUOUS
 10
5.698440
 20
3.771680
  0
VERTEX
  8
0
  6
CONTINUOUS
 10
5.692720
 20
3.793680
  0
VERTEX
  8
0
  6
CONTINUOUS
 10
5.688320
 20
3.817440
  0
VERTEX
  8
0
  6
CONTINUOUS
 10
5.685240
 20
3.842520
  0
VERTEX
  8
0
  6
CONTINUOUS
 10
5.684360
 20
3.869360
  0
VERTEX
  8
0
  6
CONTINUOUS
 10
5.565120
 20
3.869360
  0
VERTEX
  8
0
  6
CONTINUOUS
 10
5.563800
 20
3.895320
  0
VERTEX
  8
0
  6
CONTINUOUS
 10
5.557200
 20
3.932280
  0
VERTEX
  8
0
  6
CONTINUOUS
 10
5.545320
 20
3.967480
  0
VERTEX
  8
0
  6
CONTINUOUS
 10
5.534760
 20
3.989480
  0
VERTEX
  8
0
  6
CONTINUOUS
 10
5.522000
 20
4.010160
  0
VERTEX
  8
0
  6
CONTINUOUS
 10
5.491640
 20
4.047560
  0
VERTEX
  8
0
  6
CONTINUOUS
 10
5.473600
 20
4.063840
  0
VERTEX
  8
0
  6
CONTINUOUS
 10
5.454240
 20
4.078360
  0
VERTEX
  8
0
  6
CONTINUOUS
 10
5.433560
 20
4.091120
  0
VERTEX
  8
0
  6
CONTINUOUS
 10
5.400120
 20
4.106080
  0
VERTEX
  8
0
  6
CONTINUOUS
 10
5.364040
 20
4.116200
  0
VERTEX
  8
0
  6
CONTINUOUS
 10
5.338960
 20
4.120160
  0
VERTEX
  8
0
  6
CONTINUOUS
 10
5.313440
 20
4.121480
  0
VERTEX
  8
0
  6
CONTINUOUS
 10
5.287480
 20
4.120160
  0
VERTEX
  8
0
  6
CONTINUOUS
 10
5.250520
 20
4.113560
  0
VERTEX
  8
0
  6
CONTINUOUS
 10
5.215320
 20
4.101680
  0
VERTEX
  8
0
  6
CONTINUOUS
 10
5.193320
 20
4.091120
  0
VERTEX
  8
0
  6
CONTINUOUS
 10
5.172200
 20
4.078360
  0
VERTEX
  8
0
  6
CONTINUOUS
 10
5.152840
 20
4.063840
  0
VERTEX
  8
0
  6
CONTINUOUS
 10
5.135240
 20
4.047560
  0
VERTEX
  8
0
  6
CONTINUOUS
 10
5.118960
 20
4.029520
  0
VERTEX
  8
0
  6
CONTINUOUS
 10
5.104440
 20
4.010160
  0
VERTEX
  8
0
  6
CONTINUOUS
 10
5.091680
 20
3.989480
  0
VERTEX
  8
0
  6
CONTINUOUS
 10
5.076720
 20
3.956040
  0
VERTEX
  8
0
  6
CONTINUOUS
 10
5.066600
 20
3.919960
  0
VERTEX
  8
0
  6
CONTINUOUS
 10
5.062640
 20
3.895320
  0
VERTEX
  8
0
  6
CONTINUOUS
 10
5.061320
 20
3.868920
  0
SEQEND
  8
0
  0
SOLID
  8
0
 62
    15
 10
5.497360
 20
2.053480
 11
6.153400
 21
2.431000
 12
5.480200
 22
2.030600
 13
6.136240
 23
2.408120
  0
POLYLINE
  8
0
  6
CONTINUOUS
 66
     1
 40
0.000000
 41
0.000000
  0
VERTEX
  8
0
  6
CONTINUOUS
 10
5.497360
 20
2.053480
  0
VERTEX
  8
0
  6
CONTINUOUS
 10
6.153400
 20
2.431000
  0
VERTEX
  8
0
  6
CONTINUOUS
 10
6.136240
 20
2.408120
  0
VERTEX
  8
0
  6
CONTINUOUS
 10
5.480200
 20
2.030600
  0
VERTEX
  8
0
  6
CONTINUOUS
 10
5.497360
 20
2.053480
  0
SEQEND
  8
0
  0
SOLID
  8
0
 62
    15
 10
5.158560
 20
2.873200
 11
5.814600
 21
3.250720
 12
5.340280
 22
2.873200
 13
5.996320
 23
3.250720
  0
POLYLINE
  8
0
  6
CONTINUOUS
 66
     1
 40
0.000000
 41
0.000000
  0
VERTEX
  8
0
  6
CONTINUOUS
 10
5.158560
 20
2.873200
  0
VERTEX
  8
0
  6
CONTINUOUS
 10
5.814600
 20
3.250720
  0
VERTEX
  8
0
  6
CONTINUOUS
 10
5.996320
 20
3.250720
  0
VERTEX
  8
0
  6
CONTINUOUS
 10
5.340280
 20
2.873200
  0
VERTEX
  8
0
  6
CONTINUOUS
 10
5.158560
 20
2.873200
  0
SEQEND
  8
0
  0
SOLID
  8
0
 62
    15
 10
5.340280
 20
2.873200
 11
5.996320
 21
3.250720
 12
5.344680
 22
2.843720
 13
6.000720
 23
3.221240
  0
POLYLINE
  8
0
  6
CONTINUOUS
 66
     1
 40
0.000000
 41
0.000000
  0
VERTEX
  8
0
  6
CONTINUOUS
 10
5.340280
 20
2.873200
  0
VERTEX
  8
0
  6
CONTINUOUS
 10
5.996320
 20
3.250720
  0
VERTEX
  8
0
  6
CONTINUOUS
 10
6.000720
 20
3.221240
  0
VERTEX
  8
0
  6
CONTINUOUS
 10
5.344680
 20
2.843720
  0
VERTEX
  8
0
  6
CONTINUOUS
 10
5.340280
 20
2.873200
  0
SEQEND
  8
0
  0
SOLID
  8
0
 62
    15
 10
5.344680
 20
2.843720
 11
6.000720
 21
3.221240
 12
5.358320
 22
2.810280
 13
6.014360
 23
3.187800
  0
POLYLINE
  8
0
  6
CONTINUOUS
 66
     1
 40
0.000000
 41
0.000000
  0
VERTEX
  8
0
  6
CONTINUOUS
 10
5.344680
 20
2.843720
  0
VERTEX
  8
0
  6
CONTINUOUS
 10
6.000720
 20
3.221240
  0
VERTEX
  8
0
  6
CONTINUOUS
 10
6.014360
 20
3.187800
  0
VERTEX
  8
0
  6
CONTINUOUS
 10
5.358320
 20
2.810280
  0
VERTEX
  8
0
  6
CONTINUOUS
 10
5.344680
 20
2.843720
  0
SEQEND
  8
0
  0
SOLID
  8
0
 62
    15
 10
5.358320
 20
2.810280
 11
6.014360
 21
3.187800
 12
5.379440
 22
2.774640
 13
6.035480
 23
3.152160
  0
POLYLINE
  8
0
  6
CONTINUOUS
 66
     1
 40
0.000000
 41
0.000000
  0
VERTEX
  8
0
  6
CONTINUOUS
 10
5.358320
 20
2.810280
  0
VERTEX
  8
0
  6
CONTINUOUS
 10
6.014360
 20
3.187800
  0
VERTEX
  8
0
  6
CONTINUOUS
 10
6.035480
 20
3.152160
  0
VERTEX
  8
0
  6
CONTINUOUS
 10
5.379440
 20
2.774640
  0
VERTEX
  8
0
  6
CONTINUOUS
 10
5.358320
 20
2.810280
  0
SEQEND
  8
0
  0
SOLID
  8
0
 62
    15
 10
5.379440
 20
2.774640
 11
6.035480
 21
3.152160
 12
5.408040
 22
2.739880
 13
6.064080
 23
3.117400
  0
POLYLINE
  8
0
  6
CONTINUOUS
 66
     1
 40
0.000000
 41
0.000000
  0
VERTEX
  8
0
  6
CONTINUOUS
 10
5.379440
 20
2.774640
  0
VERTEX
  8
0
  6
CONTINUOUS
 10
6.035480
 20
3.152160
  0
VERTEX
  8
0
  6
CONTINUOUS
 10
6.064080
 20
3.117400
  0
VERTEX
  8
0
  6
CONTINUOUS
 10
5.408040
 20
2.739880
  0
VERTEX
  8
0
  6
CONTINUOUS
 10
5.379440
 20
2.774640
  0
SEQEND
  8
0
  0
SOLID
  8
0
 62
    15
 10
5.408040
 20
2.739880
 11
6.064080
 21
3.117400
 12
5.443240
 22
2.708200
 13
6.099280
 23
3.085720
  0
POLYLINE
  8
0
  6
CONTINUOUS
 66
     1
 40
0.000000
 41
0.000000
  0
VERTEX
  8
0
  6
CONTINUOUS
 10
5.408040
 20
2.739880
  0
VERTEX
  8
0
  6
CONTINUOUS
 10
6.064080
 20
3.117400
  0
VERTEX
  8
0
  6
CONTINUOUS
 10
6.099280
 20
3.085720
  0
VERTEX
  8
0
  6
CONTINUOUS
 10
5.443240
 20
2.708200
  0
VERTEX
  8
0
  6
CONTINUOUS
 10
5.408040
 20
2.739880
  0
SEQEND
  8
0
  0
SOLID
  8
0
 62
    15
 10
5.443240
 20
2.708200
 11
6.099280
 21
3.085720
 12
5.484160
 22
2.682240
 13
6.140200
 23
3.059760
  0
POLYLINE
  8
0
  6
CONTINUOUS
 66
     1
 40
0.000000
 41
0.000000
  0
VERTEX
  8
0
  6
CONTINUOUS
 10
5.443240
 20
2.708200
  0
VERTEX
  8
0
  6
CONTINUOUS
 10
6.099280
 20
3.085720
  0
VERTEX
  8
0
  6
CONTINUOUS
 10
6.140200
 20
3.059760
  0
VERTEX
  8
0
  6
CONTINUOUS
 10
5.484160
 20
2.682240
  0
VERTEX
  8
0
  6
CONTINUOUS
 10
5.443240
 20
2.708200
  0
SEQEND
  8
0
  0
SOLID
  8
0
 62
    15
 10
5.484160
 20
2.682240
 11
6.140200
 21
3.059760
 12
5.530360
 22
2.664200
 13
6.186400
 23
3.041720
  0
POLYLINE
  8
0
  6
CONTINUOUS
 66
     1
 40
0.000000
 41
0.000000
  0
VERTEX
  8
0
  6
CONTINUOUS
 10
5.484160
 20
2.682240
  0
VERTEX
  8
0
  6
CONTINUOUS
 10
6.140200
 20
3.059760
  0
VERTEX
  8
0
  6
CONTINUOUS
 10
6.186400
 20
3.041720
  0
VERTEX
  8
0
  6
CONTINUOUS
 10
5.530360
 20
2.664200
  0
VERTEX
  8
0
  6
CONTINUOUS
 10
5.484160
 20
2.682240
  0
SEQEND
  8
0
  0
SOLID
  8
0
 62
    15
 10
5.530360
 20
2.664200
 11
6.186400
 21
3.041720
 12
5.580520
 22
2.656280
 13
6.236560
 23
3.033800
  0
POLYLINE
  8
0
  6
CONTINUOUS
 66
     1
 40
0.000000
 41
0.000000
  0
VERTEX
  8
0
  6
CONTINUOUS
 10
5.530360
 20
2.664200
  0
VERTEX
  8
0
  6
CONTINUOUS
 10
6.186400
 20
3.041720
  0
VERTEX
  8
0
  6
CONTINUOUS
 10
6.236560
 20
3.033800
  0
VERTEX
  8
0
  6
CONTINUOUS
 10
5.580520
 20
2.656280
  0
VERTEX
  8
0
  6
CONTINUOUS
 10
5.530360
 20
2.664200
  0
SEQEND
  8
0
  0
SOLID
  8
0
 62
    15
 10
5.580520
 20
2.656280
 11
6.236560
 21
3.033800
 12
5.580520
 22
2.582800
 13
6.236560
 23
2.960760
  0
POLYLINE
  8
0
  6
CONTINUOUS
 66
     1
 40
0.000000
 41
0.000000
  0
VERTEX
  8
0
  6
CONTINUOUS
 10
5.580520
 20
2.656280
  0
VERTEX
  8
0
  6
CONTINUOUS
 10
6.236560
 20
3.033800
  0
VERTEX
  8
0
  6
CONTINUOUS
 10
6.236560
 20
2.960760
  0
VERTEX
  8
0
  6
CONTINUOUS
 10
5.580520
 20
2.582800
  0
VERTEX
  8
0
  6
CONTINUOUS
 10
5.580520
 20
2.656280
  0
SEQEND
  8
0
  0
SOLID
  8
0
 62
    15
 10
5.580520
 20
2.582800
 11
6.236560
 21
2.960760
 12
5.624520
 22
2.563880
 13
6.280560
 23
2.941400
  0
POLYLINE
  8
0
  6
CONTINUOUS
 66
     1
 40
0.000000
 41
0.000000
  0
VERTEX
  8
0
  6
CONTINUOUS
 10
5.580520
 20
2.582800
  0
VERTEX
  8
0
  6
CONTINUOUS
 10
6.236560
 20
2.960760
  0
VERTEX
  8
0
  6
CONTINUOUS
 10
6.280560
 20
2.941400
  0
VERTEX
  8
0
  6
CONTINUOUS
 10
5.624520
 20
2.563880
  0
VERTEX
  8
0
  6
CONTINUOUS
 10
5.580520
 20
2.582800
  0
SEQEND
  8
0
  0
SOLID
  8
0
 62
    15
 10
5.624520
 20
2.563880
 11
6.280560
 21
2.941400
 12
5.661920
 22
2.541880
 13
6.317960
 23
2.919400
  0
POLYLINE
  8
0
  6
CONTINUOUS
 66
     1
 40
0.000000
 41
0.000000
  0
VERTEX
  8
0
  6
CONTINUOUS
 10
5.624520
 20
2.563880
  0
VERTEX
  8
0
  6
CONTINUOUS
 10
6.280560
 20
2.941400
  0
VERTEX
  8
0
  6
CONTINUOUS
 10
6.317960
 20
2.919400
  0
VERTEX
  8
0
  6
CONTINUOUS
 10
5.661920
 20
2.541880
  0
VERTEX
  8
0
  6
CONTINUOUS
 10
5.624520
 20
2.563880
  0
SEQEND
  8
0
  0
SOLID
  8
0
 62
    15
 10
5.661920
 20
2.541880
 11
6.317960
 21
2.919400
 12
5.692720
 22
2.517240
 13
6.348760
 23
2.894760
  0
POLYLINE
  8
0
  6
CONTINUOUS
 66
     1
 40
0.000000
 41
0.000000
  0
VERTEX
  8
0
  6
CONTINUOUS
 10
5.661920
 20
2.541880
  0
VERTEX
  8
0
  6
CONTINUOUS
 10
6.317960
 20
2.919400
  0
VERTEX
  8
0
  6
CONTINUOUS
 10
6.348760
 20
2.894760
  0
VERTEX
  8
0
  6
CONTINUOUS
 10
5.692720
 20
2.517240
  0
VERTEX
  8
0
  6
CONTINUOUS
 10
5.661920
 20
2.541880
  0
SEQEND
  8
0
  0
SOLID
  8
0
 62
    15
 10
5.692720
 20
2.517240
 11
6.348760
 21
2.894760
 12
5.717360
 22
2.490840
 13
6.373400
 23
2.868360
  0
POLYLINE
  8
0
  6
CONTINUOUS
 66
     1
 40
0.000000
 41
0.000000
  0
VERTEX
  8
0
  6
CONTINUOUS
 10
5.692720
 20
2.517240
  0
VERTEX
  8
0
  6
CONTINUOUS
 10
6.348760
 20
2.894760
  0
VERTEX
  8
0
  6
CONTINUOUS
 10
6.373400
 20
2.868360
  0
VERTEX
  8
0
  6
CONTINUOUS
 10
5.717360
 20
2.490840
  0
VERTEX
  8
0
  6
CONTINUOUS
 10
5.692720
 20
2.517240
  0
SEQEND
  8
0
  0
SOLID
  8
0
 62
    15
 10
5.717360
 20
2.490840
 11
6.373400
 21
2.868360
 12
5.735840
 22
2.462680
 13
6.391880
 23
2.840200
  0
POLYLINE
  8
0
  6
CONTINUOUS
 66
     1
 40
0.000000
 41
0.000000
  0
VERTEX
  8
0
  6
CONTINUOUS
 10
5.717360
 20
2.490840
  0
VERTEX
  8
0
  6
CONTINUOUS
 10
6.373400
 20
2.868360
  0
VERTEX
  8
0
  6
CONTINUOUS
 10
6.391880
 20
2.840200
  0
VERTEX
  8
0
  6
CONTINUOUS
 10
5.735840
 20
2.462680
  0
VERTEX
  8
0
  6
CONTINUOUS
 10
5.717360
 20
2.490840
  0
SEQEND
  8
0
  0
SOLID
  8
0
 62
    15
 10
5.735840
 20
2.462680
 11
6.391880
 21
2.840200
 12
5.748160
 22
2.433200
 13
6.404200
 23
2.810720
  0
POLYLINE
  8
0
  6
CONTINUOUS
 66
     1
 40
0.000000
 41
0.000000
  0
VERTEX
  8
0
  6
CONTINUOUS
 10
5.735840
 20
2.462680
  0
VERTEX
  8
0
  6
CONTINUOUS
 10
6.391880
 20
2.840200
  0
VERTEX
  8
0
  6
CONTINUOUS
 10
6.404200
 20
2.810720
  0
VERTEX
  8
0
  6
CONTINUOUS
 10
5.748160
 20
2.433200
  0
VERTEX
  8
0
  6
CONTINUOUS
 10
5.735840
 20
2.462680
  0
SEQEND
  8
0
  0
SOLID
  8
0
 62
    15
 10
5.748160
 20
2.433200
 11
6.404200
 21
2.810720
 12
5.754760
 22
2.403720
 13
6.410800
 23
2.781240
  0
POLYLINE
  8
0
  6
CONTINUOUS
 66
     1
 40
0.000000
 41
0.000000
  0
VERTEX
  8
0
  6
CONTINUOUS
 10
5.748160
 20
2.433200
  0
VERTEX
  8
0
  6
CONTINUOUS
 10
6.404200
 20
2.810720
  0
VERTEX
  8
0
  6
CONTINUOUS
 10
6.410800
 20
2.781240
  0
VERTEX
  8
0
  6
CONTINUOUS
 10
5.754760
 20
2.403720
  0
VERTEX
  8
0
  6
CONTINUOUS
 10
5.748160
 20
2.433200
  0
SEQEND
  8
0
  0
SOLID
  8
0
 62
    15
 10
5.754760
 20
2.403720
 11
6.410800
 21
2.781240
 12
5.755640
 22
2.373800
 13
6.411680
 23
2.751320
  0
POLYLINE
  8
0
  6
CONTINUOUS
 66
     1
 40
0.000000
 41
0.000000
  0
VERTEX
  8
0
  6
CONTINUOUS
 10
5.754760
 20
2.403720
  0
VERTEX
  8
0
  6
CONTINUOUS
 10
6.410800
 20
2.781240
  0
VERTEX
  8
0
  6
CONTINUOUS
 10
6.411680
 20
2.751320
  0
VERTEX
  8
0
  6
CONTINUOUS
 10
5.755640
 20
2.373800
  0
VERTEX
  8
0
  6
CONTINUOUS
 10
5.754760
 20
2.403720
  0
SEQEND
  8
0
  0
SOLID
  8
0
 62
    15
 10
5.755640
 20
2.373800
 11
6.411680
 21
2.751320
 12
5.751240
 22
2.344320
 13
6.407280
 23
2.721840
  0
POLYLINE
  8
0
  6
CONTINUOUS
 66
     1
 40
0.000000
 41
0.000000
  0
VERTEX
  8
0
  6
CONTINUOUS
 10
5.755640
 20
2.373800
  0
VERTEX
  8
0
  6
CONTINUOUS
 10
6.411680
 20
2.751320
  0
VERTEX
  8
0
  6
CONTINUOUS
 10
6.407280
 20
2.721840
  0
VERTEX
  8
0
  6
CONTINUOUS
 10
5.751240
 20
2.344320
  0
VERTEX
  8
0
  6
CONTINUOUS
 10
5.755640
 20
2.373800
  0
SEQEND
  8
0
  0
SOLID
  8
0
 62
    15
 10
5.751240
 20
2.344320
 11
6.407280
 21
2.721840
 12
5.741120
 22
2.315280
 13
6.397160
 23
2.692800
  0
POLYLINE
  8
0
  6
CONTINUOUS
 66
     1
 40
0.000000
 41
0.000000
  0
VERTEX
  8
0
  6
CONTINUOUS
 10
5.751240
 20
2.344320
  0
VERTEX
  8
0
  6
CONTINUOUS
 10
6.407280
 20
2.721840
  0
VERTEX
  8
0
  6
CONTINUOUS
 10
6.397160
 20
2.692800
  0
VERTEX
  8
0
  6
CONTINUOUS
 10
5.741120
 20
2.315280
  0
VERTEX
  8
0
  6
CONTINUOUS
 10
5.751240
 20
2.344320
  0
SEQEND
  8
0
  0
SOLID
  8
0
 62
    15
 10
5.741120
 20
2.315280
 11
6.397160
 21
2.692800
 12
5.726160
 22
2.288000
 13
6.382200
 23
2.665520
  0
POLYLINE
  8
0
  6
CONTINUOUS
 66
     1
 40
0.000000
 41
0.000000
  0
VERTEX
  8
0
  6
CONTINUOUS
 10
5.741120
 20
2.315280
  0
VERTEX
  8
0
  6
CONTINUOUS
 10
6.397160
 20
2.692800
  0
VERTEX
  8
0
  6
CONTINUOUS
 10
6.382200
 20
2.665520
  0
VERTEX
  8
0
  6
CONTINUOUS
 10
5.726160
 20
2.288000
  0
VERTEX
  8
0
  6
CONTINUOUS
 10
5.741120
 20
2.315280
  0
SEQEND
  8
0
  0
SOLID
  8
0
 62
    15
 10
5.726160
 20
2.288000
 11
6.382200
 21
2.665520
 12
5.706360
 22
2.262480
 13
6.362400
 23
2.640000
  0
POLYLINE
  8
0
  6
CONTINUOUS
 66
     1
 40
0.000000
 41
0.000000
  0
VERTEX
  8
0
  6
CONTINUOUS
 10
5.726160
 20
2.288000
  0
VERTEX
  8
0
  6
CONTINUOUS
 10
6.382200
 20
2.665520
  0
VERTEX
  8
0
  6
CONTINUOUS
 10
6.362400
 20
2.640000
  0
VERTEX
  8
0
  6
CONTINUOUS
 10
5.706360
 20
2.262480
  0
VERTEX
  8
0
  6
CONTINUOUS
 10
5.726160
 20
2.288000
  0
SEQEND
  8
0
  0
SOLID
  8
0
 62
    15
 10
5.519800
 20
2.071960
 11
6.175840
 21
2.449920
 12
5.497360
 22
2.053480
 13
6.153400
 23
2.431000
  0
POLYLINE
  8
0
  6
CONTINUOUS
 66
     1
 40
0.000000
 41
0.000000
  0
VERTEX
  8
0
  6
CONTINUOUS
 10
5.519800
 20
2.071960
  0
VERTEX
  8
0
  6
CONTINUOUS
 10
6.175840
 20
2.449920
  0
VERTEX
  8
0
  6
CONTINUOUS
 10
6.153400
 20
2.431000
  0
VERTEX
  8
0
  6
CONTINUOUS
 10
5.497360
 20
2.053480
  0
VERTEX
  8
0
  6
CONTINUOUS
 10
5.519800
 20
2.071960
  0
SEQEND
  8
0
  0
SOLID
  8
0
 62
    15
 10
5.580960
 20
2.186360
 11
6.237000
 21
2.563880
 12
5.580960
 22
2.094400
 13
6.237000
 23
2.471920
  0
POLYLINE
  8
0
  6
CONTINUOUS
 66
     1
 40
0.000000
 41
0.000000
  0
VERTEX
  8
0
  6
CONTINUOUS
 10
5.580960
 20
2.186360
  0
VERTEX
  8
0
  6
CONTINUOUS
 10
6.237000
 20
2.563880
  0
VERTEX
  8
0
  6
CONTINUOUS
 10
6.237000
 20
2.471920
  0
VERTEX
  8
0
  6
CONTINUOUS
 10
5.580960
 20
2.094400
  0
VERTEX
  8
0
  6
CONTINUOUS
 10
5.580960
 20
2.186360
  0
SEQEND
  8
0
  0
SOLID
  8
0
 62
    15
 10
5.706360
 20
2.262480
 11
6.362400
 21
2.640000
 12
5.681720
 22
2.238720
 13
6.337760
 23
2.616240
  0
POLYLINE
  8
0
  6
CONTINUOUS
 66
     1
 40
0.000000
 41
0.000000
  0
VERTEX
  8
0
  6
CONTINUOUS
 10
5.706360
 20
2.262480
  0
VERTEX
  8
0
  6
CONTINUOUS
 10
6.362400
 20
2.640000
  0
VERTEX
  8
0
  6
CONTINUOUS
 10
6.337760
 20
2.616240
  0
VERTEX
  8
0
  6
CONTINUOUS
 10
5.681720
 20
2.238720
  0
VERTEX
  8
0
  6
CONTINUOUS
 10
5.706360
 20
2.262480
  0
SEQEND
  8
0
  0
SOLID
  8
0
 62
    15
 10
5.681720
 20
2.238720
 11
6.337760
 21
2.616240
 12
5.652680
 22
2.218040
 13
6.308720
 23
2.595560
  0
POLYLINE
  8
0
  6
CONTINUOUS
 66
     1
 40
0.000000
 41
0.000000
  0
VERTEX
  8
0
  6
CONTINUOUS
 10
5.681720
 20
2.238720
  0
VERTEX
  8
0
  6
CONTINUOUS
 10
6.337760
 20
2.616240
  0
VERTEX
  8
0
  6
CONTINUOUS
 10
6.308720
 20
2.595560
  0
VERTEX
  8
0
  6
CONTINUOUS
 10
5.652680
 20
2.218040
  0
VERTEX
  8
0
  6
CONTINUOUS
 10
5.681720
 20
2.238720
  0
SEQEND
  8
0
  0
SOLID
  8
0
 62
    15
 10
5.714720
 20
1.133000
 11
6.370760
 21
1.510520
 12
5.714720
 22
1.056000
 13
6.370760
 23
1.433520
  0
POLYLINE
  8
0
  6
CONTINUOUS
 66
     1
 40
0.000000
 41
0.000000
  0
VERTEX
  8
0
  6
CONTINUOUS
 10
5.714720
 20
1.133000
  0
VERTEX
  8
0
  6
CONTINUOUS
 10
6.370760
 20
1.510520
  0
VERTEX
  8
0
  6
CONTINUOUS
 10
6.370760
 20
1.433520
  0
VERTEX
  8
0
  6
CONTINUOUS
 10
5.714720
 20
1.056000
  0
VERTEX
  8
0
  6
CONTINUOUS
 10
5.714720
 20
1.133000
  0
SEQEND
  8
0
  0
SOLID
  8
0
 62
    15
 10
5.480200
 20
2.030600
 11
6.136240
 21
2.408120
 12
5.468760
 22
2.004640
 13
6.124800
 23
2.382160
  0
POLYLINE
  8
0
  6
CONTINUOUS
 66
     1
 40
0.000000
 41
0.000000
  0
VERTEX
  8
0
  6
CONTINUOUS
 10
5.480200
 20
2.030600
  0
VERTEX
  8
0
  6
CONTINUOUS
 10
6.136240
 20
2.408120
  0
VERTEX
  8
0
  6
CONTINUOUS
 10
6.124800
 20
2.382160
  0
VERTEX
  8
0
  6
CONTINUOUS
 10
5.468760
 20
2.004640
  0
VERTEX
  8
0
  6
CONTINUOUS
 10
5.480200
 20
2.030600
  0
SEQEND
  8
0
  0
SOLID
  8
0
 62
    15
 10
5.468760
 20
2.004640
 11
6.124800
 21
2.382160
 12
5.462160
 22
1.976040
 13
6.118200
 23
2.353560
  0
POLYLINE
  8
0
  6
CONTINUOUS
 66
     1
 40
0.000000
 41
0.000000
  0
VERTEX
  8
0
  6
CONTINUOUS
 10
5.468760
 20
2.004640
  0
VERTEX
  8
0
  6
CONTINUOUS
 10
6.124800
 20
2.382160
  0
VERTEX
  8
0
  6
CONTINUOUS
 10
6.118200
 20
2.353560
  0
VERTEX
  8
0
  6
CONTINUOUS
 10
5.462160
 20
1.976040
  0
VERTEX
  8
0
  6
CONTINUOUS
 10
5.468760
 20
2.004640
  0
SEQEND
  8
0
  0
SOLID
  8
0
 62
    15
 10
5.462160
 20
1.976040
 11
6.118200
 21
2.353560
 12
5.461720
 22
1.946560
 13
6.117760
 23
2.324080
  0
POLYLINE
  8
0
  6
CONTINUOUS
 66
     1
 40
0.000000
 41
0.000000
  0
VERTEX
  8
0
  6
CONTINUOUS
 10
5.462160
 20
1.976040
  0
VERTEX
  8
0
  6
CONTINUOUS
 10
6.118200
 20
2.353560
  0
VERTEX
  8
0
  6
CONTINUOUS
 10
6.117760
 20
2.324080
  0
VERTEX
  8
0
  6
CONTINUOUS
 10
5.461720
 20
1.946560
  0
VERTEX
  8
0
  6
CONTINUOUS
 10
5.462160
 20
1.976040
  0
SEQEND
  8
0
  0
SOLID
  8
0
 62
    15
 10
5.461720
 20
1.946560
 11
6.117760
 21
2.324080
 12
5.466560
 22
1.916200
 13
6.122600
 23
2.293720
  0
POLYLINE
  8
0
  6
CONTINUOUS
 66
     1
 40
0.000000
 41
0.000000
  0
VERTEX
  8
0
  6
CONTINUOUS
 10
5.461720
 20
1.946560
  0
VERTEX
  8
0
  6
CONTINUOUS
 10
6.117760
 20
2.324080
  0
VERTEX
  8
0
  6
CONTINUOUS
 10
6.122600
 20
2.293720
  0
VERTEX
  8
0
  6
CONTINUOUS
 10
5.466560
 20
1.916200
  0
VERTEX
  8
0
  6
CONTINUOUS
 10
5.461720
 20
1.946560
  0
SEQEND
  8
0
  0
SOLID
  8
0
 62
    15
 10
5.466560
 20
1.916200
 11
6.122600
 21
2.293720
 12
5.477120
 22
1.886280
 13
6.133160
 23
2.263800
  0
POLYLINE
  8
0
  6
CONTINUOUS
 66
     1
 40
0.000000
 41
0.000000
  0
VERTEX
  8
0
  6
CONTINUOUS
 10
5.466560
 20
1.916200
  0
VERTEX
  8
0
  6
CONTINUOUS
 10
6.122600
 20
2.293720
  0
VERTEX
  8
0
  6
CONTINUOUS
 10
6.133160
 20
2.263800
  0
VERTEX
  8
0
  6
CONTINUOUS
 10
5.477120
 20
1.886280
  0
VERTEX
  8
0
  6
CONTINUOUS
 10
5.466560
 20
1.916200
  0
SEQEND
  8
0
  0
SOLID
  8
0
 62
    15
 10
5.477120
 20
1.886280
 11
6.133160
 21
2.263800
 12
5.493840
 22
1.857240
 13
6.149880
 23
2.234760
  0
POLYLINE
  8
0
  6
CONTINUOUS
 66
     1
 40
0.000000
 41
0.000000
  0
VERTEX
  8
0
  6
CONTINUOUS
 10
5.477120
 20
1.886280
  0
VERTEX
  8
0
  6
CONTINUOUS
 10
6.133160
 20
2.263800
  0
VERTEX
  8
0
  6
CONTINUOUS
 10
6.149880
 20
2.234760
  0
VERTEX
  8
0
  6
CONTINUOUS
 10
5.493840
 20
1.857240
  0
VERTEX
  8
0
  6
CONTINUOUS
 10
5.477120
 20
1.886280
  0
SEQEND
  8
0
  0
SOLID
  8
0
 62
     7
 10
5.493840
 20
1.857240
 11
6.149880
 21
2.234760
 12
5.515840
 22
1.830400
 13
6.171880
 23
2.207920
  0
POLYLINE
  8
0
  6
CONTINUOUS
 66
     1
 40
0.000000
 41
0.000000
  0
VERTEX
  8
0
  6
CONTINUOUS
 10
5.493840
 20
1.857240
  0
VERTEX
  8
0
  6
CONTINUOUS
 10
6.149880
 20
2.234760
  0
VERTEX
  8
0
  6
CONTINUOUS
 10
6.171880
 20
2.207920
  0
VERTEX
  8
0
  6
CONTINUOUS
 10
5.515840
 20
1.830400
  0
VERTEX
  8
0
  6
CONTINUOUS
 10
5.493840
 20
1.857240
  0
SEQEND
  8
0
  0
SOLID
  8
0
 62
     7
 10
5.515840
 20
1.830400
 11
6.171880
 21
2.207920
 12
5.543560
 22
1.806200
 13
6.199600
 23
2.183720
  0
POLYLINE
  8
0
  6
CONTINUOUS
 66
     1
 40
0.000000
 41
0.000000
  0
VERTEX
  8
0
  6
CONTINUOUS
 10
5.515840
 20
1.830400
  0
VERTEX
  8
0
  6
CONTINUOUS
 10
6.171880
 20
2.207920
  0
VERTEX
  8
0
  6
CONTINUOUS
 10
6.199600
 20
2.183720
  0
VERTEX
  8
0
  6
CONTINUOUS
 10
5.543560
 20
1.806200
  0
VERTEX
  8
0
  6
CONTINUOUS
 10
5.515840
 20
1.830400
  0
SEQEND
  8
0
  0
SOLID
  8
0
 62
    15
 10
5.543560
 20
1.806200
 11
6.199600
 21
2.183720
 12
5.577440
 22
1.785960
 13
6.233920
 23
2.163480
  0
POLYLINE
  8
0
  6
CONTINUOUS
 66
     1
 40
0.000000
 41
0.000000
  0
VERTEX
  8
0
  6
CONTINUOUS
 10
5.543560
 20
1.806200
  0
VERTEX
  8
0
  6
CONTINUOUS
 10
6.199600
 20
2.183720
  0
VERTEX
  8
0
  6
CONTINUOUS
 10
6.233920
 20
2.163480
  0
VERTEX
  8
0
  6
CONTINUOUS
 10
5.577440
 20
1.785960
  0
VERTEX
  8
0
  6
CONTINUOUS
 10
5.543560
 20
1.806200
  0
SEQEND
  8
0
  0
SOLID
  8
0
 62
    15
 10
5.577440
 20
1.785960
 11
6.233920
 21
2.163480
 12
5.617480
 22
1.770560
 13
6.273520
 23
2.148080
  0
POLYLINE
  8
0
  6
CONTINUOUS
 66
     1
 40
0.000000
 41
0.000000
  0
VERTEX
  8
0
  6
CONTINUOUS
 10
5.577440
 20
1.785960
  0
VERTEX
  8
0
  6
CONTINUOUS
 10
6.233920
 20
2.163480
  0
VERTEX
  8
0
  6
CONTINUOUS
 10
6.273520
 20
2.148080
  0
VERTEX
  8
0
  6
CONTINUOUS
 10
5.617480
 20
1.770560
  0
VERTEX
  8
0
  6
CONTINUOUS
 10
5.577440
 20
1.785960
  0
SEQEND
  8
0
  0
SOLID
  8
0
 62
    15
 10
5.617480
 20
1.770560
 11
6.273520
 21
2.148080
 12
5.663240
 22
1.760440
 13
6.319280
 23
2.137960
  0
POLYLINE
  8
0
  6
CONTINUOUS
 66
     1
 40
0.000000
 41
0.000000
  0
VERTEX
  8
0
  6
CONTINUOUS
 10
5.617480
 20
1.770560
  0
VERTEX
  8
0
  6
CONTINUOUS
 10
6.273520
 20
2.148080
  0
VERTEX
  8
0
  6
CONTINUOUS
 10
6.319280
 20
2.137960
  0
VERTEX
  8
0
  6
CONTINUOUS
 10
5.663240
 20
1.760440
  0
VERTEX
  8
0
  6
CONTINUOUS
 10
5.617480
 20
1.770560
  0
SEQEND
  8
0
  0
SOLID
  8
0
 62
    15
 10
5.663240
 20
1.760440
 11
6.319280
 21
2.137960
 12
5.715160
 22
1.756480
 13
6.371200
 23
2.134000
  0
POLYLINE
  8
0
  6
CONTINUOUS
 66
     1
 40
0.000000
 41
0.000000
  0
VERTEX
  8
0
  6
CONTINUOUS
 10
5.663240
 20
1.760440
  0
VERTEX
  8
0
  6
CONTINUOUS
 10
6.319280
 20
2.137960
  0
VERTEX
  8
0
  6
CONTINUOUS
 10
6.371200
 20
2.134000
  0
VERTEX
  8
0
  6
CONTINUOUS
 10
5.715160
 20
1.756480
  0
VERTEX
  8
0
  6
CONTINUOUS
 10
5.663240
 20
1.760440
  0
SEQEND
  8
0
  0
SOLID
  8
0
 62
    15
 10
5.715160
 20
1.756480
 11
6.371200
 21
2.134000
 12
5.715160
 22
1.637240
 13
6.371200
 23
2.014760
  0
POLYLINE
  8
0
  6
CONTINUOUS
 66
     1
 40
0.000000
 41
0.000000
  0
VERTEX
  8
0
  6
CONTINUOUS
 10
5.715160
 20
1.756480
  0
VERTEX
  8
0
  6
CONTINUOUS
 10
6.371200
 20
2.134000
  0
VERTEX
  8
0
  6
CONTINUOUS
 10
6.371200
 20
2.014760
  0
VERTEX
  8
0
  6
CONTINUOUS
 10
5.715160
 20
1.637240
  0
VERTEX
  8
0
  6
CONTINUOUS
 10
5.715160
 20
1.756480
  0
SEQEND
  8
0
  0
SOLID
  8
0
 62
    15
 10
5.715160
 20
1.637240
 11
6.371200
 21
2.014760
 12
5.766200
 22
1.631960
 13
6.422240
 23
2.009480
  0
POLYLINE
  8
0
  6
CONTINUOUS
 66
     1
 40
0.000000
 41
0.000000
  0
VERTEX
  8
0
  6
CONTINUOUS
 10
5.715160
 20
1.637240
  0
VERTEX
  8
0
  6
CONTINUOUS
 10
6.371200
 20
2.014760
  0
VERTEX
  8
0
  6
CONTINUOUS
 10
6.422240
 20
2.009480
  0
VERTEX
  8
0
  6
CONTINUOUS
 10
5.766200
 20
1.631960
  0
VERTEX
  8
0
  6
CONTINUOUS
 10
5.715160
 20
1.637240
  0
SEQEND
  8
0
  0
SOLID
  8
0
 62
    15
 10
5.766200
 20
1.631960
 11
6.422240
 21
2.009480
 12
5.813280
 22
1.617440
 13
6.469320
 23
1.994960
  0
POLYLINE
  8
0
  6
CONTINUOUS
 66
     1
 40
0.000000
 41
0.000000
  0
VERTEX
  8
0
  6
CONTINUOUS
 10
5.766200
 20
1.631960
  0
VERTEX
  8
0
  6
CONTINUOUS
 10
6.422240
 20
2.009480
  0
VERTEX
  8
0
  6
CONTINUOUS
 10
6.469320
 20
1.994960
  0
VERTEX
  8
0
  6
CONTINUOUS
 10
5.813280
 20
1.617440
  0
VERTEX
  8
0
  6
CONTINUOUS
 10
5.766200
 20
1.631960
  0
SEQEND
  8
0
  0
SOLID
  8
0
 62
    15
 10
5.813280
 20
1.617440
 11
6.469320
 21
1.994960
 12
5.855960
 22
1.594120
 13
6.512000
 23
1.971640
  0
POLYLINE
  8
0
  6
CONTINUOUS
 66
     1
 40
0.000000
 41
0.000000
  0
VERTEX
  8
0
  6
CONTINUOUS
 10
5.813280
 20
1.617440
  0
VERTEX
  8
0
  6
CONTINUOUS
 10
6.469320
 20
1.994960
  0
VERTEX
  8
0
  6
CONTINUOUS
 10
6.512000
 20
1.971640
  0
VERTEX
  8
0
  6
CONTINUOUS
 10
5.855960
 20
1.594120
  0
VERTEX
  8
0
  6
CONTINUOUS
 10
5.813280
 20
1.617440
  0
SEQEND
  8
0
  0
SOLID
  8
0
 62
     7
 10
5.855960
 20
1.594120
 11
6.512000
 21
1.971640
 12
5.893360
 22
1.563320
 13
6.549400
 23
1.940840
  0
POLYLINE
  8
0
  6
CONTINUOUS
 66
     1
 40
0.000000
 41
0.000000
  0
VERTEX
  8
0
  6
CONTINUOUS
 10
5.855960
 20
1.594120
  0
VERTEX
  8
0
  6
CONTINUOUS
 10
6.512000
 20
1.971640
  0
VERTEX
  8
0
  6
CONTINUOUS
 10
6.549400
 20
1.940840
  0
VERTEX
  8
0
  6
CONTINUOUS
 10
5.893360
 20
1.563320
  0
VERTEX
  8
0
  6
CONTINUOUS
 10
5.855960
 20
1.594120
  0
SEQEND
  8
0
  0
SOLID
  8
0
 62
    15
 10
5.893360
 20
1.563320
 11
6.549400
 21
1.940840
 12
5.924160
 22
1.525920
 13
6.580200
 23
1.903440
  0
POLYLINE
  8
0
  6
CONTINUOUS
 66
     1
 40
0.000000
 41
0.000000
  0
VERTEX
  8
0
  6
CONTINUOUS
 10
5.893360
 20
1.563320
  0
VERTEX
  8
0
  6
CONTINUOUS
 10
6.549400
 20
1.940840
  0
VERTEX
  8
0
  6
CONTINUOUS
 10
6.580200
 20
1.903440
  0
VERTEX
  8
0
  6
CONTINUOUS
 10
5.924160
 20
1.525920
  0
VERTEX
  8
0
  6
CONTINUOUS
 10
5.893360
 20
1.563320
  0
SEQEND
  8
0
  0
SOLID
  8
0
 62
    15
 10
5.924160
 20
1.525920
 11
6.580200
 21
1.903440
 12
5.947480
 22
1.483240
 13
6.603520
 23
1.860760
  0
POLYLINE
  8
0
  6
CONTINUOUS
 66
     1
 40
0.000000
 41
0.000000
  0
VERTEX
  8
0
  6
CONTINUOUS
 10
5.924160
 20
1.525920
  0
VERTEX
  8
0
  6
CONTINUOUS
 10
6.580200
 20
1.903440
  0
VERTEX
  8
0
  6
CONTINUOUS
 10
6.603520
 20
1.860760
  0
VERTEX
  8
0
  6
CONTINUOUS
 10
5.947480
 20
1.483240
  0
VERTEX
  8
0
  6
CONTINUOUS
 10
5.924160
 20
1.525920
  0
SEQEND
  8
0
  0
SOLID
  8
0
 62
    15
 10
5.947480
 20
1.483240
 11
6.603520
 21
1.860760
 12
5.962000
 22
1.435720
 13
6.618040
 23
1.813240
  0
POLYLINE
  8
0
  6
CONTINUOUS
 66
     1
 40
0.000000
 41
0.000000
  0
VERTEX
  8
0
  6
CONTINUOUS
 10
5.947480
 20
1.483240
  0
VERTEX
  8
0
  6
CONTINUOUS
 10
6.603520
 20
1.860760
  0
VERTEX
  8
0
  6
CONTINUOUS
 10
6.618040
 20
1.813240
  0
VERTEX
  8
0
  6
CONTINUOUS
 10
5.962000
 20
1.435720
  0
VERTEX
  8
0
  6
CONTINUOUS
 10
5.947480
 20
1.483240
  0
SEQEND
  8
0
  0
SOLID
  8
0
 62
    15
 10
5.962000
 20
1.435720
 11
6.618040
 21
1.813240
 12
5.967280
 22
1.385120
 13
6.623320
 23
1.762640
  0
POLYLINE
  8
0
  6
CONTINUOUS
 66
     1
 40
0.000000
 41
0.000000
  0
VERTEX
  8
0
  6
CONTINUOUS
 10
5.962000
 20
1.435720
  0
VERTEX
  8
0
  6
CONTINUOUS
 10
6.618040
 20
1.813240
  0
VERTEX
  8
0
  6
CONTINUOUS
 10
6.623320
 20
1.762640
  0
VERTEX
  8
0
  6
CONTINUOUS
 10
5.967280
 20
1.385120
  0
VERTEX
  8
0
  6
CONTINUOUS
 10
5.962000
 20
1.435720
  0
SEQEND
  8
0
  0
SOLID
  8
0
 62
    15
 10
5.967280
 20
1.385120
 11
6.623320
 21
1.762640
 12
5.962000
 22
1.334520
 13
6.618040
 23
1.712040
  0
POLYLINE
  8
0
  6
CONTINUOUS
 66
     1
 40
0.000000
 41
0.000000
  0
VERTEX
  8
0
  6
CONTINUOUS
 10
5.967280
 20
1.385120
  0
VERTEX
  8
0
  6
CONTINUOUS
 10
6.623320
 20
1.762640
  0
VERTEX
  8
0
  6
CONTINUOUS
 10
6.618040
 20
1.712040
  0
VERTEX
  8
0
  6
CONTINUOUS
 10
5.962000
 20
1.334520
  0
VERTEX
  8
0
  6
CONTINUOUS
 10
5.967280
 20
1.385120
  0
SEQEND
  8
0
  0
SOLID
  8
0
 62
    15
 10
5.962000
 20
1.334520
 11
6.618040
 21
1.712040
 12
5.947480
 22
1.287000
 13
6.603520
 23
1.664520
  0
POLYLINE
  8
0
  6
CONTINUOUS
 66
     1
 40
0.000000
 41
0.000000
  0
VERTEX
  8
0
  6
CONTINUOUS
 10
5.962000
 20
1.334520
  0
VERTEX
  8
0
  6
CONTINUOUS
 10
6.618040
 20
1.712040
  0
VERTEX
  8
0
  6
CONTINUOUS
 10
6.603520
 20
1.664520
  0
VERTEX
  8
0
  6
CONTINUOUS
 10
5.947480
 20
1.287000
  0
VERTEX
  8
0
  6
CONTINUOUS
 10
5.962000
 20
1.334520
  0
SEQEND
  8
0
  0
SOLID
  8
0
 62
    15
 10
5.947480
 20
1.287000
 11
6.603520
 21
1.664520
 12
5.924160
 22
1.244320
 13
6.580200
 23
1.621840
  0
POLYLINE
  8
0
  6
CONTINUOUS
 66
     1
 40
0.000000
 41
0.000000
  0
VERTEX
  8
0
  6
CONTINUOUS
 10
5.947480
 20
1.287000
  0
VERTEX
  8
0
  6
CONTINUOUS
 10
6.603520
 20
1.664520
  0
VERTEX
  8
0
  6
CONTINUOUS
 10
6.580200
 20
1.621840
  0
VERTEX
  8
0
  6
CONTINUOUS
 10
5.924160
 20
1.244320
  0
VERTEX
  8
0
  6
CONTINUOUS
 10
5.947480
 20
1.287000
  0
SEQEND
  8
0
  0
SOLID
  8
0
 62
    15
 10
5.924160
 20
1.244320
 11
6.580200
 21
1.621840
 12
5.893360
 22
1.206920
 13
6.549400
 23
1.584440
  0
POLYLINE
  8
0
  6
CONTINUOUS
 66
     1
 40
0.000000
 41
0.000000
  0
VERTEX
  8
0
  6
CONTINUOUS
 10
5.924160
 20
1.244320
  0
VERTEX
  8
0
  6
CONTINUOUS
 10
6.580200
 20
1.621840
  0
VERTEX
  8
0
  6
CONTINUOUS
 10
6.549400
 20
1.584440
  0
VERTEX
  8
0
  6
CONTINUOUS
 10
5.893360
 20
1.206920
  0
VERTEX
  8
0
  6
CONTINUOUS
 10
5.924160
 20
1.244320
  0
SEQEND
  8
0
  0
SOLID
  8
0
 62
    15
 10
5.893360
 20
1.206920
 11
6.549400
 21
1.584440
 12
5.855960
 22
1.176120
 13
6.512000
 23
1.553640
  0
POLYLINE
  8
0
  6
CONTINUOUS
 66
     1
 40
0.000000
 41
0.000000
  0
VERTEX
  8
0
  6
CONTINUOUS
 10
5.893360
 20
1.206920
  0
VERTEX
  8
0
  6
CONTINUOUS
 10
6.549400
 20
1.584440
  0
VERTEX
  8
0
  6
CONTINUOUS
 10
6.512000
 20
1.553640
  0
VERTEX
  8
0
  6
CONTINUOUS
 10
5.855960
 20
1.176120
  0
VERTEX
  8
0
  6
CONTINUOUS
 10
5.893360
 20
1.206920
  0
SEQEND
  8
0
  0
POLYLINE
  8
0
  6
CONTINUOUS
 66
     1
 40
0.000000
 41
0.000000
  0
VERTEX
  8
0
  6
CONTINUOUS
 10
5.714720
 20
1.133000
  0
VERTEX
  8
0
  6
CONTINUOUS
 10
5.714720
 20
1.056000
  0
VERTEX
  8
0
  6
CONTINUOUS
 10
5.158560
 20
1.056000
  0
VERTEX
  8
0
  6
CONTINUOUS
 10
5.158560
 20
2.873200
  0
VERTEX
  8
0
  6
CONTINUOUS
 10
5.340280
 20
2.873200
  0
VERTEX
  8
0
  6
CONTINUOUS
 10
5.344680
 20
2.843720
  0
VERTEX
  8
0
  6
CONTINUOUS
 10
5.358320
 20
2.810280
  0
VERTEX
  8
0
  6
CONTINUOUS
 10
5.379440
 20
2.774640
  0
VERTEX
  8
0
  6
CONTINUOUS
 10
5.408040
 20
2.739880
  0
VERTEX
  8
0
  6
CONTINUOUS
 10
5.443240
 20
2.708200
  0
VERTEX
  8
0
  6
CONTINUOUS
 10
5.484160
 20
2.682240
  0
VERTEX
  8
0
  6
CONTINUOUS
 10
5.530360
 20
2.664200
  0
VERTEX
  8
0
  6
CONTINUOUS
 10
5.580520
 20
2.656280
  0
VERTEX
  8
0
  6
CONTINUOUS
 10
5.580520
 20
2.582800
  0
VERTEX
  8
0
  6
CONTINUOUS
 10
5.624520
 20
2.563880
  0
VERTEX
  8
0
  6
CONTINUOUS
 10
5.661920
 20
2.541880
  0
VERTEX
  8
0
  6
CONTINUOUS
 10
5.692720
 20
2.517240
  0
VERTEX
  8
0
  6
CONTINUOUS
 10
5.717360
 20
2.490840
  0
VERTEX
  8
0
  6
CONTINUOUS
 10
5.735840
 20
2.462680
  0
VERTEX
  8
0
  6
CONTINUOUS
 10
5.748160
 20
2.433200
  0
VERTEX
  8
0
  6
CONTINUOUS
 10
5.754760
 20
2.403720
  0
VERTEX
  8
0
  6
CONTINUOUS
 10
5.755640
 20
2.373800
  0
VERTEX
  8
0
  6
CONTINUOUS
 10
5.751240
 20
2.344320
  0
VERTEX
  8
0
  6
CONTINUOUS
 10
5.741120
 20
2.315280
  0
VERTEX
  8
0
  6
CONTINUOUS
 10
5.726160
 20
2.288000
  0
VERTEX
  8
0
  6
CONTINUOUS
 10
5.706360
 20
2.262480
  0
VERTEX
  8
0
  6
CONTINUOUS
 10
5.681720
 20
2.238720
  0
VERTEX
  8
0
  6
CONTINUOUS
 10
5.652680
 20
2.218040
  0
VERTEX
  8
0
  6
CONTINUOUS
 10
5.618800
 20
2.200440
  0
VERTEX
  8
0
  6
CONTINUOUS
 10
5.580960
 20
2.186360
  0
VERTEX
  8
0
  6
CONTINUOUS
 10
5.580960
 20
2.094400
  0
VERTEX
  8
0
  6
CONTINUOUS
 10
5.547960
 20
2.086040
  0
VERTEX
  8
0
  6
CONTINUOUS
 10
5.519800
 20
2.071960
  0
VERTEX
  8
0
  6
CONTINUOUS
 10
5.497360
 20
2.053480
  0
VERTEX
  8
0
  6
CONTINUOUS
 10
5.480200
 20
2.030600
  0
VERTEX
  8
0
  6
CONTINUOUS
 10
5.468760
 20
2.004640
  0
VERTEX
  8
0
  6
CONTINUOUS
 10
5.462160
 20
1.976040
  0
VERTEX
  8
0
  6
CONTINUOUS
 10
5.461720
 20
1.946560
  0
VERTEX
  8
0
  6
CONTINUOUS
 10
5.466560
 20
1.916200
  0
VERTEX
  8
0
  6
CONTINUOUS
 10
5.477120
 20
1.886280
  0
VERTEX
  8
0
  6
CONTINUOUS
 10
5.493840
 20
1.857240
  0
VERTEX
  8
0
  6
CONTINUOUS
 10
5.515840
 20
1.830400
  0
VERTEX
  8
0
  6
CONTINUOUS
 10
5.543560
 20
1.806200
  0
VERTEX
  8
0
  6
CONTINUOUS
 10
5.577440
 20
1.785960
  0
VERTEX
  8
0
  6
CONTINUOUS
 10
5.617480
 20
1.770560
  0
VERTEX
  8
0
  6
CONTINUOUS
 10
5.663240
 20
1.760440
  0
VERTEX
  8
0
  6
CONTINUOUS
 10
5.715160
 20
1.756480
  0
VERTEX
  8
0
  6
CONTINUOUS
 10
5.715160
 20
1.637240
  0
VERTEX
  8
0
  6
CONTINUOUS
 10
5.766200
 20
1.631960
  0
VERTEX
  8
0
  6
CONTINUOUS
 10
5.813280
 20
1.617440
  0
VERTEX
  8
0
  6
CONTINUOUS
 10
5.855960
 20
1.594120
  0
VERTEX
  8
0
  6
CONTINUOUS
 10
5.893360
 20
1.563320
  0
VERTEX
  8
0
  6
CONTINUOUS
 10
5.924160
 20
1.525920
  0
VERTEX
  8
0
  6
CONTINUOUS
 10
5.947480
 20
1.483240
  0
VERTEX
  8
0
  6
CONTINUOUS
 10
5.962000
 20
1.435720
  0
VERTEX
  8
0
  6
CONTINUOUS
 10
5.967280
 20
1.385120
  0
VERTEX
  8
0
  6
CONTINUOUS
 10
5.962000
 20
1.334520
  0
VERTEX
  8
0
  6
CONTINUOUS
 10
5.947480
 20
1.287000
  0
VERTEX
  8
0
  6
CONTINUOUS
 10
5.924160
 20
1.244320
  0
VERTEX
  8
0
  6
CONTINUOUS
 10
5.893360
 20
1.206920
  0
VERTEX
  8
0
  6
CONTINUOUS
 10
5.855960
 20
1.176120
  0
VERTEX
  8
0
  6
CONTINUOUS
 10
5.813280
 20
1.152800
  0
VERTEX
  8
0
  6
CONTINUOUS
 10
5.766200
 20
1.138280
  0
VERTEX
  8
0
  6
CONTINUOUS
 10
5.714720
 20
1.133000
  0
SEQEND
  8
0
  0
TEXT
  8
0
 10
5.593280
 20
0.770440
 40
0.138041
  1
BA  432
 41
1.000000
  7
SN0
 71
     0
 72
     5
 11
6.183222
 21
0.770440
  0
TEXT
  8
0
 10
5.252720
 20
0.579040
 40
0.138041
  1
13/16" x 1-13/16"
 41
1.000000
  7
SN0
 71
     0
 72
     5
 11
6.521374
 21
0.579040
  0
ENDSEC
  0
EOF
