  0
SECTION
  2
HEADER
  9
$ACADVER
  1
AC1006
  9
$EXTMIN
 10
5.461720
 20
1.662320
  9
$EXTMAX
 10
7.928800
 20
3.327280
  9
$LTSCALE
 40
0.044000
  9
$PDMODE
 70
    35
  9
$PDSIZE
 40
0.035200
  0
ENDSEC
  0
SECTION
  2
TABLES
  0
TABLE
  2
LTYPE
 70
     9
  0
LTYPE
  2
CONTINUOUS
 70
    64
  3
Solid line
 72
    65
 73
     0
 40
0.000000
  0
LTYPE
  2
DASHED
 70
    64
  3
__ __ __ __ __ __ __ __ __ __ __ __ __ __ __
 72
    65
 73
     2
 40
0.000330
 49
0.000220
 49
-0.000110
  0
LTYPE
  2
HIDDEN
 70
    64
  3
 _ _ _ _ _ _ _ _ _ _ _ _ _ _ _ _ _ _ _ _ _ _
 72
    65
 73
     2
 40
0.000165
 49
0.000110
 49
-0.000055
  0
LTYPE
  2
CENTER
 70
    64
  3
____ _ ____ _ ____ _ ____ _ ____ _ ____ _ ____
 72
    65
 73
     4
 40
0.000880
 49
0.000550
 49
-0.000110
 49
0.000110
 49
-0.000110
  0
LTYPE
  2
PHANTOM
 70
    64
  3
_____ _ _ _____ _ _ _____ _ _ _____ _ _ ____
 72
    65
 73
     6
 40
0.001100
 49
0.000550
 49
-0.000110
 49
0.000110
 49
-0.000110
 49
0.000110
 49
-0.000110
  0
LTYPE
  2
DOT
 70
    64
  3
...............................................
 72
    65
 73
     2
 40
0.000110
 49
0.000000
 49
-0.000110
  0
LTYPE
  2
DASHDOT
 70
    64
  3
__ . __ . __ . __ . __ . __ . __ . __ . __ . __
 72
    65
 73
     4
 40
0.000440
 49
0.000220
 49
-0.000110
 49
0.000000
 49
-0.000110
  0
LTYPE
  2
BORDER
 70
    64
  3
__ __ . __ __ . __ __ . __ __ . __ __ . __ __
 72
    65
 73
     6
 40
0.000770
 49
0.000220
 49
-0.000110
 49
0.000220
 49
-0.000110
 49
0.000000
 49
-0.000110
  0
LTYPE
  2
DIVIDE
 70
    64
  3
__ . . __ . . __ . . __ . . __ . . __ . . __
 72
    65
 73
     6
 40
0.000550
 49
0.000220
 49
-0.000110
 49
0.000000
 49
-0.000110
 49
0.000000
 49
-0.000110
  0
LTYPE
  2
DOTDOT
 70
    64
  3
 . .  . .  . .  . .  . .  . . 
 72
    65
 73
     5
 40
0.000242
 49
-0.000110
 49
0.000000
 49
-0.000110
 49
0.000000
 49
-0.000110
  0
ENDTAB
  0
TABLE
  2
STYLE
 70
     2
  0
STYLE
 70
     0
  2
SN0
 40
0.000000
 41
0.000440
 50
0.000000
 71
     0
 42
0.000000
  3
ROMAND
  0
STYLE
 70
    68
  2
SV0
 40
0.000000
 41
0.000440
 50
0.000000
 71
     0
 42
0.000000
  3
ROMAND
  0
ENDTAB
  0
TABLE
  2
LAYER
 70
     3
  0
LAYER
  2
FOREGROUND
 70
    64
 62
     7
  6
CONTINUOUS
  0
LAYER
  2
BACKGROUND
 70
    65
 62
    -7
  6
CONTINUOUS
  0
LAYER
  2
0
 70
    64
 62
     7
  6
CONTINUOUS
  0
ENDTAB
  0
ENDSEC
  0
SECTION
  2
ENTITIES
  0
POLYLINE
  8
FOREGROUND
  6
CONTINUOUS
 66
     1
 40
0.000000
 41
0.000000
  0
VERTEX
  8
FOREGROUND
  6
CONTINUOUS
 10
0.000000
 20
4.989600
  0
VERTEX
  8
FOREGROUND
  6
CONTINUOUS
 10
8.499920
 20
4.989600
  0
VERTEX
  8
FOREGROUND
  6
CONTINUOUS
 10
8.499920
 20
-6.010400
  0
VERTEX
  8
FOREGROUND
  6
CONTINUOUS
 10
0.000000
 20
-6.010400
  0
VERTEX
  8
FOREGROUND
  6
CONTINUOUS
 10
0.000000
 20
4.989600
  0
SEQEND
  8
0
  0
POLYLINE
  8
FOREGROUND
  6
CONTINUOUS
 66
     1
 40
0.000000
 41
0.000000
  0
VERTEX
  8
FOREGROUND
  6
CONTINUOUS
 10
0.000000
 20
4.989600
  0
VERTEX
  8
FOREGROUND
  6
CONTINUOUS
 10
8.499920
 20
4.989600
  0
VERTEX
  8
FOREGROUND
  6
CONTINUOUS
 10
8.499920
 20
-6.010400
  0
VERTEX
  8
FOREGROUND
  6
CONTINUOUS
 10
0.000000
 20
-6.010400
  0
VERTEX
  8
FOREGROUND
  6
CONTINUOUS
 10
0.000000
 20
4.989600
  0
SEQEND
  8
0
  0
POLYLINE
  8
0
  6
CONTINUOUS
 66
     1
 40
0.014080
 41
0.014080
  0
VERTEX
  8
0
  6
CONTINUOUS
 10
5.641680
 20
2.697640
  0
VERTEX
  8
0
  6
CONTINUOUS
 10
5.710760
 20
2.681360
  0
VERTEX
  8
0
  6
CONTINUOUS
 10
5.772360
 20
2.661560
  0
VERTEX
  8
0
  6
CONTINUOUS
 10
5.827360
 20
2.639560
  0
VERTEX
  8
0
  6
CONTINUOUS
 10
5.875320
 20
2.615360
  0
VERTEX
  8
0
  6
CONTINUOUS
 10
5.916680
 20
2.588960
  0
VERTEX
  8
0
  6
CONTINUOUS
 10
5.951000
 20
2.561240
  0
VERTEX
  8
0
  6
CONTINUOUS
 10
5.966400
 20
2.547160
  0
VERTEX
  8
0
  6
CONTINUOUS
 10
5.991480
 20
2.518120
  0
VERTEX
  8
0
  6
CONTINUOUS
 10
6.010400
 20
2.488640
  0
VERTEX
  8
0
  6
CONTINUOUS
 10
6.017880
 20
2.474120
  0
VERTEX
  8
0
  6
CONTINUOUS
 10
6.028000
 20
2.444640
  0
VERTEX
  8
0
  6
CONTINUOUS
 10
6.032840
 20
2.415600
  0
VERTEX
  8
0
  6
CONTINUOUS
 10
6.032840
 20
2.401520
  0
VERTEX
  8
0
  6
CONTINUOUS
 10
6.028880
 20
2.374240
  0
VERTEX
  8
0
  6
CONTINUOUS
 10
6.019640
 20
2.348720
  0
VERTEX
  8
0
  6
CONTINUOUS
 10
6.013480
 20
2.336400
  0
VERTEX
  8
0
  6
CONTINUOUS
 10
5.996320
 20
2.313960
  0
VERTEX
  8
0
  6
CONTINUOUS
 10
5.974760
 20
2.293720
  0
VERTEX
  8
0
  6
CONTINUOUS
 10
5.974760
 20
2.291520
  0
VERTEX
  8
0
  6
CONTINUOUS
 10
5.978720
 20
2.285360
  0
VERTEX
  8
0
  6
CONTINUOUS
 10
5.994560
 20
2.284920
  0
VERTEX
  8
0
  6
CONTINUOUS
 10
6.019200
 20
2.280960
  0
VERTEX
  8
0
  6
CONTINUOUS
 10
6.040320
 20
2.273920
  0
VERTEX
  8
0
  6
CONTINUOUS
 10
6.057040
 20
2.264680
  0
VERTEX
  8
0
  6
CONTINUOUS
 10
6.075960
 20
2.246640
  0
VERTEX
  8
0
  6
CONTINUOUS
 10
6.083880
 20
2.233000
  0
VERTEX
  8
0
  6
CONTINUOUS
 10
6.088280
 20
2.218040
  0
VERTEX
  8
0
  6
CONTINUOUS
 10
6.089160
 20
2.202640
  0
VERTEX
  8
0
  6
CONTINUOUS
 10
6.086960
 20
2.187680
  0
VERTEX
  8
0
  6
CONTINUOUS
 10
6.081680
 20
2.172720
  0
VERTEX
  8
0
  6
CONTINUOUS
 10
6.067600
 20
2.152480
  0
VERTEX
  8
0
  6
CONTINUOUS
 10
6.046480
 20
2.135320
  0
VERTEX
  8
0
  6
CONTINUOUS
 10
6.028880
 20
2.126960
  0
VERTEX
  8
0
  6
CONTINUOUS
 10
6.008200
 20
2.121240
  0
VERTEX
  8
0
  6
CONTINUOUS
 10
5.984880
 20
2.118600
  0
VERTEX
  8
0
  6
CONTINUOUS
 10
5.469200
 20
2.118600
  0
VERTEX
  8
0
  6
CONTINUOUS
 10
5.469200
 20
2.962960
  0
VERTEX
  8
0
  6
CONTINUOUS
 10
5.564240
 20
2.962520
  0
VERTEX
  8
0
  6
CONTINUOUS
 10
5.564240
 20
2.893880
  0
VERTEX
  8
0
  6
CONTINUOUS
 10
5.595040
 20
2.892560
  0
VERTEX
  8
0
  6
CONTINUOUS
 10
5.623200
 20
2.886400
  0
VERTEX
  8
0
  6
CONTINUOUS
 10
5.644760
 20
2.876280
  0
VERTEX
  8
0
  6
CONTINUOUS
 10
5.661040
 20
2.862200
  0
VERTEX
  8
0
  6
CONTINUOUS
 10
5.671600
 20
2.845040
  0
VERTEX
  8
0
  6
CONTINUOUS
 10
5.675560
 20
2.832280
  0
VERTEX
  8
0
  6
CONTINUOUS
 10
5.677760
 20
2.817760
  0
VERTEX
  8
0
  6
CONTINUOUS
 10
5.677760
 20
2.802800
  0
VERTEX
  8
0
  6
CONTINUOUS
 10
5.675560
 20
2.786520
  0
VERTEX
  8
0
  6
CONTINUOUS
 10
5.666320
 20
2.752200
  0
VERTEX
  8
0
  6
CONTINUOUS
 10
5.650040
 20
2.715680
  0
VERTEX
  8
0
  6
CONTINUOUS
 10
5.639920
 20
2.697200
  0
VERTEX
  8
0
  6
CONTINUOUS
 10
5.641680
 20
2.697640
  0
SEQEND
  8
0
  0
SOLID
  8
0
 62
    15
 10
7.253840
 20
2.249280
 11
7.903720
 21
2.622840
 12
7.265720
 22
2.236520
 13
7.915160
 23
2.610520
  0
POLYLINE
  8
0
  6
CONTINUOUS
 66
     1
 40
0.000000
 41
0.000000
  0
VERTEX
  8
0
  6
CONTINUOUS
 10
7.253840
 20
2.249280
  0
VERTEX
  8
0
  6
CONTINUOUS
 10
7.903720
 20
2.622840
  0
VERTEX
  8
0
  6
CONTINUOUS
 10
7.915160
 20
2.610520
  0
VERTEX
  8
0
  6
CONTINUOUS
 10
7.265720
 20
2.236520
  0
VERTEX
  8
0
  6
CONTINUOUS
 10
7.253840
 20
2.249280
  0
SEQEND
  8
0
  0
SOLID
  8
0
 62
    15
 10
6.900520
 20
2.671240
 11
7.549960
 21
3.044800
 12
6.962120
 22
2.651880
 13
7.611560
 23
3.025440
  0
POLYLINE
  8
0
  6
CONTINUOUS
 66
     1
 40
0.000000
 41
0.000000
  0
VERTEX
  8
0
  6
CONTINUOUS
 10
6.900520
 20
2.671240
  0
VERTEX
  8
0
  6
CONTINUOUS
 10
7.549960
 20
3.044800
  0
VERTEX
  8
0
  6
CONTINUOUS
 10
7.611560
 20
3.025440
  0
VERTEX
  8
0
  6
CONTINUOUS
 10
6.962120
 20
2.651880
  0
VERTEX
  8
0
  6
CONTINUOUS
 10
6.900520
 20
2.671240
  0
SEQEND
  8
0
  0
SOLID
  8
0
 62
    15
 10
6.962120
 20
2.651880
 11
7.611560
 21
3.025440
 12
7.017120
 22
2.629440
 13
7.666560
 23
3.003440
  0
POLYLINE
  8
0
  6
CONTINUOUS
 66
     1
 40
0.000000
 41
0.000000
  0
VERTEX
  8
0
  6
CONTINUOUS
 10
6.962120
 20
2.651880
  0
VERTEX
  8
0
  6
CONTINUOUS
 10
7.611560
 20
3.025440
  0
VERTEX
  8
0
  6
CONTINUOUS
 10
7.666560
 20
3.003440
  0
VERTEX
  8
0
  6
CONTINUOUS
 10
7.017120
 20
2.629440
  0
VERTEX
  8
0
  6
CONTINUOUS
 10
6.962120
 20
2.651880
  0
SEQEND
  8
0
  0
SOLID
  8
0
 62
    15
 10
7.017120
 20
2.629440
 11
7.666560
 21
3.003440
 12
7.065080
 22
2.605240
 13
7.714520
 23
2.978800
  0
POLYLINE
  8
0
  6
CONTINUOUS
 66
     1
 40
0.000000
 41
0.000000
  0
VERTEX
  8
0
  6
CONTINUOUS
 10
7.017120
 20
2.629440
  0
VERTEX
  8
0
  6
CONTINUOUS
 10
7.666560
 20
3.003440
  0
VERTEX
  8
0
  6
CONTINUOUS
 10
7.714520
 20
2.978800
  0
VERTEX
  8
0
  6
CONTINUOUS
 10
7.065080
 20
2.605240
  0
VERTEX
  8
0
  6
CONTINUOUS
 10
7.017120
 20
2.629440
  0
SEQEND
  8
0
  0
SOLID
  8
0
 62
    15
 10
7.065080
 20
2.605240
 11
7.714520
 21
2.978800
 12
7.106440
 22
2.579280
 13
7.755880
 23
2.952840
  0
POLYLINE
  8
0
  6
CONTINUOUS
 66
     1
 40
0.000000
 41
0.000000
  0
VERTEX
  8
0
  6
CONTINUOUS
 10
7.065080
 20
2.605240
  0
VERTEX
  8
0
  6
CONTINUOUS
 10
7.714520
 20
2.978800
  0
VERTEX
  8
0
  6
CONTINUOUS
 10
7.755880
 20
2.952840
  0
VERTEX
  8
0
  6
CONTINUOUS
 10
7.106440
 20
2.579280
  0
VERTEX
  8
0
  6
CONTINUOUS
 10
7.065080
 20
2.605240
  0
SEQEND
  8
0
  0
SOLID
  8
0
 62
    15
 10
7.106440
 20
2.579280
 11
7.755880
 21
2.952840
 12
7.141200
 22
2.551560
 13
7.790640
 23
2.925120
  0
POLYLINE
  8
0
  6
CONTINUOUS
 66
     1
 40
0.000000
 41
0.000000
  0
VERTEX
  8
0
  6
CONTINUOUS
 10
7.106440
 20
2.579280
  0
VERTEX
  8
0
  6
CONTINUOUS
 10
7.755880
 20
2.952840
  0
VERTEX
  8
0
  6
CONTINUOUS
 10
7.790640
 20
2.925120
  0
VERTEX
  8
0
  6
CONTINUOUS
 10
7.141200
 20
2.551560
  0
VERTEX
  8
0
  6
CONTINUOUS
 10
7.106440
 20
2.579280
  0
SEQEND
  8
0
  0
SOLID
  8
0
 62
    15
 10
7.141200
 20
2.551560
 11
7.790640
 21
2.925120
 12
7.169360
 22
2.522960
 13
7.818800
 23
2.896520
  0
POLYLINE
  8
0
  6
CONTINUOUS
 66
     1
 40
0.000000
 41
0.000000
  0
VERTEX
  8
0
  6
CONTINUOUS
 10
7.141200
 20
2.551560
  0
VERTEX
  8
0
  6
CONTINUOUS
 10
7.790640
 20
2.925120
  0
VERTEX
  8
0
  6
CONTINUOUS
 10
7.818800
 20
2.896520
  0
VERTEX
  8
0
  6
CONTINUOUS
 10
7.169360
 20
2.522960
  0
VERTEX
  8
0
  6
CONTINUOUS
 10
7.141200
 20
2.551560
  0
SEQEND
  8
0
  0
SOLID
  8
0
 62
    15
 10
7.169360
 20
2.522960
 11
7.818800
 21
2.896520
 12
7.191800
 22
2.493480
 13
7.841240
 23
2.867040
  0
POLYLINE
  8
0
  6
CONTINUOUS
 66
     1
 40
0.000000
 41
0.000000
  0
VERTEX
  8
0
  6
CONTINUOUS
 10
7.169360
 20
2.522960
  0
VERTEX
  8
0
  6
CONTINUOUS
 10
7.818800
 20
2.896520
  0
VERTEX
  8
0
  6
CONTINUOUS
 10
7.841240
 20
2.867040
  0
VERTEX
  8
0
  6
CONTINUOUS
 10
7.191800
 20
2.493480
  0
VERTEX
  8
0
  6
CONTINUOUS
 10
7.169360
 20
2.522960
  0
SEQEND
  8
0
  0
SOLID
  8
0
 62
    15
 10
7.191800
 20
2.493480
 11
7.841240
 21
2.867040
 12
7.207640
 22
2.464000
 13
7.857520
 23
2.837560
  0
POLYLINE
  8
0
  6
CONTINUOUS
 66
     1
 40
0.000000
 41
0.000000
  0
VERTEX
  8
0
  6
CONTINUOUS
 10
7.191800
 20
2.493480
  0
VERTEX
  8
0
  6
CONTINUOUS
 10
7.841240
 20
2.867040
  0
VERTEX
  8
0
  6
CONTINUOUS
 10
7.857520
 20
2.837560
  0
VERTEX
  8
0
  6
CONTINUOUS
 10
7.207640
 20
2.464000
  0
VERTEX
  8
0
  6
CONTINUOUS
 10
7.191800
 20
2.493480
  0
SEQEND
  8
0
  0
SOLID
  8
0
 62
    15
 10
7.207640
 20
2.464000
 11
7.857520
 21
2.837560
 12
7.218200
 22
2.434520
 13
7.867640
 23
2.808520
  0
POLYLINE
  8
0
  6
CONTINUOUS
 66
     1
 40
0.000000
 41
0.000000
  0
VERTEX
  8
0
  6
CONTINUOUS
 10
7.207640
 20
2.464000
  0
VERTEX
  8
0
  6
CONTINUOUS
 10
7.857520
 20
2.837560
  0
VERTEX
  8
0
  6
CONTINUOUS
 10
7.867640
 20
2.808520
  0
VERTEX
  8
0
  6
CONTINUOUS
 10
7.218200
 20
2.434520
  0
VERTEX
  8
0
  6
CONTINUOUS
 10
7.207640
 20
2.464000
  0
SEQEND
  8
0
  0
SOLID
  8
0
 62
    15
 10
7.218200
 20
2.434520
 11
7.867640
 21
2.808520
 12
7.222600
 22
2.405920
 13
7.872040
 23
2.779480
  0
POLYLINE
  8
0
  6
CONTINUOUS
 66
     1
 40
0.000000
 41
0.000000
  0
VERTEX
  8
0
  6
CONTINUOUS
 10
7.218200
 20
2.434520
  0
VERTEX
  8
0
  6
CONTINUOUS
 10
7.867640
 20
2.808520
  0
VERTEX
  8
0
  6
CONTINUOUS
 10
7.872040
 20
2.779480
  0
VERTEX
  8
0
  6
CONTINUOUS
 10
7.222600
 20
2.405920
  0
VERTEX
  8
0
  6
CONTINUOUS
 10
7.218200
 20
2.434520
  0
SEQEND
  8
0
  0
SOLID
  8
0
 62
    15
 10
7.222600
 20
2.405920
 11
7.872040
 21
2.779480
 12
7.221280
 22
2.378200
 13
7.871160
 23
2.751760
  0
POLYLINE
  8
0
  6
CONTINUOUS
 66
     1
 40
0.000000
 41
0.000000
  0
VERTEX
  8
0
  6
CONTINUOUS
 10
7.222600
 20
2.405920
  0
VERTEX
  8
0
  6
CONTINUOUS
 10
7.872040
 20
2.779480
  0
VERTEX
  8
0
  6
CONTINUOUS
 10
7.871160
 20
2.751760
  0
VERTEX
  8
0
  6
CONTINUOUS
 10
7.221280
 20
2.378200
  0
VERTEX
  8
0
  6
CONTINUOUS
 10
7.222600
 20
2.405920
  0
SEQEND
  8
0
  0
SOLID
  8
0
 62
    15
 10
7.221280
 20
2.378200
 11
7.871160
 21
2.751760
 12
7.215120
 22
2.351360
 13
7.864560
 23
2.724920
  0
POLYLINE
  8
0
  6
CONTINUOUS
 66
     1
 40
0.000000
 41
0.000000
  0
VERTEX
  8
0
  6
CONTINUOUS
 10
7.221280
 20
2.378200
  0
VERTEX
  8
0
  6
CONTINUOUS
 10
7.871160
 20
2.751760
  0
VERTEX
  8
0
  6
CONTINUOUS
 10
7.864560
 20
2.724920
  0
VERTEX
  8
0
  6
CONTINUOUS
 10
7.215120
 20
2.351360
  0
VERTEX
  8
0
  6
CONTINUOUS
 10
7.221280
 20
2.378200
  0
SEQEND
  8
0
  0
SOLID
  8
0
 62
    15
 10
7.215120
 20
2.351360
 11
7.864560
 21
2.724920
 12
7.203240
 22
2.326720
 13
7.852680
 23
2.700280
  0
POLYLINE
  8
0
  6
CONTINUOUS
 66
     1
 40
0.000000
 41
0.000000
  0
VERTEX
  8
0
  6
CONTINUOUS
 10
7.215120
 20
2.351360
  0
VERTEX
  8
0
  6
CONTINUOUS
 10
7.864560
 20
2.724920
  0
VERTEX
  8
0
  6
CONTINUOUS
 10
7.852680
 20
2.700280
  0
VERTEX
  8
0
  6
CONTINUOUS
 10
7.203240
 20
2.326720
  0
VERTEX
  8
0
  6
CONTINUOUS
 10
7.215120
 20
2.351360
  0
SEQEND
  8
0
  0
SOLID
  8
0
 62
    15
 10
7.203240
 20
2.326720
 11
7.852680
 21
2.700280
 12
7.186080
 22
2.303840
 13
7.835960
 23
2.677400
  0
POLYLINE
  8
0
  6
CONTINUOUS
 66
     1
 40
0.000000
 41
0.000000
  0
VERTEX
  8
0
  6
CONTINUOUS
 10
7.203240
 20
2.326720
  0
VERTEX
  8
0
  6
CONTINUOUS
 10
7.852680
 20
2.700280
  0
VERTEX
  8
0
  6
CONTINUOUS
 10
7.835960
 20
2.677400
  0
VERTEX
  8
0
  6
CONTINUOUS
 10
7.186080
 20
2.303840
  0
VERTEX
  8
0
  6
CONTINUOUS
 10
7.203240
 20
2.326720
  0
SEQEND
  8
0
  0
SOLID
  8
0
 62
    15
 10
7.186080
 20
2.303840
 11
7.835960
 21
2.677400
 12
7.164520
 22
2.283600
 13
7.813960
 23
2.657600
  0
POLYLINE
  8
0
  6
CONTINUOUS
 66
     1
 40
0.000000
 41
0.000000
  0
VERTEX
  8
0
  6
CONTINUOUS
 10
7.186080
 20
2.303840
  0
VERTEX
  8
0
  6
CONTINUOUS
 10
7.835960
 20
2.677400
  0
VERTEX
  8
0
  6
CONTINUOUS
 10
7.813960
 20
2.657600
  0
VERTEX
  8
0
  6
CONTINUOUS
 10
7.164520
 20
2.283600
  0
VERTEX
  8
0
  6
CONTINUOUS
 10
7.186080
 20
2.303840
  0
SEQEND
  8
0
  0
SOLID
  8
0
 62
    15
 10
7.164520
 20
2.283600
 11
7.813960
 21
2.657600
 12
7.164520
 22
2.281840
 13
7.813960
 23
2.655400
  0
POLYLINE
  8
0
  6
CONTINUOUS
 66
     1
 40
0.000000
 41
0.000000
  0
VERTEX
  8
0
  6
CONTINUOUS
 10
7.164520
 20
2.283600
  0
VERTEX
  8
0
  6
CONTINUOUS
 10
7.813960
 20
2.657600
  0
VERTEX
  8
0
  6
CONTINUOUS
 10
7.813960
 20
2.655400
  0
VERTEX
  8
0
  6
CONTINUOUS
 10
7.164520
 20
2.281840
  0
VERTEX
  8
0
  6
CONTINUOUS
 10
7.164520
 20
2.283600
  0
SEQEND
  8
0
  0
SOLID
  8
0
 62
    15
 10
7.164520
 20
2.281840
 11
7.813960
 21
2.655400
 12
7.168480
 22
2.275680
 13
7.818360
 23
2.649240
  0
POLYLINE
  8
0
  6
CONTINUOUS
 66
     1
 40
0.000000
 41
0.000000
  0
VERTEX
  8
0
  6
CONTINUOUS
 10
7.164520
 20
2.281840
  0
VERTEX
  8
0
  6
CONTINUOUS
 10
7.813960
 20
2.655400
  0
VERTEX
  8
0
  6
CONTINUOUS
 10
7.818360
 20
2.649240
  0
VERTEX
  8
0
  6
CONTINUOUS
 10
7.168480
 20
2.275680
  0
VERTEX
  8
0
  6
CONTINUOUS
 10
7.164520
 20
2.281840
  0
SEQEND
  8
0
  0
SOLID
  8
0
 62
    15
 10
7.168480
 20
2.275680
 11
7.818360
 21
2.649240
 12
7.170680
 22
2.275680
 13
7.820120
 23
2.649240
  0
POLYLINE
  8
0
  6
CONTINUOUS
 66
     1
 40
0.000000
 41
0.000000
  0
VERTEX
  8
0
  6
CONTINUOUS
 10
7.168480
 20
2.275680
  0
VERTEX
  8
0
  6
CONTINUOUS
 10
7.818360
 20
2.649240
  0
VERTEX
  8
0
  6
CONTINUOUS
 10
7.820120
 20
2.649240
  0
VERTEX
  8
0
  6
CONTINUOUS
 10
7.170680
 20
2.275680
  0
VERTEX
  8
0
  6
CONTINUOUS
 10
7.168480
 20
2.275680
  0
SEQEND
  8
0
  0
SOLID
  8
0
 62
    15
 10
7.170680
 20
2.275680
 11
7.820120
 21
2.649240
 12
7.197080
 22
2.273480
 13
7.846960
 23
2.647040
  0
POLYLINE
  8
0
  6
CONTINUOUS
 66
     1
 40
0.000000
 41
0.000000
  0
VERTEX
  8
0
  6
CONTINUOUS
 10
7.170680
 20
2.275680
  0
VERTEX
  8
0
  6
CONTINUOUS
 10
7.820120
 20
2.649240
  0
VERTEX
  8
0
  6
CONTINUOUS
 10
7.846960
 20
2.647040
  0
VERTEX
  8
0
  6
CONTINUOUS
 10
7.197080
 20
2.273480
  0
VERTEX
  8
0
  6
CONTINUOUS
 10
7.170680
 20
2.275680
  0
SEQEND
  8
0
  0
SOLID
  8
0
 62
    15
 10
7.197080
 20
2.273480
 11
7.846960
 21
2.647040
 12
7.219960
 22
2.267760
 13
7.869400
 23
2.641320
  0
POLYLINE
  8
0
  6
CONTINUOUS
 66
     1
 40
0.000000
 41
0.000000
  0
VERTEX
  8
0
  6
CONTINUOUS
 10
7.197080
 20
2.273480
  0
VERTEX
  8
0
  6
CONTINUOUS
 10
7.846960
 20
2.647040
  0
VERTEX
  8
0
  6
CONTINUOUS
 10
7.869400
 20
2.641320
  0
VERTEX
  8
0
  6
CONTINUOUS
 10
7.219960
 20
2.267760
  0
VERTEX
  8
0
  6
CONTINUOUS
 10
7.197080
 20
2.273480
  0
SEQEND
  8
0
  0
SOLID
  8
0
 62
    15
 10
7.219960
 20
2.267760
 11
7.869400
 21
2.641320
 12
7.238880
 22
2.259840
 13
7.888320
 23
2.633400
  0
POLYLINE
  8
0
  6
CONTINUOUS
 66
     1
 40
0.000000
 41
0.000000
  0
VERTEX
  8
0
  6
CONTINUOUS
 10
7.219960
 20
2.267760
  0
VERTEX
  8
0
  6
CONTINUOUS
 10
7.869400
 20
2.641320
  0
VERTEX
  8
0
  6
CONTINUOUS
 10
7.888320
 20
2.633400
  0
VERTEX
  8
0
  6
CONTINUOUS
 10
7.238880
 20
2.259840
  0
VERTEX
  8
0
  6
CONTINUOUS
 10
7.219960
 20
2.267760
  0
SEQEND
  8
0
  0
SOLID
  8
0
 62
    15
 10
7.238880
 20
2.259840
 11
7.888320
 21
2.633400
 12
7.253840
 22
2.249280
 13
7.903720
 23
2.622840
  0
POLYLINE
  8
0
  6
CONTINUOUS
 66
     1
 40
0.000000
 41
0.000000
  0
VERTEX
  8
0
  6
CONTINUOUS
 10
7.238880
 20
2.259840
  0
VERTEX
  8
0
  6
CONTINUOUS
 10
7.888320
 20
2.633400
  0
VERTEX
  8
0
  6
CONTINUOUS
 10
7.903720
 20
2.622840
  0
VERTEX
  8
0
  6
CONTINUOUS
 10
7.253840
 20
2.249280
  0
VERTEX
  8
0
  6
CONTINUOUS
 10
7.238880
 20
2.259840
  0
SEQEND
  8
0
  0
SOLID
  8
0
 62
    15
 10
6.831440
 20
2.687520
 11
7.480880
 21
3.061080
 12
6.900520
 22
2.671240
 13
7.549960
 23
3.044800
  0
POLYLINE
  8
0
  6
CONTINUOUS
 66
     1
 40
0.000000
 41
0.000000
  0
VERTEX
  8
0
  6
CONTINUOUS
 10
6.831440
 20
2.687520
  0
VERTEX
  8
0
  6
CONTINUOUS
 10
7.480880
 20
3.061080
  0
VERTEX
  8
0
  6
CONTINUOUS
 10
7.549960
 20
3.044800
  0
VERTEX
  8
0
  6
CONTINUOUS
 10
6.900520
 20
2.671240
  0
VERTEX
  8
0
  6
CONTINUOUS
 10
6.831440
 20
2.687520
  0
SEQEND
  8
0
  0
SOLID
  8
0
 62
    15
 10
7.265720
 20
2.236520
 11
7.915160
 21
2.610520
 12
7.273640
 22
2.222880
 13
7.923080
 23
2.596440
  0
POLYLINE
  8
0
  6
CONTINUOUS
 66
     1
 40
0.000000
 41
0.000000
  0
VERTEX
  8
0
  6
CONTINUOUS
 10
7.265720
 20
2.236520
  0
VERTEX
  8
0
  6
CONTINUOUS
 10
7.915160
 20
2.610520
  0
VERTEX
  8
0
  6
CONTINUOUS
 10
7.923080
 20
2.596440
  0
VERTEX
  8
0
  6
CONTINUOUS
 10
7.273640
 20
2.222880
  0
VERTEX
  8
0
  6
CONTINUOUS
 10
7.265720
 20
2.236520
  0
SEQEND
  8
0
  0
SOLID
  8
0
 62
    15
 10
7.273640
 20
2.222880
 11
7.923080
 21
2.596440
 12
7.278040
 22
2.208360
 13
7.927480
 23
2.581920
  0
POLYLINE
  8
0
  6
CONTINUOUS
 66
     1
 40
0.000000
 41
0.000000
  0
VERTEX
  8
0
  6
CONTINUOUS
 10
7.273640
 20
2.222880
  0
VERTEX
  8
0
  6
CONTINUOUS
 10
7.923080
 20
2.596440
  0
VERTEX
  8
0
  6
CONTINUOUS
 10
7.927480
 20
2.581920
  0
VERTEX
  8
0
  6
CONTINUOUS
 10
7.278040
 20
2.208360
  0
VERTEX
  8
0
  6
CONTINUOUS
 10
7.273640
 20
2.222880
  0
SEQEND
  8
0
  0
SOLID
  8
0
 62
    15
 10
7.278040
 20
2.208360
 11
7.927480
 21
2.581920
 12
7.278920
 22
2.192960
 13
7.928800
 23
2.566520
  0
POLYLINE
  8
0
  6
CONTINUOUS
 66
     1
 40
0.000000
 41
0.000000
  0
VERTEX
  8
0
  6
CONTINUOUS
 10
7.278040
 20
2.208360
  0
VERTEX
  8
0
  6
CONTINUOUS
 10
7.927480
 20
2.581920
  0
VERTEX
  8
0
  6
CONTINUOUS
 10
7.928800
 20
2.566520
  0
VERTEX
  8
0
  6
CONTINUOUS
 10
7.278920
 20
2.192960
  0
VERTEX
  8
0
  6
CONTINUOUS
 10
7.278040
 20
2.208360
  0
SEQEND
  8
0
  0
SOLID
  8
0
 62
    15
 10
7.278920
 20
2.192960
 11
7.928800
 21
2.566520
 12
7.276720
 22
2.177560
 13
7.926160
 23
2.551120
  0
POLYLINE
  8
0
  6
CONTINUOUS
 66
     1
 40
0.000000
 41
0.000000
  0
VERTEX
  8
0
  6
CONTINUOUS
 10
7.278920
 20
2.192960
  0
VERTEX
  8
0
  6
CONTINUOUS
 10
7.928800
 20
2.566520
  0
VERTEX
  8
0
  6
CONTINUOUS
 10
7.926160
 20
2.551120
  0
VERTEX
  8
0
  6
CONTINUOUS
 10
7.276720
 20
2.177560
  0
VERTEX
  8
0
  6
CONTINUOUS
 10
7.278920
 20
2.192960
  0
SEQEND
  8
0
  0
SOLID
  8
0
 62
    15
 10
7.276720
 20
2.177560
 11
7.926160
 21
2.551120
 12
7.271440
 22
2.163040
 13
7.920880
 23
2.536600
  0
POLYLINE
  8
0
  6
CONTINUOUS
 66
     1
 40
0.000000
 41
0.000000
  0
VERTEX
  8
0
  6
CONTINUOUS
 10
7.276720
 20
2.177560
  0
VERTEX
  8
0
  6
CONTINUOUS
 10
7.926160
 20
2.551120
  0
VERTEX
  8
0
  6
CONTINUOUS
 10
7.920880
 20
2.536600
  0
VERTEX
  8
0
  6
CONTINUOUS
 10
7.271440
 20
2.163040
  0
VERTEX
  8
0
  6
CONTINUOUS
 10
7.276720
 20
2.177560
  0
SEQEND
  8
0
  0
SOLID
  8
0
 62
    15
 10
7.271440
 20
2.163040
 11
7.920880
 21
2.536600
 12
7.262640
 22
2.148960
 13
7.912080
 23
2.522520
  0
POLYLINE
  8
0
  6
CONTINUOUS
 66
     1
 40
0.000000
 41
0.000000
  0
VERTEX
  8
0
  6
CONTINUOUS
 10
7.271440
 20
2.163040
  0
VERTEX
  8
0
  6
CONTINUOUS
 10
7.920880
 20
2.536600
  0
VERTEX
  8
0
  6
CONTINUOUS
 10
7.912080
 20
2.522520
  0
VERTEX
  8
0
  6
CONTINUOUS
 10
7.262640
 20
2.148960
  0
VERTEX
  8
0
  6
CONTINUOUS
 10
7.271440
 20
2.163040
  0
SEQEND
  8
0
  0
SOLID
  8
0
 62
    15
 10
7.262640
 20
2.148960
 11
7.912080
 21
2.522520
 12
7.251200
 22
2.136200
 13
7.900640
 23
2.509760
  0
POLYLINE
  8
0
  6
CONTINUOUS
 66
     1
 40
0.000000
 41
0.000000
  0
VERTEX
  8
0
  6
CONTINUOUS
 10
7.262640
 20
2.148960
  0
VERTEX
  8
0
  6
CONTINUOUS
 10
7.912080
 20
2.522520
  0
VERTEX
  8
0
  6
CONTINUOUS
 10
7.900640
 20
2.509760
  0
VERTEX
  8
0
  6
CONTINUOUS
 10
7.251200
 20
2.136200
  0
VERTEX
  8
0
  6
CONTINUOUS
 10
7.262640
 20
2.148960
  0
SEQEND
  8
0
  0
SOLID
  8
0
 62
    15
 10
7.251200
 20
2.136200
 11
7.900640
 21
2.509760
 12
7.236240
 22
2.125640
 13
7.885680
 23
2.499200
  0
POLYLINE
  8
0
  6
CONTINUOUS
 66
     1
 40
0.000000
 41
0.000000
  0
VERTEX
  8
0
  6
CONTINUOUS
 10
7.251200
 20
2.136200
  0
VERTEX
  8
0
  6
CONTINUOUS
 10
7.900640
 20
2.509760
  0
VERTEX
  8
0
  6
CONTINUOUS
 10
7.885680
 20
2.499200
  0
VERTEX
  8
0
  6
CONTINUOUS
 10
7.236240
 20
2.125640
  0
VERTEX
  8
0
  6
CONTINUOUS
 10
7.251200
 20
2.136200
  0
SEQEND
  8
0
  0
SOLID
  8
0
 62
    15
 10
6.658960
 20
2.953280
 11
7.308400
 21
3.326840
 12
6.754000
 22
2.953280
 13
7.403440
 23
3.326840
  0
POLYLINE
  8
0
  6
CONTINUOUS
 66
     1
 40
0.000000
 41
0.000000
  0
VERTEX
  8
0
  6
CONTINUOUS
 10
6.658960
 20
2.953280
  0
VERTEX
  8
0
  6
CONTINUOUS
 10
7.308400
 20
3.326840
  0
VERTEX
  8
0
  6
CONTINUOUS
 10
7.403440
 20
3.326840
  0
VERTEX
  8
0
  6
CONTINUOUS
 10
6.754000
 20
2.953280
  0
VERTEX
  8
0
  6
CONTINUOUS
 10
6.658960
 20
2.953280
  0
SEQEND
  8
0
  0
SOLID
  8
0
 62
    15
 10
6.754000
 20
2.953280
 11
7.403440
 21
3.326840
 12
6.754000
 22
2.883760
 13
7.403440
 23
3.257320
  0
POLYLINE
  8
0
  6
CONTINUOUS
 66
     1
 40
0.000000
 41
0.000000
  0
VERTEX
  8
0
  6
CONTINUOUS
 10
6.754000
 20
2.953280
  0
VERTEX
  8
0
  6
CONTINUOUS
 10
7.403440
 20
3.326840
  0
VERTEX
  8
0
  6
CONTINUOUS
 10
7.403440
 20
3.257320
  0
VERTEX
  8
0
  6
CONTINUOUS
 10
6.754000
 20
2.883760
  0
VERTEX
  8
0
  6
CONTINUOUS
 10
6.754000
 20
2.953280
  0
SEQEND
  8
0
  0
SOLID
  8
0
 62
    15
 10
6.754000
 20
2.883760
 11
7.403440
 21
3.257320
 12
6.762360
 22
2.883760
 13
7.411800
 23
3.257320
  0
POLYLINE
  8
0
  6
CONTINUOUS
 66
     1
 40
0.000000
 41
0.000000
  0
VERTEX
  8
0
  6
CONTINUOUS
 10
6.754000
 20
2.883760
  0
VERTEX
  8
0
  6
CONTINUOUS
 10
7.403440
 20
3.257320
  0
VERTEX
  8
0
  6
CONTINUOUS
 10
7.411800
 20
3.257320
  0
VERTEX
  8
0
  6
CONTINUOUS
 10
6.762360
 20
2.883760
  0
VERTEX
  8
0
  6
CONTINUOUS
 10
6.754000
 20
2.883760
  0
SEQEND
  8
0
  0
SOLID
  8
0
 62
    15
 10
6.762360
 20
2.883760
 11
7.411800
 21
3.257320
 12
6.784800
 22
2.882440
 13
7.434240
 23
3.256000
  0
POLYLINE
  8
0
  6
CONTINUOUS
 66
     1
 40
0.000000
 41
0.000000
  0
VERTEX
  8
0
  6
CONTINUOUS
 10
6.762360
 20
2.883760
  0
VERTEX
  8
0
  6
CONTINUOUS
 10
7.411800
 20
3.257320
  0
VERTEX
  8
0
  6
CONTINUOUS
 10
7.434240
 20
3.256000
  0
VERTEX
  8
0
  6
CONTINUOUS
 10
6.784800
 20
2.882440
  0
VERTEX
  8
0
  6
CONTINUOUS
 10
6.762360
 20
2.883760
  0
SEQEND
  8
0
  0
SOLID
  8
0
 62
    15
 10
6.784800
 20
2.882440
 11
7.434240
 21
3.256000
 12
6.804160
 22
2.878920
 13
7.453600
 23
3.252480
  0
POLYLINE
  8
0
  6
CONTINUOUS
 66
     1
 40
0.000000
 41
0.000000
  0
VERTEX
  8
0
  6
CONTINUOUS
 10
6.784800
 20
2.882440
  0
VERTEX
  8
0
  6
CONTINUOUS
 10
7.434240
 20
3.256000
  0
VERTEX
  8
0
  6
CONTINUOUS
 10
7.453600
 20
3.252480
  0
VERTEX
  8
0
  6
CONTINUOUS
 10
6.804160
 20
2.878920
  0
VERTEX
  8
0
  6
CONTINUOUS
 10
6.784800
 20
2.882440
  0
SEQEND
  8
0
  0
SOLID
  8
0
 62
    15
 10
6.804160
 20
2.878920
 11
7.453600
 21
3.252480
 12
6.820880
 22
2.873640
 13
7.470320
 23
3.247200
  0
POLYLINE
  8
0
  6
CONTINUOUS
 66
     1
 40
0.000000
 41
0.000000
  0
VERTEX
  8
0
  6
CONTINUOUS
 10
6.804160
 20
2.878920
  0
VERTEX
  8
0
  6
CONTINUOUS
 10
7.453600
 20
3.252480
  0
VERTEX
  8
0
  6
CONTINUOUS
 10
7.470320
 20
3.247200
  0
VERTEX
  8
0
  6
CONTINUOUS
 10
6.820880
 20
2.873640
  0
VERTEX
  8
0
  6
CONTINUOUS
 10
6.804160
 20
2.878920
  0
SEQEND
  8
0
  0
SOLID
  8
0
 62
    15
 10
6.820880
 20
2.873640
 11
7.470320
 21
3.247200
 12
6.834960
 22
2.866160
 13
7.484400
 23
3.239720
  0
POLYLINE
  8
0
  6
CONTINUOUS
 66
     1
 40
0.000000
 41
0.000000
  0
VERTEX
  8
0
  6
CONTINUOUS
 10
6.820880
 20
2.873640
  0
VERTEX
  8
0
  6
CONTINUOUS
 10
7.470320
 20
3.247200
  0
VERTEX
  8
0
  6
CONTINUOUS
 10
7.484400
 20
3.239720
  0
VERTEX
  8
0
  6
CONTINUOUS
 10
6.834960
 20
2.866160
  0
VERTEX
  8
0
  6
CONTINUOUS
 10
6.820880
 20
2.873640
  0
SEQEND
  8
0
  0
SOLID
  8
0
 62
    15
 10
6.834960
 20
2.866160
 11
7.484400
 21
3.239720
 12
6.845960
 22
2.857360
 13
7.495840
 23
3.230920
  0
POLYLINE
  8
0
  6
CONTINUOUS
 66
     1
 40
0.000000
 41
0.000000
  0
VERTEX
  8
0
  6
CONTINUOUS
 10
6.834960
 20
2.866160
  0
VERTEX
  8
0
  6
CONTINUOUS
 10
7.484400
 20
3.239720
  0
VERTEX
  8
0
  6
CONTINUOUS
 10
7.495840
 20
3.230920
  0
VERTEX
  8
0
  6
CONTINUOUS
 10
6.845960
 20
2.857360
  0
VERTEX
  8
0
  6
CONTINUOUS
 10
6.834960
 20
2.866160
  0
SEQEND
  8
0
  0
SOLID
  8
0
 62
    15
 10
6.845960
 20
2.857360
 11
7.495840
 21
3.230920
 12
6.854760
 22
2.847240
 13
7.504640
 23
3.220800
  0
POLYLINE
  8
0
  6
CONTINUOUS
 66
     1
 40
0.000000
 41
0.000000
  0
VERTEX
  8
0
  6
CONTINUOUS
 10
6.845960
 20
2.857360
  0
VERTEX
  8
0
  6
CONTINUOUS
 10
7.495840
 20
3.230920
  0
VERTEX
  8
0
  6
CONTINUOUS
 10
7.504640
 20
3.220800
  0
VERTEX
  8
0
  6
CONTINUOUS
 10
6.854760
 20
2.847240
  0
VERTEX
  8
0
  6
CONTINUOUS
 10
6.845960
 20
2.857360
  0
SEQEND
  8
0
  0
SOLID
  8
0
 62
    15
 10
6.854760
 20
2.847240
 11
7.504640
 21
3.220800
 12
6.865760
 22
2.822160
 13
7.515200
 23
3.195720
  0
POLYLINE
  8
0
  6
CONTINUOUS
 66
     1
 40
0.000000
 41
0.000000
  0
VERTEX
  8
0
  6
CONTINUOUS
 10
6.854760
 20
2.847240
  0
VERTEX
  8
0
  6
CONTINUOUS
 10
7.504640
 20
3.220800
  0
VERTEX
  8
0
  6
CONTINUOUS
 10
7.515200
 20
3.195720
  0
VERTEX
  8
0
  6
CONTINUOUS
 10
6.865760
 20
2.822160
  0
VERTEX
  8
0
  6
CONTINUOUS
 10
6.854760
 20
2.847240
  0
SEQEND
  8
0
  0
SOLID
  8
0
 62
    15
 10
6.865760
 20
2.822160
 11
7.515200
 21
3.195720
 12
6.867520
 22
2.792680
 13
7.516960
 23
3.166240
  0
POLYLINE
  8
0
  6
CONTINUOUS
 66
     1
 40
0.000000
 41
0.000000
  0
VERTEX
  8
0
  6
CONTINUOUS
 10
6.865760
 20
2.822160
  0
VERTEX
  8
0
  6
CONTINUOUS
 10
7.515200
 20
3.195720
  0
VERTEX
  8
0
  6
CONTINUOUS
 10
7.516960
 20
3.166240
  0
VERTEX
  8
0
  6
CONTINUOUS
 10
6.867520
 20
2.792680
  0
VERTEX
  8
0
  6
CONTINUOUS
 10
6.865760
 20
2.822160
  0
SEQEND
  8
0
  0
SOLID
  8
0
 62
    15
 10
6.867520
 20
2.792680
 11
7.516960
 21
3.166240
 12
6.861800
 22
2.759680
 13
7.511240
 23
3.133240
  0
POLYLINE
  8
0
  6
CONTINUOUS
 66
     1
 40
0.000000
 41
0.000000
  0
VERTEX
  8
0
  6
CONTINUOUS
 10
6.867520
 20
2.792680
  0
VERTEX
  8
0
  6
CONTINUOUS
 10
7.516960
 20
3.166240
  0
VERTEX
  8
0
  6
CONTINUOUS
 10
7.511240
 20
3.133240
  0
VERTEX
  8
0
  6
CONTINUOUS
 10
6.861800
 20
2.759680
  0
VERTEX
  8
0
  6
CONTINUOUS
 10
6.867520
 20
2.792680
  0
SEQEND
  8
0
  0
SOLID
  8
0
 62
    15
 10
6.861800
 20
2.759680
 11
7.511240
 21
3.133240
 12
6.848600
 22
2.724040
 13
7.498480
 23
3.098040
  0
POLYLINE
  8
0
  6
CONTINUOUS
 66
     1
 40
0.000000
 41
0.000000
  0
VERTEX
  8
0
  6
CONTINUOUS
 10
6.861800
 20
2.759680
  0
VERTEX
  8
0
  6
CONTINUOUS
 10
7.511240
 20
3.133240
  0
VERTEX
  8
0
  6
CONTINUOUS
 10
7.498480
 20
3.098040
  0
VERTEX
  8
0
  6
CONTINUOUS
 10
6.848600
 20
2.724040
  0
VERTEX
  8
0
  6
CONTINUOUS
 10
6.861800
 20
2.759680
  0
SEQEND
  8
0
  0
SOLID
  8
0
 62
    15
 10
6.848600
 20
2.724040
 11
7.498480
 21
3.098040
 12
6.829680
 22
2.687080
 13
7.479120
 23
3.060640
  0
POLYLINE
  8
0
  6
CONTINUOUS
 66
     1
 40
0.000000
 41
0.000000
  0
VERTEX
  8
0
  6
CONTINUOUS
 10
6.848600
 20
2.724040
  0
VERTEX
  8
0
  6
CONTINUOUS
 10
7.498480
 20
3.098040
  0
VERTEX
  8
0
  6
CONTINUOUS
 10
7.479120
 20
3.060640
  0
VERTEX
  8
0
  6
CONTINUOUS
 10
6.829680
 20
2.687080
  0
VERTEX
  8
0
  6
CONTINUOUS
 10
6.848600
 20
2.724040
  0
SEQEND
  8
0
  0
SOLID
  8
0
 62
    15
 10
6.829680
 20
2.687080
 11
7.479120
 21
3.060640
 12
6.831440
 22
2.687520
 13
7.480880
 23
3.061080
  0
POLYLINE
  8
0
  6
CONTINUOUS
 66
     1
 40
0.000000
 41
0.000000
  0
VERTEX
  8
0
  6
CONTINUOUS
 10
6.829680
 20
2.687080
  0
VERTEX
  8
0
  6
CONTINUOUS
 10
7.479120
 20
3.060640
  0
VERTEX
  8
0
  6
CONTINUOUS
 10
7.480880
 20
3.061080
  0
VERTEX
  8
0
  6
CONTINUOUS
 10
6.831440
 20
2.687520
  0
VERTEX
  8
0
  6
CONTINUOUS
 10
6.829680
 20
2.687080
  0
SEQEND
  8
0
  0
POLYLINE
  8
0
  6
CONTINUOUS
 66
     1
 40
0.000000
 41
0.000000
  0
VERTEX
  8
0
  6
CONTINUOUS
 10
6.831440
 20
2.687520
  0
VERTEX
  8
0
  6
CONTINUOUS
 10
6.900520
 20
2.671240
  0
VERTEX
  8
0
  6
CONTINUOUS
 10
6.962120
 20
2.651880
  0
VERTEX
  8
0
  6
CONTINUOUS
 10
7.017120
 20
2.629440
  0
VERTEX
  8
0
  6
CONTINUOUS
 10
7.065080
 20
2.605240
  0
VERTEX
  8
0
  6
CONTINUOUS
 10
7.106440
 20
2.579280
  0
VERTEX
  8
0
  6
CONTINUOUS
 10
7.141200
 20
2.551560
  0
VERTEX
  8
0
  6
CONTINUOUS
 10
7.169360
 20
2.522960
  0
VERTEX
  8
0
  6
CONTINUOUS
 10
7.191800
 20
2.493480
  0
VERTEX
  8
0
  6
CONTINUOUS
 10
7.207640
 20
2.464000
  0
VERTEX
  8
0
  6
CONTINUOUS
 10
7.218200
 20
2.434520
  0
VERTEX
  8
0
  6
CONTINUOUS
 10
7.222600
 20
2.405920
  0
VERTEX
  8
0
  6
CONTINUOUS
 10
7.221280
 20
2.378200
  0
VERTEX
  8
0
  6
CONTINUOUS
 10
7.215120
 20
2.351360
  0
VERTEX
  8
0
  6
CONTINUOUS
 10
7.203240
 20
2.326720
  0
VERTEX
  8
0
  6
CONTINUOUS
 10
7.186080
 20
2.303840
  0
VERTEX
  8
0
  6
CONTINUOUS
 10
7.164520
 20
2.283600
  0
VERTEX
  8
0
  6
CONTINUOUS
 10
7.164520
 20
2.281840
  0
VERTEX
  8
0
  6
CONTINUOUS
 10
7.168480
 20
2.275680
  0
VERTEX
  8
0
  6
CONTINUOUS
 10
7.197080
 20
2.273480
  0
VERTEX
  8
0
  6
CONTINUOUS
 10
7.219960
 20
2.267760
  0
VERTEX
  8
0
  6
CONTINUOUS
 10
7.238880
 20
2.259840
  0
VERTEX
  8
0
  6
CONTINUOUS
 10
7.253840
 20
2.249280
  0
VERTEX
  8
0
  6
CONTINUOUS
 10
7.265720
 20
2.236520
  0
VERTEX
  8
0
  6
CONTINUOUS
 10
7.273640
 20
2.222880
  0
VERTEX
  8
0
  6
CONTINUOUS
 10
7.278040
 20
2.208360
  0
VERTEX
  8
0
  6
CONTINUOUS
 10
7.278920
 20
2.192960
  0
VERTEX
  8
0
  6
CONTINUOUS
 10
7.276720
 20
2.177560
  0
VERTEX
  8
0
  6
CONTINUOUS
 10
7.271440
 20
2.163040
  0
VERTEX
  8
0
  6
CONTINUOUS
 10
7.262640
 20
2.148960
  0
VERTEX
  8
0
  6
CONTINUOUS
 10
7.251200
 20
2.136200
  0
VERTEX
  8
0
  6
CONTINUOUS
 10
7.236240
 20
2.125640
  0
VERTEX
  8
0
  6
CONTINUOUS
 10
7.218640
 20
2.117280
  0
VERTEX
  8
0
  6
CONTINUOUS
 10
7.197960
 20
2.111120
  0
VERTEX
  8
0
  6
CONTINUOUS
 10
7.175080
 20
2.108920
  0
VERTEX
  8
0
  6
CONTINUOUS
 10
6.658960
 20
2.108920
  0
VERTEX
  8
0
  6
CONTINUOUS
 10
6.658960
 20
2.953280
  0
VERTEX
  8
0
  6
CONTINUOUS
 10
6.754000
 20
2.953280
  0
VERTEX
  8
0
  6
CONTINUOUS
 10
6.754000
 20
2.883760
  0
VERTEX
  8
0
  6
CONTINUOUS
 10
6.784800
 20
2.882440
  0
VERTEX
  8
0
  6
CONTINUOUS
 10
6.804160
 20
2.878920
  0
VERTEX
  8
0
  6
CONTINUOUS
 10
6.820880
 20
2.873640
  0
VERTEX
  8
0
  6
CONTINUOUS
 10
6.834960
 20
2.866160
  0
VERTEX
  8
0
  6
CONTINUOUS
 10
6.845960
 20
2.857360
  0
VERTEX
  8
0
  6
CONTINUOUS
 10
6.854760
 20
2.847240
  0
VERTEX
  8
0
  6
CONTINUOUS
 10
6.865760
 20
2.822160
  0
VERTEX
  8
0
  6
CONTINUOUS
 10
6.867520
 20
2.792680
  0
VERTEX
  8
0
  6
CONTINUOUS
 10
6.861800
 20
2.759680
  0
VERTEX
  8
0
  6
CONTINUOUS
 10
6.848600
 20
2.724040
  0
VERTEX
  8
0
  6
CONTINUOUS
 10
6.829680
 20
2.687080
  0
VERTEX
  8
0
  6
CONTINUOUS
 10
6.831440
 20
2.687520
  0
SEQEND
  8
0
  0
TEXT
  8
0
 10
6.975320
 20
1.898160
 40
0.138069
  1
BA  431
 41
1.000000
  7
SN0
 71
     0
 72
     5
 11
7.565199
 21
1.898160
  0
TEXT
  8
0
 10
6.893040
 20
1.706320
 40
0.138069
  1
5/8" x 7/8" 
 41
1.000000
  7
SN0
 71
     0
 72
     5
 11
7.691757
 21
1.706320
  0
ENDSEC
  0
EOF
