  0
SECTION
  2
HEADER
  9
$ACADVER
  1
AC1006
  9
$EXTMIN
 10
4.191880
 20
0.645040
  9
$EXTMAX
 10
7.194440
 20
4.020280
  9
$LTSCALE
 40
0.044000
  9
$PDMODE
 70
    35
  9
$PDSIZE
 40
0.035200
  0
ENDSEC
  0
SECTION
  2
TABLES
  0
TABLE
  2
LTYPE
 70
     9
  0
LTYPE
  2
CONTINUOUS
 70
    64
  3
Solid line
 72
    65
 73
     0
 40
0.000000
  0
LTYPE
  2
DASHED
 70
    64
  3
__ __ __ __ __ __ __ __ __ __ __ __ __ __ __
 72
    65
 73
     2
 40
0.000330
 49
0.000220
 49
-0.000110
  0
LTYPE
  2
HIDDEN
 70
    64
  3
 _ _ _ _ _ _ _ _ _ _ _ _ _ _ _ _ _ _ _ _ _ _
 72
    65
 73
     2
 40
0.000165
 49
0.000110
 49
-0.000055
  0
LTYPE
  2
CENTER
 70
    64
  3
____ _ ____ _ ____ _ ____ _ ____ _ ____ _ ____
 72
    65
 73
     4
 40
0.000880
 49
0.000550
 49
-0.000110
 49
0.000110
 49
-0.000110
  0
LTYPE
  2
PHANTOM
 70
    64
  3
_____ _ _ _____ _ _ _____ _ _ _____ _ _ ____
 72
    65
 73
     6
 40
0.001100
 49
0.000550
 49
-0.000110
 49
0.000110
 49
-0.000110
 49
0.000110
 49
-0.000110
  0
LTYPE
  2
DOT
 70
    64
  3
...............................................
 72
    65
 73
     2
 40
0.000110
 49
0.000000
 49
-0.000110
  0
LTYPE
  2
DASHDOT
 70
    64
  3
__ . __ . __ . __ . __ . __ . __ . __ . __ . __
 72
    65
 73
     4
 40
0.000440
 49
0.000220
 49
-0.000110
 49
0.000000
 49
-0.000110
  0
LTYPE
  2
BORDER
 70
    64
  3
__ __ . __ __ . __ __ . __ __ . __ __ . __ __
 72
    65
 73
     6
 40
0.000770
 49
0.000220
 49
-0.000110
 49
0.000220
 49
-0.000110
 49
0.000000
 49
-0.000110
  0
LTYPE
  2
DIVIDE
 70
    64
  3
__ . . __ . . __ . . __ . . __ . . __ . . __
 72
    65
 73
     6
 40
0.000550
 49
0.000220
 49
-0.000110
 49
0.000000
 49
-0.000110
 49
0.000000
 49
-0.000110
  0
LTYPE
  2
DOTDOT
 70
    64
  3
 . .  . .  . .  . .  . .  . . 
 72
    65
 73
     5
 40
0.000242
 49
-0.000110
 49
0.000000
 49
-0.000110
 49
0.000000
 49
-0.000110
  0
ENDTAB
  0
TABLE
  2
STYLE
 70
     2
  0
STYLE
 70
     0
  2
SN0
 40
0.000000
 41
0.000440
 50
0.000000
 71
     0
 42
0.000000
  3
ROMAND
  0
STYLE
 70
    68
  2
SV0
 40
0.000000
 41
0.000440
 50
0.000000
 71
     0
 42
0.000000
  3
ROMAND
  0
ENDTAB
  0
TABLE
  2
LAYER
 70
     3
  0
LAYER
  2
FOREGROUND
 70
    64
 62
     7
  6
CONTINUOUS
  0
LAYER
  2
BACKGROUND
 70
    65
 62
    -7
  6
CONTINUOUS
  0
LAYER
  2
0
 70
    64
 62
     7
  6
CONTINUOUS
  0
ENDTAB
  0
ENDSEC
  0
SECTION
  2
ENTITIES
  0
POLYLINE
  8
FOREGROUND
  6
CONTINUOUS
 66
     1
 40
0.000000
 41
0.000000
  0
VERTEX
  8
FOREGROUND
  6
CONTINUOUS
 10
0.000000
 20
4.665320
  0
VERTEX
  8
FOREGROUND
  6
CONTINUOUS
 10
8.499920
 20
4.665320
  0
VERTEX
  8
FOREGROUND
  6
CONTINUOUS
 10
8.499920
 20
-6.334680
  0
VERTEX
  8
FOREGROUND
  6
CONTINUOUS
 10
0.000000
 20
-6.334680
  0
VERTEX
  8
FOREGROUND
  6
CONTINUOUS
 10
0.000000
 20
4.665320
  0
SEQEND
  8
0
  0
POLYLINE
  8
FOREGROUND
  6
CONTINUOUS
 66
     1
 40
0.000000
 41
0.000000
  0
VERTEX
  8
FOREGROUND
  6
CONTINUOUS
 10
0.000000
 20
4.665320
  0
VERTEX
  8
FOREGROUND
  6
CONTINUOUS
 10
8.499920
 20
4.665320
  0
VERTEX
  8
FOREGROUND
  6
CONTINUOUS
 10
8.499920
 20
-6.334680
  0
VERTEX
  8
FOREGROUND
  6
CONTINUOUS
 10
0.000000
 20
-6.334680
  0
VERTEX
  8
FOREGROUND
  6
CONTINUOUS
 10
0.000000
 20
4.665320
  0
SEQEND
  8
0
  0
POLYLINE
  8
0
  6
CONTINUOUS
 66
     1
 40
0.014080
 41
0.014080
  0
VERTEX
  8
0
  6
CONTINUOUS
 10
5.574360
 20
3.776960
  0
VERTEX
  8
0
  6
CONTINUOUS
 10
5.620120
 20
3.668720
  0
VERTEX
  8
0
  6
CONTINUOUS
 10
5.647400
 20
3.668720
  0
VERTEX
  8
0
  6
CONTINUOUS
 10
5.649160
 20
3.686320
  0
VERTEX
  8
0
  6
CONTINUOUS
 10
5.658840
 20
3.711400
  0
VERTEX
  8
0
  6
CONTINUOUS
 10
5.675120
 20
3.732520
  0
VERTEX
  8
0
  6
CONTINUOUS
 10
5.688760
 20
3.744400
  0
VERTEX
  8
0
  6
CONTINUOUS
 10
5.712520
 20
3.756280
  0
VERTEX
  8
0
  6
CONTINUOUS
 10
5.730120
 20
3.760240
  0
VERTEX
  8
0
  6
CONTINUOUS
 10
5.747720
 20
3.760240
  0
VERTEX
  8
0
  6
CONTINUOUS
 10
5.764440
 20
3.756720
  0
VERTEX
  8
0
  6
CONTINUOUS
 10
5.779840
 20
3.749680
  0
VERTEX
  8
0
  6
CONTINUOUS
 10
5.799640
 20
3.733840
  0
VERTEX
  8
0
  6
CONTINUOUS
 10
5.814160
 20
3.713160
  0
VERTEX
  8
0
  6
CONTINUOUS
 10
5.822520
 20
3.688520
  0
VERTEX
  8
0
  6
CONTINUOUS
 10
5.824280
 20
3.668720
  0
VERTEX
  8
0
  6
CONTINUOUS
 10
5.859920
 20
3.668720
  0
VERTEX
  8
0
  6
CONTINUOUS
 10
5.861680
 20
3.670920
  0
VERTEX
  8
0
  6
CONTINUOUS
 10
5.863880
 20
3.688520
  0
VERTEX
  8
0
  6
CONTINUOUS
 10
5.869160
 20
3.705240
  0
VERTEX
  8
0
  6
CONTINUOUS
 10
5.883680
 20
3.727240
  0
VERTEX
  8
0
  6
CONTINUOUS
 10
5.903480
 20
3.744840
  0
VERTEX
  8
0
  6
CONTINUOUS
 10
5.918880
 20
3.753200
  0
VERTEX
  8
0
  6
CONTINUOUS
 10
5.936040
 20
3.758920
  0
VERTEX
  8
0
  6
CONTINUOUS
 10
5.953640
 20
3.760680
  0
VERTEX
  8
0
  6
CONTINUOUS
 10
5.971240
 20
3.758920
  0
VERTEX
  8
0
  6
CONTINUOUS
 10
5.987960
 20
3.753200
  0
VERTEX
  8
0
  6
CONTINUOUS
 10
6.002920
 20
3.744840
  0
VERTEX
  8
0
  6
CONTINUOUS
 10
6.022280
 20
3.727240
  0
VERTEX
  8
0
  6
CONTINUOUS
 10
6.035920
 20
3.705240
  0
VERTEX
  8
0
  6
CONTINUOUS
 10
6.041200
 20
3.688520
  0
VERTEX
  8
0
  6
CONTINUOUS
 10
6.042960
 20
3.668720
  0
VERTEX
  8
0
  6
CONTINUOUS
 10
6.078600
 20
3.668720
  0
VERTEX
  8
0
  6
CONTINUOUS
 10
6.080360
 20
3.688520
  0
VERTEX
  8
0
  6
CONTINUOUS
 10
6.090040
 20
3.713160
  0
VERTEX
  8
0
  6
CONTINUOUS
 10
6.106320
 20
3.733840
  0
VERTEX
  8
0
  6
CONTINUOUS
 10
6.127440
 20
3.749680
  0
VERTEX
  8
0
  6
CONTINUOUS
 10
6.143720
 20
3.756720
  0
VERTEX
  8
0
  6
CONTINUOUS
 10
6.161320
 20
3.760240
  0
VERTEX
  8
0
  6
CONTINUOUS
 10
6.178920
 20
3.760240
  0
VERTEX
  8
0
  6
CONTINUOUS
 10
6.196080
 20
3.756720
  0
VERTEX
  8
0
  6
CONTINUOUS
 10
6.212360
 20
3.749680
  0
VERTEX
  8
0
  6
CONTINUOUS
 10
6.233040
 20
3.733840
  0
VERTEX
  8
0
  6
CONTINUOUS
 10
6.248880
 20
3.713160
  0
VERTEX
  8
0
  6
CONTINUOUS
 10
6.255920
 20
3.696880
  0
VERTEX
  8
0
  6
CONTINUOUS
 10
6.259440
 20
3.679720
  0
VERTEX
  8
0
  6
CONTINUOUS
 10
6.259880
 20
3.670920
  0
VERTEX
  8
0
  6
CONTINUOUS
 10
6.263840
 20
3.668720
  0
VERTEX
  8
0
  6
CONTINUOUS
 10
6.655440
 20
3.668280
  0
VERTEX
  8
0
  6
CONTINUOUS
 10
6.666440
 20
3.664760
  0
VERTEX
  8
0
  6
CONTINUOUS
 10
6.678320
 20
3.654200
  0
VERTEX
  8
0
  6
CONTINUOUS
 10
6.683600
 20
3.645400
  0
VERTEX
  8
0
  6
CONTINUOUS
 10
6.689760
 20
3.626480
  0
VERTEX
  8
0
  6
CONTINUOUS
 10
6.692840
 20
3.601840
  0
VERTEX
  8
0
  6
CONTINUOUS
 10
6.699440
 20
3.581600
  0
VERTEX
  8
0
  6
CONTINUOUS
 10
6.709560
 20
3.561800
  0
VERTEX
  8
0
  6
CONTINUOUS
 10
6.725400
 20
3.539800
  0
VERTEX
  8
0
  6
CONTINUOUS
 10
6.747400
 20
3.517360
  0
VERTEX
  8
0
  6
CONTINUOUS
 10
6.777320
 20
3.495360
  0
VERTEX
  8
0
  6
CONTINUOUS
 10
6.815600
 20
3.475120
  0
VERTEX
  8
0
  6
CONTINUOUS
 10
6.846840
 20
3.463680
  0
VERTEX
  8
0
  6
CONTINUOUS
 10
6.882480
 20
3.454000
  0
VERTEX
  8
0
  6
CONTINUOUS
 10
6.923400
 20
3.446960
  0
VERTEX
  8
0
  6
CONTINUOUS
 10
6.970040
 20
3.442560
  0
VERTEX
  8
0
  6
CONTINUOUS
 10
6.997320
 20
3.441680
  0
VERTEX
  8
0
  6
CONTINUOUS
 10
6.997320
 20
3.220800
  0
VERTEX
  8
0
  6
CONTINUOUS
 10
6.995120
 20
3.219040
  0
VERTEX
  8
0
  6
CONTINUOUS
 10
4.199360
 20
3.219040
  0
VERTEX
  8
0
  6
CONTINUOUS
 10
4.199360
 20
4.012360
  0
VERTEX
  8
0
  6
CONTINUOUS
 10
4.863760
 20
4.012360
  0
VERTEX
  8
0
  6
CONTINUOUS
 10
4.863760
 20
3.966600
  0
VERTEX
  8
0
  6
CONTINUOUS
 10
4.912160
 20
3.967040
  0
VERTEX
  8
0
  6
CONTINUOUS
 10
4.955280
 20
3.964400
  0
VERTEX
  8
0
  6
CONTINUOUS
 10
4.994000
 20
3.958680
  0
VERTEX
  8
0
  6
CONTINUOUS
 10
5.028320
 20
3.950320
  0
VERTEX
  8
0
  6
CONTINUOUS
 10
5.058240
 20
3.939760
  0
VERTEX
  8
0
  6
CONTINUOUS
 10
5.096080
 20
3.920400
  0
VERTEX
  8
0
  6
CONTINUOUS
 10
5.116760
 20
3.905880
  0
VERTEX
  8
0
  6
CONTINUOUS
 10
5.141840
 20
3.882120
  0
VERTEX
  8
0
  6
CONTINUOUS
 10
5.154600
 20
3.865400
  0
VERTEX
  8
0
  6
CONTINUOUS
 10
5.165160
 20
3.849120
  0
VERTEX
  8
0
  6
CONTINUOUS
 10
5.173080
 20
3.833280
  0
VERTEX
  8
0
  6
CONTINUOUS
 10
5.182320
 20
3.803360
  0
VERTEX
  8
0
  6
CONTINUOUS
 10
5.184520
 20
3.790160
  0
VERTEX
  8
0
  6
CONTINUOUS
 10
5.184960
 20
3.776960
  0
VERTEX
  8
0
  6
CONTINUOUS
 10
5.574360
 20
3.776960
  0
SEQEND
  8
0
  0
SOLID
  8
0
 62
    15
 10
6.442920
 20
1.633280
 11
6.449520
 21
2.370720
 12
6.450400
 22
1.598960
 13
6.456560
 23
2.336400
  0
POLYLINE
  8
0
  6
CONTINUOUS
 66
     1
 40
0.000000
 41
0.000000
  0
VERTEX
  8
0
  6
CONTINUOUS
 10
6.442920
 20
1.633280
  0
VERTEX
  8
0
  6
CONTINUOUS
 10
6.449520
 20
2.370720
  0
VERTEX
  8
0
  6
CONTINUOUS
 10
6.456560
 20
2.336400
  0
VERTEX
  8
0
  6
CONTINUOUS
 10
6.450400
 20
1.598960
  0
VERTEX
  8
0
  6
CONTINUOUS
 10
6.442920
 20
1.633280
  0
SEQEND
  8
0
  0
SOLID
  8
0
 62
    15
 10
5.810640
 20
1.597200
 11
5.817240
 21
2.334200
 12
5.837920
 22
1.597200
 13
5.844080
 23
2.334200
  0
POLYLINE
  8
0
  6
CONTINUOUS
 66
     1
 40
0.000000
 41
0.000000
  0
VERTEX
  8
0
  6
CONTINUOUS
 10
5.810640
 20
1.597200
  0
VERTEX
  8
0
  6
CONTINUOUS
 10
5.817240
 20
2.334200
  0
VERTEX
  8
0
  6
CONTINUOUS
 10
5.844080
 20
2.334200
  0
VERTEX
  8
0
  6
CONTINUOUS
 10
5.837920
 20
1.597200
  0
VERTEX
  8
0
  6
CONTINUOUS
 10
5.810640
 20
1.597200
  0
SEQEND
  8
0
  0
SOLID
  8
0
 62
    15
 10
5.837920
 20
1.597200
 11
5.844080
 21
2.334200
 12
5.839680
 22
1.614800
 13
5.846280
 23
2.351800
  0
POLYLINE
  8
0
  6
CONTINUOUS
 66
     1
 40
0.000000
 41
0.000000
  0
VERTEX
  8
0
  6
CONTINUOUS
 10
5.837920
 20
1.597200
  0
VERTEX
  8
0
  6
CONTINUOUS
 10
5.844080
 20
2.334200
  0
VERTEX
  8
0
  6
CONTINUOUS
 10
5.846280
 20
2.351800
  0
VERTEX
  8
0
  6
CONTINUOUS
 10
5.839680
 20
1.614800
  0
VERTEX
  8
0
  6
CONTINUOUS
 10
5.837920
 20
1.597200
  0
SEQEND
  8
0
  0
SOLID
  8
0
 62
    15
 10
5.839680
 20
1.614800
 11
5.846280
 21
2.351800
 12
5.845400
 22
1.631520
 13
5.852000
 23
2.368960
  0
POLYLINE
  8
0
  6
CONTINUOUS
 66
     1
 40
0.000000
 41
0.000000
  0
VERTEX
  8
0
  6
CONTINUOUS
 10
5.839680
 20
1.614800
  0
VERTEX
  8
0
  6
CONTINUOUS
 10
5.846280
 20
2.351800
  0
VERTEX
  8
0
  6
CONTINUOUS
 10
5.852000
 20
2.368960
  0
VERTEX
  8
0
  6
CONTINUOUS
 10
5.845400
 20
1.631520
  0
VERTEX
  8
0
  6
CONTINUOUS
 10
5.839680
 20
1.614800
  0
SEQEND
  8
0
  0
SOLID
  8
0
 62
    15
 10
5.845400
 20
1.631520
 11
5.852000
 21
2.368960
 12
5.865640
 22
1.661000
 13
5.872240
 23
2.398000
  0
POLYLINE
  8
0
  6
CONTINUOUS
 66
     1
 40
0.000000
 41
0.000000
  0
VERTEX
  8
0
  6
CONTINUOUS
 10
5.845400
 20
1.631520
  0
VERTEX
  8
0
  6
CONTINUOUS
 10
5.852000
 20
2.368960
  0
VERTEX
  8
0
  6
CONTINUOUS
 10
5.872240
 20
2.398000
  0
VERTEX
  8
0
  6
CONTINUOUS
 10
5.865640
 20
1.661000
  0
VERTEX
  8
0
  6
CONTINUOUS
 10
5.845400
 20
1.631520
  0
SEQEND
  8
0
  0
SOLID
  8
0
 62
    15
 10
5.865640
 20
1.661000
 11
5.872240
 21
2.398000
 12
5.894680
 22
1.681240
 13
5.901280
 23
2.418240
  0
POLYLINE
  8
0
  6
CONTINUOUS
 66
     1
 40
0.000000
 41
0.000000
  0
VERTEX
  8
0
  6
CONTINUOUS
 10
5.865640
 20
1.661000
  0
VERTEX
  8
0
  6
CONTINUOUS
 10
5.872240
 20
2.398000
  0
VERTEX
  8
0
  6
CONTINUOUS
 10
5.901280
 20
2.418240
  0
VERTEX
  8
0
  6
CONTINUOUS
 10
5.894680
 20
1.681240
  0
VERTEX
  8
0
  6
CONTINUOUS
 10
5.865640
 20
1.661000
  0
SEQEND
  8
0
  0
SOLID
  8
0
 62
    15
 10
5.894680
 20
1.681240
 11
5.901280
 21
2.418240
 12
5.911840
 22
1.686520
 13
5.918000
 23
2.423960
  0
POLYLINE
  8
0
  6
CONTINUOUS
 66
     1
 40
0.000000
 41
0.000000
  0
VERTEX
  8
0
  6
CONTINUOUS
 10
5.894680
 20
1.681240
  0
VERTEX
  8
0
  6
CONTINUOUS
 10
5.901280
 20
2.418240
  0
VERTEX
  8
0
  6
CONTINUOUS
 10
5.918000
 20
2.423960
  0
VERTEX
  8
0
  6
CONTINUOUS
 10
5.911840
 20
1.686520
  0
VERTEX
  8
0
  6
CONTINUOUS
 10
5.894680
 20
1.681240
  0
SEQEND
  8
0
  0
SOLID
  8
0
 62
    15
 10
5.911840
 20
1.686520
 11
5.918000
 21
2.423960
 12
5.929440
 22
1.688720
 13
5.936040
 23
2.425720
  0
POLYLINE
  8
0
  6
CONTINUOUS
 66
     1
 40
0.000000
 41
0.000000
  0
VERTEX
  8
0
  6
CONTINUOUS
 10
5.911840
 20
1.686520
  0
VERTEX
  8
0
  6
CONTINUOUS
 10
5.918000
 20
2.423960
  0
VERTEX
  8
0
  6
CONTINUOUS
 10
5.936040
 20
2.425720
  0
VERTEX
  8
0
  6
CONTINUOUS
 10
5.929440
 20
1.688720
  0
VERTEX
  8
0
  6
CONTINUOUS
 10
5.911840
 20
1.686520
  0
SEQEND
  8
0
  0
SOLID
  8
0
 62
    15
 10
5.929440
 20
1.688720
 11
5.936040
 21
2.425720
 12
5.947040
 22
1.686960
 13
5.953200
 23
2.423960
  0
POLYLINE
  8
0
  6
CONTINUOUS
 66
     1
 40
0.000000
 41
0.000000
  0
VERTEX
  8
0
  6
CONTINUOUS
 10
5.929440
 20
1.688720
  0
VERTEX
  8
0
  6
CONTINUOUS
 10
5.936040
 20
2.425720
  0
VERTEX
  8
0
  6
CONTINUOUS
 10
5.953200
 20
2.423960
  0
VERTEX
  8
0
  6
CONTINUOUS
 10
5.947040
 20
1.686960
  0
VERTEX
  8
0
  6
CONTINUOUS
 10
5.929440
 20
1.688720
  0
SEQEND
  8
0
  0
SOLID
  8
0
 62
    15
 10
5.947040
 20
1.686960
 11
5.953200
 21
2.423960
 12
5.962880
 22
1.681680
 13
5.969480
 23
2.418680
  0
POLYLINE
  8
0
  6
CONTINUOUS
 66
     1
 40
0.000000
 41
0.000000
  0
VERTEX
  8
0
  6
CONTINUOUS
 10
5.947040
 20
1.686960
  0
VERTEX
  8
0
  6
CONTINUOUS
 10
5.953200
 20
2.423960
  0
VERTEX
  8
0
  6
CONTINUOUS
 10
5.969480
 20
2.418680
  0
VERTEX
  8
0
  6
CONTINUOUS
 10
5.962880
 20
1.681680
  0
VERTEX
  8
0
  6
CONTINUOUS
 10
5.947040
 20
1.686960
  0
SEQEND
  8
0
  0
SOLID
  8
0
 62
    15
 10
5.962880
 20
1.681680
 11
5.969480
 21
2.418680
 12
5.990160
 22
1.661880
 13
5.996320
 23
2.398880
  0
POLYLINE
  8
0
  6
CONTINUOUS
 66
     1
 40
0.000000
 41
0.000000
  0
VERTEX
  8
0
  6
CONTINUOUS
 10
5.962880
 20
1.681680
  0
VERTEX
  8
0
  6
CONTINUOUS
 10
5.969480
 20
2.418680
  0
VERTEX
  8
0
  6
CONTINUOUS
 10
5.996320
 20
2.398880
  0
VERTEX
  8
0
  6
CONTINUOUS
 10
5.990160
 20
1.661880
  0
VERTEX
  8
0
  6
CONTINUOUS
 10
5.962880
 20
1.681680
  0
SEQEND
  8
0
  0
SOLID
  8
0
 62
    15
 10
5.990160
 20
1.661880
 11
5.996320
 21
2.398880
 12
6.008200
 22
1.633280
 13
6.014800
 23
2.370720
  0
POLYLINE
  8
0
  6
CONTINUOUS
 66
     1
 40
0.000000
 41
0.000000
  0
VERTEX
  8
0
  6
CONTINUOUS
 10
5.990160
 20
1.661880
  0
VERTEX
  8
0
  6
CONTINUOUS
 10
5.996320
 20
2.398880
  0
VERTEX
  8
0
  6
CONTINUOUS
 10
6.014800
 20
2.370720
  0
VERTEX
  8
0
  6
CONTINUOUS
 10
6.008200
 20
1.633280
  0
VERTEX
  8
0
  6
CONTINUOUS
 10
5.990160
 20
1.661880
  0
SEQEND
  8
0
  0
SOLID
  8
0
 62
    15
 10
6.008200
 20
1.633280
 11
6.014800
 21
2.370720
 12
6.014800
 22
1.598960
 13
6.021400
 23
2.336400
  0
POLYLINE
  8
0
  6
CONTINUOUS
 66
     1
 40
0.000000
 41
0.000000
  0
VERTEX
  8
0
  6
CONTINUOUS
 10
6.008200
 20
1.633280
  0
VERTEX
  8
0
  6
CONTINUOUS
 10
6.014800
 20
2.370720
  0
VERTEX
  8
0
  6
CONTINUOUS
 10
6.021400
 20
2.336400
  0
VERTEX
  8
0
  6
CONTINUOUS
 10
6.014800
 20
1.598960
  0
VERTEX
  8
0
  6
CONTINUOUS
 10
6.008200
 20
1.633280
  0
SEQEND
  8
0
  0
SOLID
  8
0
 62
    15
 10
6.014800
 20
1.598960
 11
6.021400
 21
2.336400
 12
6.014800
 22
1.597200
 13
6.021400
 23
2.334200
  0
POLYLINE
  8
0
  6
CONTINUOUS
 66
     1
 40
0.000000
 41
0.000000
  0
VERTEX
  8
0
  6
CONTINUOUS
 10
6.014800
 20
1.598960
  0
VERTEX
  8
0
  6
CONTINUOUS
 10
6.021400
 20
2.336400
  0
VERTEX
  8
0
  6
CONTINUOUS
 10
6.021400
 20
2.334200
  0
VERTEX
  8
0
  6
CONTINUOUS
 10
6.014800
 20
1.597200
  0
VERTEX
  8
0
  6
CONTINUOUS
 10
6.014800
 20
1.598960
  0
SEQEND
  8
0
  0
SOLID
  8
0
 62
    15
 10
6.014800
 20
1.597200
 11
6.021400
 21
2.334200
 12
6.050440
 22
1.597200
 13
6.056600
 23
2.334200
  0
POLYLINE
  8
0
  6
CONTINUOUS
 66
     1
 40
0.000000
 41
0.000000
  0
VERTEX
  8
0
  6
CONTINUOUS
 10
6.014800
 20
1.597200
  0
VERTEX
  8
0
  6
CONTINUOUS
 10
6.021400
 20
2.334200
  0
VERTEX
  8
0
  6
CONTINUOUS
 10
6.056600
 20
2.334200
  0
VERTEX
  8
0
  6
CONTINUOUS
 10
6.050440
 20
1.597200
  0
VERTEX
  8
0
  6
CONTINUOUS
 10
6.014800
 20
1.597200
  0
SEQEND
  8
0
  0
SOLID
  8
0
 62
    15
 10
6.050440
 20
1.597200
 11
6.056600
 21
2.334200
 12
6.052200
 22
1.598960
 13
6.058800
 23
2.336400
  0
POLYLINE
  8
0
  6
CONTINUOUS
 66
     1
 40
0.000000
 41
0.000000
  0
VERTEX
  8
0
  6
CONTINUOUS
 10
6.050440
 20
1.597200
  0
VERTEX
  8
0
  6
CONTINUOUS
 10
6.056600
 20
2.334200
  0
VERTEX
  8
0
  6
CONTINUOUS
 10
6.058800
 20
2.336400
  0
VERTEX
  8
0
  6
CONTINUOUS
 10
6.052200
 20
1.598960
  0
VERTEX
  8
0
  6
CONTINUOUS
 10
6.050440
 20
1.597200
  0
SEQEND
  8
0
  0
SOLID
  8
0
 62
    15
 10
6.052200
 20
1.598960
 11
6.058800
 21
2.336400
 12
6.054400
 22
1.616560
 13
6.061000
 23
2.354000
  0
POLYLINE
  8
0
  6
CONTINUOUS
 66
     1
 40
0.000000
 41
0.000000
  0
VERTEX
  8
0
  6
CONTINUOUS
 10
6.052200
 20
1.598960
  0
VERTEX
  8
0
  6
CONTINUOUS
 10
6.058800
 20
2.336400
  0
VERTEX
  8
0
  6
CONTINUOUS
 10
6.061000
 20
2.354000
  0
VERTEX
  8
0
  6
CONTINUOUS
 10
6.054400
 20
1.616560
  0
VERTEX
  8
0
  6
CONTINUOUS
 10
6.052200
 20
1.598960
  0
SEQEND
  8
0
  0
SOLID
  8
0
 62
    15
 10
6.054400
 20
1.616560
 11
6.061000
 21
2.354000
 12
6.060120
 22
1.633280
 13
6.066280
 23
2.370720
  0
POLYLINE
  8
0
  6
CONTINUOUS
 66
     1
 40
0.000000
 41
0.000000
  0
VERTEX
  8
0
  6
CONTINUOUS
 10
6.054400
 20
1.616560
  0
VERTEX
  8
0
  6
CONTINUOUS
 10
6.061000
 20
2.354000
  0
VERTEX
  8
0
  6
CONTINUOUS
 10
6.066280
 20
2.370720
  0
VERTEX
  8
0
  6
CONTINUOUS
 10
6.060120
 20
1.633280
  0
VERTEX
  8
0
  6
CONTINUOUS
 10
6.054400
 20
1.616560
  0
SEQEND
  8
0
  0
SOLID
  8
0
 62
    15
 10
6.060120
 20
1.633280
 11
6.066280
 21
2.370720
 12
6.080360
 22
1.661880
 13
6.086520
 23
2.398880
  0
POLYLINE
  8
0
  6
CONTINUOUS
 66
     1
 40
0.000000
 41
0.000000
  0
VERTEX
  8
0
  6
CONTINUOUS
 10
6.060120
 20
1.633280
  0
VERTEX
  8
0
  6
CONTINUOUS
 10
6.066280
 20
2.370720
  0
VERTEX
  8
0
  6
CONTINUOUS
 10
6.086520
 20
2.398880
  0
VERTEX
  8
0
  6
CONTINUOUS
 10
6.080360
 20
1.661880
  0
VERTEX
  8
0
  6
CONTINUOUS
 10
6.060120
 20
1.633280
  0
SEQEND
  8
0
  0
SOLID
  8
0
 62
    15
 10
6.080360
 20
1.661880
 11
6.086520
 21
2.398880
 12
6.109400
 22
1.681680
 13
6.116000
 23
2.418680
  0
POLYLINE
  8
0
  6
CONTINUOUS
 66
     1
 40
0.000000
 41
0.000000
  0
VERTEX
  8
0
  6
CONTINUOUS
 10
6.080360
 20
1.661880
  0
VERTEX
  8
0
  6
CONTINUOUS
 10
6.086520
 20
2.398880
  0
VERTEX
  8
0
  6
CONTINUOUS
 10
6.116000
 20
2.418680
  0
VERTEX
  8
0
  6
CONTINUOUS
 10
6.109400
 20
1.681680
  0
VERTEX
  8
0
  6
CONTINUOUS
 10
6.080360
 20
1.661880
  0
SEQEND
  8
0
  0
SOLID
  8
0
 62
    15
 10
6.109400
 20
1.681680
 11
6.116000
 21
2.418680
 12
6.144160
 22
1.688720
 13
6.150320
 23
2.425720
  0
POLYLINE
  8
0
  6
CONTINUOUS
 66
     1
 40
0.000000
 41
0.000000
  0
VERTEX
  8
0
  6
CONTINUOUS
 10
6.109400
 20
1.681680
  0
VERTEX
  8
0
  6
CONTINUOUS
 10
6.116000
 20
2.418680
  0
VERTEX
  8
0
  6
CONTINUOUS
 10
6.150320
 20
2.425720
  0
VERTEX
  8
0
  6
CONTINUOUS
 10
6.144160
 20
1.688720
  0
VERTEX
  8
0
  6
CONTINUOUS
 10
6.109400
 20
1.681680
  0
SEQEND
  8
0
  0
SOLID
  8
0
 62
    15
 10
6.144160
 20
1.688720
 11
6.150320
 21
2.425720
 12
6.178040
 22
1.681680
 13
6.184640
 23
2.418680
  0
POLYLINE
  8
0
  6
CONTINUOUS
 66
     1
 40
0.000000
 41
0.000000
  0
VERTEX
  8
0
  6
CONTINUOUS
 10
6.144160
 20
1.688720
  0
VERTEX
  8
0
  6
CONTINUOUS
 10
6.150320
 20
2.425720
  0
VERTEX
  8
0
  6
CONTINUOUS
 10
6.184640
 20
2.418680
  0
VERTEX
  8
0
  6
CONTINUOUS
 10
6.178040
 20
1.681680
  0
VERTEX
  8
0
  6
CONTINUOUS
 10
6.144160
 20
1.688720
  0
SEQEND
  8
0
  0
SOLID
  8
0
 62
    15
 10
6.178040
 20
1.681680
 11
6.184640
 21
2.418680
 12
6.206640
 22
1.661880
 13
6.213240
 23
2.398880
  0
POLYLINE
  8
0
  6
CONTINUOUS
 66
     1
 40
0.000000
 41
0.000000
  0
VERTEX
  8
0
  6
CONTINUOUS
 10
6.178040
 20
1.681680
  0
VERTEX
  8
0
  6
CONTINUOUS
 10
6.184640
 20
2.418680
  0
VERTEX
  8
0
  6
CONTINUOUS
 10
6.213240
 20
2.398880
  0
VERTEX
  8
0
  6
CONTINUOUS
 10
6.206640
 20
1.661880
  0
VERTEX
  8
0
  6
CONTINUOUS
 10
6.178040
 20
1.681680
  0
SEQEND
  8
0
  0
SOLID
  8
0
 62
    15
 10
6.206640
 20
1.661880
 11
6.213240
 21
2.398880
 12
6.226440
 22
1.633280
 13
6.232600
 23
2.370720
  0
POLYLINE
  8
0
  6
CONTINUOUS
 66
     1
 40
0.000000
 41
0.000000
  0
VERTEX
  8
0
  6
CONTINUOUS
 10
6.206640
 20
1.661880
  0
VERTEX
  8
0
  6
CONTINUOUS
 10
6.213240
 20
2.398880
  0
VERTEX
  8
0
  6
CONTINUOUS
 10
6.232600
 20
2.370720
  0
VERTEX
  8
0
  6
CONTINUOUS
 10
6.226440
 20
1.633280
  0
VERTEX
  8
0
  6
CONTINUOUS
 10
6.206640
 20
1.661880
  0
SEQEND
  8
0
  0
SOLID
  8
0
 62
    15
 10
6.233480
 20
1.597200
 11
6.240080
 21
2.334200
 12
6.269120
 22
1.597200
 13
6.275280
 23
2.334200
  0
POLYLINE
  8
0
  6
CONTINUOUS
 66
     1
 40
0.000000
 41
0.000000
  0
VERTEX
  8
0
  6
CONTINUOUS
 10
6.233480
 20
1.597200
  0
VERTEX
  8
0
  6
CONTINUOUS
 10
6.240080
 20
2.334200
  0
VERTEX
  8
0
  6
CONTINUOUS
 10
6.275280
 20
2.334200
  0
VERTEX
  8
0
  6
CONTINUOUS
 10
6.269120
 20
1.597200
  0
VERTEX
  8
0
  6
CONTINUOUS
 10
6.233480
 20
1.597200
  0
SEQEND
  8
0
  0
SOLID
  8
0
 62
    15
 10
6.233480
 20
1.598960
 11
6.240080
 21
2.336400
 12
6.233480
 22
1.597200
 13
6.240080
 23
2.334200
  0
POLYLINE
  8
0
  6
CONTINUOUS
 66
     1
 40
0.000000
 41
0.000000
  0
VERTEX
  8
0
  6
CONTINUOUS
 10
6.233480
 20
1.598960
  0
VERTEX
  8
0
  6
CONTINUOUS
 10
6.240080
 20
2.336400
  0
VERTEX
  8
0
  6
CONTINUOUS
 10
6.240080
 20
2.334200
  0
VERTEX
  8
0
  6
CONTINUOUS
 10
6.233480
 20
1.597200
  0
VERTEX
  8
0
  6
CONTINUOUS
 10
6.233480
 20
1.598960
  0
SEQEND
  8
0
  0
SOLID
  8
0
 62
    15
 10
6.226440
 20
1.633280
 11
6.232600
 21
2.370720
 12
6.233480
 22
1.598960
 13
6.240080
 23
2.336400
  0
POLYLINE
  8
0
  6
CONTINUOUS
 66
     1
 40
0.000000
 41
0.000000
  0
VERTEX
  8
0
  6
CONTINUOUS
 10
6.226440
 20
1.633280
  0
VERTEX
  8
0
  6
CONTINUOUS
 10
6.232600
 20
2.370720
  0
VERTEX
  8
0
  6
CONTINUOUS
 10
6.240080
 20
2.336400
  0
VERTEX
  8
0
  6
CONTINUOUS
 10
6.233480
 20
1.598960
  0
VERTEX
  8
0
  6
CONTINUOUS
 10
6.226440
 20
1.633280
  0
SEQEND
  8
0
  0
SOLID
  8
0
 62
    15
 10
6.269120
 20
1.597200
 11
6.275280
 21
2.334200
 12
6.269120
 22
1.598960
 13
6.275280
 23
2.336400
  0
POLYLINE
  8
0
  6
CONTINUOUS
 66
     1
 40
0.000000
 41
0.000000
  0
VERTEX
  8
0
  6
CONTINUOUS
 10
6.269120
 20
1.597200
  0
VERTEX
  8
0
  6
CONTINUOUS
 10
6.275280
 20
2.334200
  0
VERTEX
  8
0
  6
CONTINUOUS
 10
6.275280
 20
2.336400
  0
VERTEX
  8
0
  6
CONTINUOUS
 10
6.269120
 20
1.598960
  0
VERTEX
  8
0
  6
CONTINUOUS
 10
6.269120
 20
1.597200
  0
SEQEND
  8
0
  0
SOLID
  8
0
 62
    15
 10
6.269120
 20
1.598960
 11
6.275280
 21
2.336400
 12
6.270880
 22
1.616560
 13
6.277480
 23
2.354000
  0
POLYLINE
  8
0
  6
CONTINUOUS
 66
     1
 40
0.000000
 41
0.000000
  0
VERTEX
  8
0
  6
CONTINUOUS
 10
6.269120
 20
1.598960
  0
VERTEX
  8
0
  6
CONTINUOUS
 10
6.275280
 20
2.336400
  0
VERTEX
  8
0
  6
CONTINUOUS
 10
6.277480
 20
2.354000
  0
VERTEX
  8
0
  6
CONTINUOUS
 10
6.270880
 20
1.616560
  0
VERTEX
  8
0
  6
CONTINUOUS
 10
6.269120
 20
1.598960
  0
SEQEND
  8
0
  0
SOLID
  8
0
 62
    15
 10
6.270880
 20
1.616560
 11
6.277480
 21
2.354000
 12
6.276600
 22
1.633280
 13
6.283200
 23
2.370720
  0
POLYLINE
  8
0
  6
CONTINUOUS
 66
     1
 40
0.000000
 41
0.000000
  0
VERTEX
  8
0
  6
CONTINUOUS
 10
6.270880
 20
1.616560
  0
VERTEX
  8
0
  6
CONTINUOUS
 10
6.277480
 20
2.354000
  0
VERTEX
  8
0
  6
CONTINUOUS
 10
6.283200
 20
2.370720
  0
VERTEX
  8
0
  6
CONTINUOUS
 10
6.276600
 20
1.633280
  0
VERTEX
  8
0
  6
CONTINUOUS
 10
6.270880
 20
1.616560
  0
SEQEND
  8
0
  0
SOLID
  8
0
 62
    15
 10
6.276600
 20
1.633280
 11
6.283200
 21
2.370720
 12
6.296840
 22
1.661880
 13
6.303440
 23
2.398880
  0
POLYLINE
  8
0
  6
CONTINUOUS
 66
     1
 40
0.000000
 41
0.000000
  0
VERTEX
  8
0
  6
CONTINUOUS
 10
6.276600
 20
1.633280
  0
VERTEX
  8
0
  6
CONTINUOUS
 10
6.283200
 20
2.370720
  0
VERTEX
  8
0
  6
CONTINUOUS
 10
6.303440
 20
2.398880
  0
VERTEX
  8
0
  6
CONTINUOUS
 10
6.296840
 20
1.661880
  0
VERTEX
  8
0
  6
CONTINUOUS
 10
6.276600
 20
1.633280
  0
SEQEND
  8
0
  0
SOLID
  8
0
 62
    15
 10
6.296840
 20
1.661880
 11
6.303440
 21
2.398880
 12
6.326320
 22
1.681680
 13
6.332480
 23
2.418680
  0
POLYLINE
  8
0
  6
CONTINUOUS
 66
     1
 40
0.000000
 41
0.000000
  0
VERTEX
  8
0
  6
CONTINUOUS
 10
6.296840
 20
1.661880
  0
VERTEX
  8
0
  6
CONTINUOUS
 10
6.303440
 20
2.398880
  0
VERTEX
  8
0
  6
CONTINUOUS
 10
6.332480
 20
2.418680
  0
VERTEX
  8
0
  6
CONTINUOUS
 10
6.326320
 20
1.681680
  0
VERTEX
  8
0
  6
CONTINUOUS
 10
6.296840
 20
1.661880
  0
SEQEND
  8
0
  0
SOLID
  8
0
 62
    15
 10
6.326320
 20
1.681680
 11
6.332480
 21
2.418680
 12
6.360640
 22
1.688720
 13
6.367240
 23
2.425720
  0
POLYLINE
  8
0
  6
CONTINUOUS
 66
     1
 40
0.000000
 41
0.000000
  0
VERTEX
  8
0
  6
CONTINUOUS
 10
6.326320
 20
1.681680
  0
VERTEX
  8
0
  6
CONTINUOUS
 10
6.332480
 20
2.418680
  0
VERTEX
  8
0
  6
CONTINUOUS
 10
6.367240
 20
2.425720
  0
VERTEX
  8
0
  6
CONTINUOUS
 10
6.360640
 20
1.688720
  0
VERTEX
  8
0
  6
CONTINUOUS
 10
6.326320
 20
1.681680
  0
SEQEND
  8
0
  0
SOLID
  8
0
 62
    15
 10
6.360640
 20
1.688720
 11
6.367240
 21
2.425720
 12
6.394960
 22
1.681680
 13
6.401120
 23
2.418680
  0
POLYLINE
  8
0
  6
CONTINUOUS
 66
     1
 40
0.000000
 41
0.000000
  0
VERTEX
  8
0
  6
CONTINUOUS
 10
6.360640
 20
1.688720
  0
VERTEX
  8
0
  6
CONTINUOUS
 10
6.367240
 20
2.425720
  0
VERTEX
  8
0
  6
CONTINUOUS
 10
6.401120
 20
2.418680
  0
VERTEX
  8
0
  6
CONTINUOUS
 10
6.394960
 20
1.681680
  0
VERTEX
  8
0
  6
CONTINUOUS
 10
6.360640
 20
1.688720
  0
SEQEND
  8
0
  0
SOLID
  8
0
 62
    15
 10
6.394960
 20
1.681680
 11
6.401120
 21
2.418680
 12
6.423560
 22
1.661880
 13
6.429720
 23
2.398880
  0
POLYLINE
  8
0
  6
CONTINUOUS
 66
     1
 40
0.000000
 41
0.000000
  0
VERTEX
  8
0
  6
CONTINUOUS
 10
6.394960
 20
1.681680
  0
VERTEX
  8
0
  6
CONTINUOUS
 10
6.401120
 20
2.418680
  0
VERTEX
  8
0
  6
CONTINUOUS
 10
6.429720
 20
2.398880
  0
VERTEX
  8
0
  6
CONTINUOUS
 10
6.423560
 20
1.661880
  0
VERTEX
  8
0
  6
CONTINUOUS
 10
6.394960
 20
1.681680
  0
SEQEND
  8
0
  0
SOLID
  8
0
 62
    15
 10
6.423560
 20
1.661880
 11
6.429720
 21
2.398880
 12
6.442920
 22
1.633280
 13
6.449520
 23
2.370720
  0
POLYLINE
  8
0
  6
CONTINUOUS
 66
     1
 40
0.000000
 41
0.000000
  0
VERTEX
  8
0
  6
CONTINUOUS
 10
6.423560
 20
1.661880
  0
VERTEX
  8
0
  6
CONTINUOUS
 10
6.429720
 20
2.398880
  0
VERTEX
  8
0
  6
CONTINUOUS
 10
6.449520
 20
2.370720
  0
VERTEX
  8
0
  6
CONTINUOUS
 10
6.442920
 20
1.633280
  0
VERTEX
  8
0
  6
CONTINUOUS
 10
6.423560
 20
1.661880
  0
SEQEND
  8
0
  0
SOLID
  8
0
 62
    15
 10
5.764880
 20
1.705440
 11
5.771480
 21
2.442440
 12
5.810640
 22
1.597200
 13
5.817240
 23
2.334200
  0
POLYLINE
  8
0
  6
CONTINUOUS
 66
     1
 40
0.000000
 41
0.000000
  0
VERTEX
  8
0
  6
CONTINUOUS
 10
5.764880
 20
1.705440
  0
VERTEX
  8
0
  6
CONTINUOUS
 10
5.771480
 20
2.442440
  0
VERTEX
  8
0
  6
CONTINUOUS
 10
5.817240
 20
2.334200
  0
VERTEX
  8
0
  6
CONTINUOUS
 10
5.810640
 20
1.597200
  0
VERTEX
  8
0
  6
CONTINUOUS
 10
5.764880
 20
1.705440
  0
SEQEND
  8
0
  0
SOLID
  8
0
 62
    15
 10
6.450400
 20
1.598960
 11
6.456560
 21
2.336400
 12
6.454360
 22
1.597200
 13
6.460960
 23
2.334200
  0
POLYLINE
  8
0
  6
CONTINUOUS
 66
     1
 40
0.000000
 41
0.000000
  0
VERTEX
  8
0
  6
CONTINUOUS
 10
6.450400
 20
1.598960
  0
VERTEX
  8
0
  6
CONTINUOUS
 10
6.456560
 20
2.336400
  0
VERTEX
  8
0
  6
CONTINUOUS
 10
6.460960
 20
2.334200
  0
VERTEX
  8
0
  6
CONTINUOUS
 10
6.454360
 20
1.597200
  0
VERTEX
  8
0
  6
CONTINUOUS
 10
6.450400
 20
1.598960
  0
SEQEND
  8
0
  0
SOLID
  8
0
 62
    15
 10
6.454360
 20
1.597200
 11
6.460960
 21
2.334200
 12
6.839800
 22
1.597200
 13
6.846400
 23
2.334200
  0
POLYLINE
  8
0
  6
CONTINUOUS
 66
     1
 40
0.000000
 41
0.000000
  0
VERTEX
  8
0
  6
CONTINUOUS
 10
6.454360
 20
1.597200
  0
VERTEX
  8
0
  6
CONTINUOUS
 10
6.460960
 20
2.334200
  0
VERTEX
  8
0
  6
CONTINUOUS
 10
6.846400
 20
2.334200
  0
VERTEX
  8
0
  6
CONTINUOUS
 10
6.839800
 20
1.597200
  0
VERTEX
  8
0
  6
CONTINUOUS
 10
6.454360
 20
1.597200
  0
SEQEND
  8
0
  0
SOLID
  8
0
 62
    15
 10
6.839800
 20
1.597200
 11
6.846400
 21
2.334200
 12
6.851680
 22
1.595000
 13
6.858280
 23
2.332440
  0
POLYLINE
  8
0
  6
CONTINUOUS
 66
     1
 40
0.000000
 41
0.000000
  0
VERTEX
  8
0
  6
CONTINUOUS
 10
6.839800
 20
1.597200
  0
VERTEX
  8
0
  6
CONTINUOUS
 10
6.846400
 20
2.334200
  0
VERTEX
  8
0
  6
CONTINUOUS
 10
6.858280
 20
2.332440
  0
VERTEX
  8
0
  6
CONTINUOUS
 10
6.851680
 20
1.595000
  0
VERTEX
  8
0
  6
CONTINUOUS
 10
6.839800
 20
1.597200
  0
SEQEND
  8
0
  0
SOLID
  8
0
 62
    15
 10
6.851680
 20
1.595000
 11
6.858280
 21
2.332440
 12
6.861360
 22
1.590160
 13
6.867960
 23
2.327160
  0
POLYLINE
  8
0
  6
CONTINUOUS
 66
     1
 40
0.000000
 41
0.000000
  0
VERTEX
  8
0
  6
CONTINUOUS
 10
6.851680
 20
1.595000
  0
VERTEX
  8
0
  6
CONTINUOUS
 10
6.858280
 20
2.332440
  0
VERTEX
  8
0
  6
CONTINUOUS
 10
6.867960
 20
2.327160
  0
VERTEX
  8
0
  6
CONTINUOUS
 10
6.861360
 20
1.590160
  0
VERTEX
  8
0
  6
CONTINUOUS
 10
6.851680
 20
1.595000
  0
SEQEND
  8
0
  0
SOLID
  8
0
 62
    15
 10
6.861360
 20
1.590160
 11
6.867960
 21
2.327160
 12
6.874120
 22
1.573440
 13
6.880280
 23
2.310880
  0
POLYLINE
  8
0
  6
CONTINUOUS
 66
     1
 40
0.000000
 41
0.000000
  0
VERTEX
  8
0
  6
CONTINUOUS
 10
6.861360
 20
1.590160
  0
VERTEX
  8
0
  6
CONTINUOUS
 10
6.867960
 20
2.327160
  0
VERTEX
  8
0
  6
CONTINUOUS
 10
6.880280
 20
2.310880
  0
VERTEX
  8
0
  6
CONTINUOUS
 10
6.874120
 20
1.573440
  0
VERTEX
  8
0
  6
CONTINUOUS
 10
6.861360
 20
1.590160
  0
SEQEND
  8
0
  0
SOLID
  8
0
 62
    15
 10
6.881600
 20
1.540880
 11
6.887760
 21
2.277880
 12
6.883360
 22
1.530320
 13
6.889520
 23
2.267320
  0
POLYLINE
  8
0
  6
CONTINUOUS
 66
     1
 40
0.000000
 41
0.000000
  0
VERTEX
  8
0
  6
CONTINUOUS
 10
6.881600
 20
1.540880
  0
VERTEX
  8
0
  6
CONTINUOUS
 10
6.887760
 20
2.277880
  0
VERTEX
  8
0
  6
CONTINUOUS
 10
6.889520
 20
2.267320
  0
VERTEX
  8
0
  6
CONTINUOUS
 10
6.883360
 20
1.530320
  0
VERTEX
  8
0
  6
CONTINUOUS
 10
6.881600
 20
1.540880
  0
SEQEND
  8
0
  0
SOLID
  8
0
 62
    15
 10
6.879840
 20
1.554960
 11
6.886440
 21
2.291960
 12
6.881600
 22
1.540880
 13
6.887760
 23
2.277880
  0
POLYLINE
  8
0
  6
CONTINUOUS
 66
     1
 40
0.000000
 41
0.000000
  0
VERTEX
  8
0
  6
CONTINUOUS
 10
6.879840
 20
1.554960
  0
VERTEX
  8
0
  6
CONTINUOUS
 10
6.886440
 20
2.291960
  0
VERTEX
  8
0
  6
CONTINUOUS
 10
6.887760
 20
2.277880
  0
VERTEX
  8
0
  6
CONTINUOUS
 10
6.881600
 20
1.540880
  0
VERTEX
  8
0
  6
CONTINUOUS
 10
6.879840
 20
1.554960
  0
SEQEND
  8
0
  0
SOLID
  8
0
 62
    15
 10
6.874120
 20
1.573440
 11
6.880280
 21
2.310880
 12
6.879840
 22
1.554960
 13
6.886440
 23
2.291960
  0
POLYLINE
  8
0
  6
CONTINUOUS
 66
     1
 40
0.000000
 41
0.000000
  0
VERTEX
  8
0
  6
CONTINUOUS
 10
6.874120
 20
1.573440
  0
VERTEX
  8
0
  6
CONTINUOUS
 10
6.880280
 20
2.310880
  0
VERTEX
  8
0
  6
CONTINUOUS
 10
6.886440
 20
2.291960
  0
VERTEX
  8
0
  6
CONTINUOUS
 10
6.879840
 20
1.554960
  0
VERTEX
  8
0
  6
CONTINUOUS
 10
6.874120
 20
1.573440
  0
SEQEND
  8
0
  0
SOLID
  8
0
 62
    15
 10
6.883360
 20
1.530320
 11
6.889520
 21
2.267320
 12
6.889960
 22
1.509640
 13
6.896560
 23
2.247080
  0
POLYLINE
  8
0
  6
CONTINUOUS
 66
     1
 40
0.000000
 41
0.000000
  0
VERTEX
  8
0
  6
CONTINUOUS
 10
6.883360
 20
1.530320
  0
VERTEX
  8
0
  6
CONTINUOUS
 10
6.889520
 20
2.267320
  0
VERTEX
  8
0
  6
CONTINUOUS
 10
6.896560
 20
2.247080
  0
VERTEX
  8
0
  6
CONTINUOUS
 10
6.889960
 20
1.509640
  0
VERTEX
  8
0
  6
CONTINUOUS
 10
6.883360
 20
1.530320
  0
SEQEND
  8
0
  0
SOLID
  8
0
 62
    15
 10
6.889960
 20
1.509640
 11
6.896560
 21
2.247080
 12
6.904480
 22
1.482800
 13
6.911080
 23
2.220240
  0
POLYLINE
  8
0
  6
CONTINUOUS
 66
     1
 40
0.000000
 41
0.000000
  0
VERTEX
  8
0
  6
CONTINUOUS
 10
6.889960
 20
1.509640
  0
VERTEX
  8
0
  6
CONTINUOUS
 10
6.896560
 20
2.247080
  0
VERTEX
  8
0
  6
CONTINUOUS
 10
6.911080
 20
2.220240
  0
VERTEX
  8
0
  6
CONTINUOUS
 10
6.904480
 20
1.482800
  0
VERTEX
  8
0
  6
CONTINUOUS
 10
6.889960
 20
1.509640
  0
SEQEND
  8
0
  0
SOLID
  8
0
 62
    15
 10
6.904480
 20
1.482800
 11
6.911080
 21
2.220240
 12
6.929560
 22
1.452880
 13
6.936160
 23
2.190320
  0
POLYLINE
  8
0
  6
CONTINUOUS
 66
     1
 40
0.000000
 41
0.000000
  0
VERTEX
  8
0
  6
CONTINUOUS
 10
6.904480
 20
1.482800
  0
VERTEX
  8
0
  6
CONTINUOUS
 10
6.911080
 20
2.220240
  0
VERTEX
  8
0
  6
CONTINUOUS
 10
6.936160
 20
2.190320
  0
VERTEX
  8
0
  6
CONTINUOUS
 10
6.929560
 20
1.452880
  0
VERTEX
  8
0
  6
CONTINUOUS
 10
6.904480
 20
1.482800
  0
SEQEND
  8
0
  0
SOLID
  8
0
 62
    15
 10
6.929560
 20
1.452880
 11
6.936160
 21
2.190320
 12
6.967840
 22
1.423400
 13
6.974000
 23
2.160840
  0
POLYLINE
  8
0
  6
CONTINUOUS
 66
     1
 40
0.000000
 41
0.000000
  0
VERTEX
  8
0
  6
CONTINUOUS
 10
6.929560
 20
1.452880
  0
VERTEX
  8
0
  6
CONTINUOUS
 10
6.936160
 20
2.190320
  0
VERTEX
  8
0
  6
CONTINUOUS
 10
6.974000
 20
2.160840
  0
VERTEX
  8
0
  6
CONTINUOUS
 10
6.967840
 20
1.423400
  0
VERTEX
  8
0
  6
CONTINUOUS
 10
6.929560
 20
1.452880
  0
SEQEND
  8
0
  0
SOLID
  8
0
 62
    15
 10
6.967840
 20
1.423400
 11
6.974000
 21
2.160840
 12
6.992480
 22
1.409760
 13
6.998640
 23
2.147200
  0
POLYLINE
  8
0
  6
CONTINUOUS
 66
     1
 40
0.000000
 41
0.000000
  0
VERTEX
  8
0
  6
CONTINUOUS
 10
6.967840
 20
1.423400
  0
VERTEX
  8
0
  6
CONTINUOUS
 10
6.974000
 20
2.160840
  0
VERTEX
  8
0
  6
CONTINUOUS
 10
6.998640
 20
2.147200
  0
VERTEX
  8
0
  6
CONTINUOUS
 10
6.992480
 20
1.409760
  0
VERTEX
  8
0
  6
CONTINUOUS
 10
6.967840
 20
1.423400
  0
SEQEND
  8
0
  0
SOLID
  8
0
 62
    15
 10
6.992480
 20
1.409760
 11
6.998640
 21
2.147200
 12
7.021080
 22
1.397440
 13
7.027680
 23
2.134880
  0
POLYLINE
  8
0
  6
CONTINUOUS
 66
     1
 40
0.000000
 41
0.000000
  0
VERTEX
  8
0
  6
CONTINUOUS
 10
6.992480
 20
1.409760
  0
VERTEX
  8
0
  6
CONTINUOUS
 10
6.998640
 20
2.147200
  0
VERTEX
  8
0
  6
CONTINUOUS
 10
7.027680
 20
2.134880
  0
VERTEX
  8
0
  6
CONTINUOUS
 10
7.021080
 20
1.397440
  0
VERTEX
  8
0
  6
CONTINUOUS
 10
6.992480
 20
1.409760
  0
SEQEND
  8
0
  0
SOLID
  8
0
 62
    15
 10
7.021080
 20
1.397440
 11
7.027680
 21
2.134880
 12
7.054520
 22
1.386880
 13
7.061120
 23
2.124320
  0
POLYLINE
  8
0
  6
CONTINUOUS
 66
     1
 40
0.000000
 41
0.000000
  0
VERTEX
  8
0
  6
CONTINUOUS
 10
7.021080
 20
1.397440
  0
VERTEX
  8
0
  6
CONTINUOUS
 10
7.027680
 20
2.134880
  0
VERTEX
  8
0
  6
CONTINUOUS
 10
7.061120
 20
2.124320
  0
VERTEX
  8
0
  6
CONTINUOUS
 10
7.054520
 20
1.386880
  0
VERTEX
  8
0
  6
CONTINUOUS
 10
7.021080
 20
1.397440
  0
SEQEND
  8
0
  0
SOLID
  8
0
 62
    15
 10
7.054520
 20
1.386880
 11
7.061120
 21
2.124320
 12
7.092800
 22
1.378520
 13
7.099400
 23
2.115960
  0
POLYLINE
  8
0
  6
CONTINUOUS
 66
     1
 40
0.000000
 41
0.000000
  0
VERTEX
  8
0
  6
CONTINUOUS
 10
7.054520
 20
1.386880
  0
VERTEX
  8
0
  6
CONTINUOUS
 10
7.061120
 20
2.124320
  0
VERTEX
  8
0
  6
CONTINUOUS
 10
7.099400
 20
2.115960
  0
VERTEX
  8
0
  6
CONTINUOUS
 10
7.092800
 20
1.378520
  0
VERTEX
  8
0
  6
CONTINUOUS
 10
7.054520
 20
1.386880
  0
SEQEND
  8
0
  0
SOLID
  8
0
 62
    15
 10
7.092800
 20
1.378520
 11
7.099400
 21
2.115960
 12
7.136360
 22
1.372800
 13
7.142960
 23
2.109800
  0
POLYLINE
  8
0
  6
CONTINUOUS
 66
     1
 40
0.000000
 41
0.000000
  0
VERTEX
  8
0
  6
CONTINUOUS
 10
7.092800
 20
1.378520
  0
VERTEX
  8
0
  6
CONTINUOUS
 10
7.099400
 20
2.115960
  0
VERTEX
  8
0
  6
CONTINUOUS
 10
7.142960
 20
2.109800
  0
VERTEX
  8
0
  6
CONTINUOUS
 10
7.136360
 20
1.372800
  0
VERTEX
  8
0
  6
CONTINUOUS
 10
7.092800
 20
1.378520
  0
SEQEND
  8
0
  0
SOLID
  8
0
 62
    15
 10
7.136360
 20
1.372800
 11
7.142960
 21
2.109800
 12
7.185640
 22
1.370160
 13
7.192240
 23
2.107160
  0
POLYLINE
  8
0
  6
CONTINUOUS
 66
     1
 40
0.000000
 41
0.000000
  0
VERTEX
  8
0
  6
CONTINUOUS
 10
7.136360
 20
1.372800
  0
VERTEX
  8
0
  6
CONTINUOUS
 10
7.142960
 20
2.109800
  0
VERTEX
  8
0
  6
CONTINUOUS
 10
7.192240
 20
2.107160
  0
VERTEX
  8
0
  6
CONTINUOUS
 10
7.185640
 20
1.370160
  0
VERTEX
  8
0
  6
CONTINUOUS
 10
7.136360
 20
1.372800
  0
SEQEND
  8
0
  0
SOLID
  8
0
 62
    15
 10
7.187840
 20
1.370160
 11
7.194000
 21
2.107160
 12
7.187840
 22
1.149280
 13
7.194000
 23
1.886280
  0
POLYLINE
  8
0
  6
CONTINUOUS
 66
     1
 40
0.000000
 41
0.000000
  0
VERTEX
  8
0
  6
CONTINUOUS
 10
7.187840
 20
1.370160
  0
VERTEX
  8
0
  6
CONTINUOUS
 10
7.194000
 20
2.107160
  0
VERTEX
  8
0
  6
CONTINUOUS
 10
7.194000
 20
1.886280
  0
VERTEX
  8
0
  6
CONTINUOUS
 10
7.187840
 20
1.149280
  0
VERTEX
  8
0
  6
CONTINUOUS
 10
7.187840
 20
1.370160
  0
SEQEND
  8
0
  0
SOLID
  8
0
 62
    15
 10
7.185640
 20
1.370160
 11
7.192240
 21
2.107160
 12
7.187840
 22
1.370160
 13
7.194000
 23
2.107160
  0
POLYLINE
  8
0
  6
CONTINUOUS
 66
     1
 40
0.000000
 41
0.000000
  0
VERTEX
  8
0
  6
CONTINUOUS
 10
7.185640
 20
1.370160
  0
VERTEX
  8
0
  6
CONTINUOUS
 10
7.192240
 20
2.107160
  0
VERTEX
  8
0
  6
CONTINUOUS
 10
7.194000
 20
2.107160
  0
VERTEX
  8
0
  6
CONTINUOUS
 10
7.187840
 20
1.370160
  0
VERTEX
  8
0
  6
CONTINUOUS
 10
7.185640
 20
1.370160
  0
SEQEND
  8
0
  0
SOLID
  8
0
 62
    15
 10
4.389880
 20
1.940840
 11
4.396480
 21
2.677840
 12
5.054280
 22
1.940840
 13
5.060880
 23
2.677840
  0
POLYLINE
  8
0
  6
CONTINUOUS
 66
     1
 40
0.000000
 41
0.000000
  0
VERTEX
  8
0
  6
CONTINUOUS
 10
4.389880
 20
1.940840
  0
VERTEX
  8
0
  6
CONTINUOUS
 10
4.396480
 20
2.677840
  0
VERTEX
  8
0
  6
CONTINUOUS
 10
5.060880
 20
2.677840
  0
VERTEX
  8
0
  6
CONTINUOUS
 10
5.054280
 20
1.940840
  0
VERTEX
  8
0
  6
CONTINUOUS
 10
4.389880
 20
1.940840
  0
SEQEND
  8
0
  0
SOLID
  8
0
 62
    15
 10
5.054280
 20
1.940840
 11
5.060880
 21
2.677840
 12
5.054280
 22
1.895080
 13
5.060880
 23
2.632080
  0
POLYLINE
  8
0
  6
CONTINUOUS
 66
     1
 40
0.000000
 41
0.000000
  0
VERTEX
  8
0
  6
CONTINUOUS
 10
5.054280
 20
1.940840
  0
VERTEX
  8
0
  6
CONTINUOUS
 10
5.060880
 20
2.677840
  0
VERTEX
  8
0
  6
CONTINUOUS
 10
5.060880
 20
2.632080
  0
VERTEX
  8
0
  6
CONTINUOUS
 10
5.054280
 20
1.895080
  0
VERTEX
  8
0
  6
CONTINUOUS
 10
5.054280
 20
1.940840
  0
SEQEND
  8
0
  0
SOLID
  8
0
 62
    15
 10
5.054280
 20
1.895080
 11
5.060880
 21
2.632080
 12
5.102680
 22
1.895520
 13
5.109280
 23
2.632520
  0
POLYLINE
  8
0
  6
CONTINUOUS
 66
     1
 40
0.000000
 41
0.000000
  0
VERTEX
  8
0
  6
CONTINUOUS
 10
5.054280
 20
1.895080
  0
VERTEX
  8
0
  6
CONTINUOUS
 10
5.060880
 20
2.632080
  0
VERTEX
  8
0
  6
CONTINUOUS
 10
5.109280
 20
2.632520
  0
VERTEX
  8
0
  6
CONTINUOUS
 10
5.102680
 20
1.895520
  0
VERTEX
  8
0
  6
CONTINUOUS
 10
5.054280
 20
1.895080
  0
SEQEND
  8
0
  0
SOLID
  8
0
 62
    15
 10
5.102680
 20
1.895520
 11
5.109280
 21
2.632520
 12
5.145800
 22
1.892880
 13
5.152400
 23
2.629880
  0
POLYLINE
  8
0
  6
CONTINUOUS
 66
     1
 40
0.000000
 41
0.000000
  0
VERTEX
  8
0
  6
CONTINUOUS
 10
5.102680
 20
1.895520
  0
VERTEX
  8
0
  6
CONTINUOUS
 10
5.109280
 20
2.632520
  0
VERTEX
  8
0
  6
CONTINUOUS
 10
5.152400
 20
2.629880
  0
VERTEX
  8
0
  6
CONTINUOUS
 10
5.145800
 20
1.892880
  0
VERTEX
  8
0
  6
CONTINUOUS
 10
5.102680
 20
1.895520
  0
SEQEND
  8
0
  0
SOLID
  8
0
 62
    15
 10
5.145800
 20
1.892880
 11
5.152400
 21
2.629880
 12
5.184520
 22
1.887160
 13
5.191120
 23
2.624160
  0
POLYLINE
  8
0
  6
CONTINUOUS
 66
     1
 40
0.000000
 41
0.000000
  0
VERTEX
  8
0
  6
CONTINUOUS
 10
5.145800
 20
1.892880
  0
VERTEX
  8
0
  6
CONTINUOUS
 10
5.152400
 20
2.629880
  0
VERTEX
  8
0
  6
CONTINUOUS
 10
5.191120
 20
2.624160
  0
VERTEX
  8
0
  6
CONTINUOUS
 10
5.184520
 20
1.887160
  0
VERTEX
  8
0
  6
CONTINUOUS
 10
5.145800
 20
1.892880
  0
SEQEND
  8
0
  0
SOLID
  8
0
 62
    15
 10
5.184520
 20
1.887160
 11
5.191120
 21
2.624160
 12
5.218840
 22
1.878800
 13
5.225440
 23
2.615800
  0
POLYLINE
  8
0
  6
CONTINUOUS
 66
     1
 40
0.000000
 41
0.000000
  0
VERTEX
  8
0
  6
CONTINUOUS
 10
5.184520
 20
1.887160
  0
VERTEX
  8
0
  6
CONTINUOUS
 10
5.191120
 20
2.624160
  0
VERTEX
  8
0
  6
CONTINUOUS
 10
5.225440
 20
2.615800
  0
VERTEX
  8
0
  6
CONTINUOUS
 10
5.218840
 20
1.878800
  0
VERTEX
  8
0
  6
CONTINUOUS
 10
5.184520
 20
1.887160
  0
SEQEND
  8
0
  0
SOLID
  8
0
 62
    15
 10
5.218840
 20
1.878800
 11
5.225440
 21
2.615800
 12
5.248760
 22
1.867800
 13
5.255360
 23
2.605240
  0
POLYLINE
  8
0
  6
CONTINUOUS
 66
     1
 40
0.000000
 41
0.000000
  0
VERTEX
  8
0
  6
CONTINUOUS
 10
5.218840
 20
1.878800
  0
VERTEX
  8
0
  6
CONTINUOUS
 10
5.225440
 20
2.615800
  0
VERTEX
  8
0
  6
CONTINUOUS
 10
5.255360
 20
2.605240
  0
VERTEX
  8
0
  6
CONTINUOUS
 10
5.248760
 20
1.867800
  0
VERTEX
  8
0
  6
CONTINUOUS
 10
5.218840
 20
1.878800
  0
SEQEND
  8
0
  0
SOLID
  8
0
 62
    15
 10
5.248760
 20
1.867800
 11
5.255360
 21
2.605240
 12
5.274720
 22
1.855480
 13
5.281320
 23
2.592480
  0
POLYLINE
  8
0
  6
CONTINUOUS
 66
     1
 40
0.000000
 41
0.000000
  0
VERTEX
  8
0
  6
CONTINUOUS
 10
5.248760
 20
1.867800
  0
VERTEX
  8
0
  6
CONTINUOUS
 10
5.255360
 20
2.605240
  0
VERTEX
  8
0
  6
CONTINUOUS
 10
5.281320
 20
2.592480
  0
VERTEX
  8
0
  6
CONTINUOUS
 10
5.274720
 20
1.855480
  0
VERTEX
  8
0
  6
CONTINUOUS
 10
5.248760
 20
1.867800
  0
SEQEND
  8
0
  0
SOLID
  8
0
 62
    15
 10
5.274720
 20
1.855480
 11
5.281320
 21
2.592480
 12
5.316520
 22
1.826440
 13
5.322680
 23
2.563440
  0
POLYLINE
  8
0
  6
CONTINUOUS
 66
     1
 40
0.000000
 41
0.000000
  0
VERTEX
  8
0
  6
CONTINUOUS
 10
5.274720
 20
1.855480
  0
VERTEX
  8
0
  6
CONTINUOUS
 10
5.281320
 20
2.592480
  0
VERTEX
  8
0
  6
CONTINUOUS
 10
5.322680
 20
2.563440
  0
VERTEX
  8
0
  6
CONTINUOUS
 10
5.316520
 20
1.826440
  0
VERTEX
  8
0
  6
CONTINUOUS
 10
5.274720
 20
1.855480
  0
SEQEND
  8
0
  0
SOLID
  8
0
 62
    15
 10
5.316520
 20
1.826440
 11
5.322680
 21
2.563440
 12
5.345120
 22
1.793880
 13
5.351720
 23
2.530880
  0
POLYLINE
  8
0
  6
CONTINUOUS
 66
     1
 40
0.000000
 41
0.000000
  0
VERTEX
  8
0
  6
CONTINUOUS
 10
5.316520
 20
1.826440
  0
VERTEX
  8
0
  6
CONTINUOUS
 10
5.322680
 20
2.563440
  0
VERTEX
  8
0
  6
CONTINUOUS
 10
5.351720
 20
2.530880
  0
VERTEX
  8
0
  6
CONTINUOUS
 10
5.345120
 20
1.793880
  0
VERTEX
  8
0
  6
CONTINUOUS
 10
5.316520
 20
1.826440
  0
SEQEND
  8
0
  0
SOLID
  8
0
 62
    15
 10
5.345120
 20
1.793880
 11
5.351720
 21
2.530880
 12
5.363160
 22
1.761320
 13
5.369760
 23
2.498760
  0
POLYLINE
  8
0
  6
CONTINUOUS
 66
     1
 40
0.000000
 41
0.000000
  0
VERTEX
  8
0
  6
CONTINUOUS
 10
5.345120
 20
1.793880
  0
VERTEX
  8
0
  6
CONTINUOUS
 10
5.351720
 20
2.530880
  0
VERTEX
  8
0
  6
CONTINUOUS
 10
5.369760
 20
2.498760
  0
VERTEX
  8
0
  6
CONTINUOUS
 10
5.363160
 20
1.761320
  0
VERTEX
  8
0
  6
CONTINUOUS
 10
5.345120
 20
1.793880
  0
SEQEND
  8
0
  0
SOLID
  8
0
 62
    15
 10
5.363160
 20
1.761320
 11
5.369760
 21
2.498760
 12
5.372400
 22
1.731400
 13
5.379000
 23
2.468840
  0
POLYLINE
  8
0
  6
CONTINUOUS
 66
     1
 40
0.000000
 41
0.000000
  0
VERTEX
  8
0
  6
CONTINUOUS
 10
5.363160
 20
1.761320
  0
VERTEX
  8
0
  6
CONTINUOUS
 10
5.369760
 20
2.498760
  0
VERTEX
  8
0
  6
CONTINUOUS
 10
5.379000
 20
2.468840
  0
VERTEX
  8
0
  6
CONTINUOUS
 10
5.372400
 20
1.731400
  0
VERTEX
  8
0
  6
CONTINUOUS
 10
5.363160
 20
1.761320
  0
SEQEND
  8
0
  0
SOLID
  8
0
 62
    15
 10
5.372400
 20
1.731400
 11
5.379000
 21
2.468840
 12
5.375040
 22
1.707640
 13
5.381640
 23
2.444640
  0
POLYLINE
  8
0
  6
CONTINUOUS
 66
     1
 40
0.000000
 41
0.000000
  0
VERTEX
  8
0
  6
CONTINUOUS
 10
5.372400
 20
1.731400
  0
VERTEX
  8
0
  6
CONTINUOUS
 10
5.379000
 20
2.468840
  0
VERTEX
  8
0
  6
CONTINUOUS
 10
5.381640
 20
2.444640
  0
VERTEX
  8
0
  6
CONTINUOUS
 10
5.375040
 20
1.707640
  0
VERTEX
  8
0
  6
CONTINUOUS
 10
5.372400
 20
1.731400
  0
SEQEND
  8
0
  0
SOLID
  8
0
 62
    15
 10
5.375040
 20
1.707640
 11
5.381640
 21
2.444640
 12
5.375480
 22
1.705440
 13
5.381640
 23
2.442440
  0
POLYLINE
  8
0
  6
CONTINUOUS
 66
     1
 40
0.000000
 41
0.000000
  0
VERTEX
  8
0
  6
CONTINUOUS
 10
5.375040
 20
1.707640
  0
VERTEX
  8
0
  6
CONTINUOUS
 10
5.381640
 20
2.444640
  0
VERTEX
  8
0
  6
CONTINUOUS
 10
5.381640
 20
2.442440
  0
VERTEX
  8
0
  6
CONTINUOUS
 10
5.375480
 20
1.705440
  0
VERTEX
  8
0
  6
CONTINUOUS
 10
5.375040
 20
1.707640
  0
SEQEND
  8
0
  0
SOLID
  8
0
 62
    15
 10
5.375480
 20
1.705440
 11
5.381640
 21
2.442440
 12
5.760480
 22
1.705440
 13
5.767080
 23
2.442440
  0
POLYLINE
  8
0
  6
CONTINUOUS
 66
     1
 40
0.000000
 41
0.000000
  0
VERTEX
  8
0
  6
CONTINUOUS
 10
5.375480
 20
1.705440
  0
VERTEX
  8
0
  6
CONTINUOUS
 10
5.381640
 20
2.442440
  0
VERTEX
  8
0
  6
CONTINUOUS
 10
5.767080
 20
2.442440
  0
VERTEX
  8
0
  6
CONTINUOUS
 10
5.760480
 20
1.705440
  0
VERTEX
  8
0
  6
CONTINUOUS
 10
5.375480
 20
1.705440
  0
SEQEND
  8
0
  0
SOLID
  8
0
 62
    15
 10
5.760480
 20
1.705440
 11
5.767080
 21
2.442440
 12
5.764880
 22
1.705440
 13
5.771480
 23
2.442440
  0
POLYLINE
  8
0
  6
CONTINUOUS
 66
     1
 40
0.000000
 41
0.000000
  0
VERTEX
  8
0
  6
CONTINUOUS
 10
5.760480
 20
1.705440
  0
VERTEX
  8
0
  6
CONTINUOUS
 10
5.767080
 20
2.442440
  0
VERTEX
  8
0
  6
CONTINUOUS
 10
5.771480
 20
2.442440
  0
VERTEX
  8
0
  6
CONTINUOUS
 10
5.764880
 20
1.705440
  0
VERTEX
  8
0
  6
CONTINUOUS
 10
5.760480
 20
1.705440
  0
SEQEND
  8
0
  0
POLYLINE
  8
0
  6
CONTINUOUS
 66
     1
 40
0.000000
 41
0.000000
  0
VERTEX
  8
0
  6
CONTINUOUS
 10
5.764880
 20
1.705440
  0
VERTEX
  8
0
  6
CONTINUOUS
 10
5.810640
 20
1.597200
  0
VERTEX
  8
0
  6
CONTINUOUS
 10
5.837920
 20
1.597200
  0
VERTEX
  8
0
  6
CONTINUOUS
 10
5.839680
 20
1.614800
  0
VERTEX
  8
0
  6
CONTINUOUS
 10
5.845400
 20
1.631520
  0
VERTEX
  8
0
  6
CONTINUOUS
 10
5.865640
 20
1.661000
  0
VERTEX
  8
0
  6
CONTINUOUS
 10
5.894680
 20
1.681240
  0
VERTEX
  8
0
  6
CONTINUOUS
 10
5.911840
 20
1.686520
  0
VERTEX
  8
0
  6
CONTINUOUS
 10
5.929440
 20
1.688720
  0
VERTEX
  8
0
  6
CONTINUOUS
 10
5.947040
 20
1.686960
  0
VERTEX
  8
0
  6
CONTINUOUS
 10
5.962880
 20
1.681680
  0
VERTEX
  8
0
  6
CONTINUOUS
 10
5.990160
 20
1.661880
  0
VERTEX
  8
0
  6
CONTINUOUS
 10
6.008200
 20
1.633280
  0
VERTEX
  8
0
  6
CONTINUOUS
 10
6.014800
 20
1.597200
  0
VERTEX
  8
0
  6
CONTINUOUS
 10
6.050440
 20
1.597200
  0
VERTEX
  8
0
  6
CONTINUOUS
 10
6.052200
 20
1.598960
  0
VERTEX
  8
0
  6
CONTINUOUS
 10
6.054400
 20
1.616560
  0
VERTEX
  8
0
  6
CONTINUOUS
 10
6.060120
 20
1.633280
  0
VERTEX
  8
0
  6
CONTINUOUS
 10
6.080360
 20
1.661880
  0
VERTEX
  8
0
  6
CONTINUOUS
 10
6.109400
 20
1.681680
  0
VERTEX
  8
0
  6
CONTINUOUS
 10
6.144160
 20
1.688720
  0
VERTEX
  8
0
  6
CONTINUOUS
 10
6.178040
 20
1.681680
  0
VERTEX
  8
0
  6
CONTINUOUS
 10
6.206640
 20
1.661880
  0
VERTEX
  8
0
  6
CONTINUOUS
 10
6.226440
 20
1.633280
  0
VERTEX
  8
0
  6
CONTINUOUS
 10
6.233480
 20
1.597200
  0
VERTEX
  8
0
  6
CONTINUOUS
 10
6.269120
 20
1.597200
  0
VERTEX
  8
0
  6
CONTINUOUS
 10
6.270880
 20
1.616560
  0
VERTEX
  8
0
  6
CONTINUOUS
 10
6.276600
 20
1.633280
  0
VERTEX
  8
0
  6
CONTINUOUS
 10
6.296840
 20
1.661880
  0
VERTEX
  8
0
  6
CONTINUOUS
 10
6.326320
 20
1.681680
  0
VERTEX
  8
0
  6
CONTINUOUS
 10
6.360640
 20
1.688720
  0
VERTEX
  8
0
  6
CONTINUOUS
 10
6.394960
 20
1.681680
  0
VERTEX
  8
0
  6
CONTINUOUS
 10
6.423560
 20
1.661880
  0
VERTEX
  8
0
  6
CONTINUOUS
 10
6.442920
 20
1.633280
  0
VERTEX
  8
0
  6
CONTINUOUS
 10
6.450400
 20
1.598960
  0
VERTEX
  8
0
  6
CONTINUOUS
 10
6.454360
 20
1.597200
  0
VERTEX
  8
0
  6
CONTINUOUS
 10
6.839800
 20
1.597200
  0
VERTEX
  8
0
  6
CONTINUOUS
 10
6.851680
 20
1.595000
  0
VERTEX
  8
0
  6
CONTINUOUS
 10
6.861360
 20
1.590160
  0
VERTEX
  8
0
  6
CONTINUOUS
 10
6.874120
 20
1.573440
  0
VERTEX
  8
0
  6
CONTINUOUS
 10
6.879840
 20
1.554960
  0
VERTEX
  8
0
  6
CONTINUOUS
 10
6.883360
 20
1.530320
  0
VERTEX
  8
0
  6
CONTINUOUS
 10
6.889960
 20
1.509640
  0
VERTEX
  8
0
  6
CONTINUOUS
 10
6.904480
 20
1.482800
  0
VERTEX
  8
0
  6
CONTINUOUS
 10
6.929560
 20
1.452880
  0
VERTEX
  8
0
  6
CONTINUOUS
 10
6.967840
 20
1.423400
  0
VERTEX
  8
0
  6
CONTINUOUS
 10
6.992480
 20
1.409760
  0
VERTEX
  8
0
  6
CONTINUOUS
 10
7.021080
 20
1.397440
  0
VERTEX
  8
0
  6
CONTINUOUS
 10
7.054520
 20
1.386880
  0
VERTEX
  8
0
  6
CONTINUOUS
 10
7.092800
 20
1.378520
  0
VERTEX
  8
0
  6
CONTINUOUS
 10
7.136360
 20
1.372800
  0
VERTEX
  8
0
  6
CONTINUOUS
 10
7.187840
 20
1.370160
  0
VERTEX
  8
0
  6
CONTINUOUS
 10
7.187840
 20
1.149280
  0
VERTEX
  8
0
  6
CONTINUOUS
 10
7.185640
 20
1.147080
  0
VERTEX
  8
0
  6
CONTINUOUS
 10
4.389880
 20
1.147080
  0
VERTEX
  8
0
  6
CONTINUOUS
 10
4.389880
 20
1.940840
  0
VERTEX
  8
0
  6
CONTINUOUS
 10
5.054280
 20
1.940840
  0
VERTEX
  8
0
  6
CONTINUOUS
 10
5.054280
 20
1.895080
  0
VERTEX
  8
0
  6
CONTINUOUS
 10
5.102680
 20
1.895520
  0
VERTEX
  8
0
  6
CONTINUOUS
 10
5.145800
 20
1.892880
  0
VERTEX
  8
0
  6
CONTINUOUS
 10
5.184520
 20
1.887160
  0
VERTEX
  8
0
  6
CONTINUOUS
 10
5.218840
 20
1.878800
  0
VERTEX
  8
0
  6
CONTINUOUS
 10
5.248760
 20
1.867800
  0
VERTEX
  8
0
  6
CONTINUOUS
 10
5.274720
 20
1.855480
  0
VERTEX
  8
0
  6
CONTINUOUS
 10
5.316520
 20
1.826440
  0
VERTEX
  8
0
  6
CONTINUOUS
 10
5.345120
 20
1.793880
  0
VERTEX
  8
0
  6
CONTINUOUS
 10
5.363160
 20
1.761320
  0
VERTEX
  8
0
  6
CONTINUOUS
 10
5.372400
 20
1.731400
  0
VERTEX
  8
0
  6
CONTINUOUS
 10
5.375480
 20
1.705440
  0
VERTEX
  8
0
  6
CONTINUOUS
 10
5.764880
 20
1.705440
  0
SEQEND
  8
0
  0
TEXT
  8
0
 10
5.498680
 20
0.880440
 40
0.138151
  1
BA  430
 41
1.000000
  7
SN0
 71
     0
 72
     5
 11
6.088672
 21
0.880440
  0
TEXT
  8
0
 10
5.250520
 20
0.689040
 40
0.138151
  1
3/4" x 2-13/16"
 41
1.000000
  7
SN0
 71
     0
 72
     5
 11
6.334816
 21
0.689040
  0
ENDSEC
  0
EOF
