  0
SECTION
  2
HEADER
  9
$ACADVER
  1
AC1006
  9
$EXTMIN
 10
2.814240
 20
0.527560
  9
$EXTMAX
 10
7.124040
 20
4.667960
  9
$LTSCALE
 40
0.044000
  9
$PDMODE
 70
    35
  9
$PDSIZE
 40
0.035200
  0
ENDSEC
  0
SECTION
  2
TABLES
  0
TABLE
  2
LTYPE
 70
     9
  0
LTYPE
  2
CONTINUOUS
 70
    64
  3
Solid line
 72
    65
 73
     0
 40
0.000000
  0
LTYPE
  2
DASHED
 70
    64
  3
__ __ __ __ __ __ __ __ __ __ __ __ __ __ __
 72
    65
 73
     2
 40
0.000330
 49
0.000220
 49
-0.000110
  0
LTYPE
  2
HIDDEN
 70
    64
  3
 _ _ _ _ _ _ _ _ _ _ _ _ _ _ _ _ _ _ _ _ _ _
 72
    65
 73
     2
 40
0.000165
 49
0.000110
 49
-0.000055
  0
LTYPE
  2
CENTER
 70
    64
  3
____ _ ____ _ ____ _ ____ _ ____ _ ____ _ ____
 72
    65
 73
     4
 40
0.000880
 49
0.000550
 49
-0.000110
 49
0.000110
 49
-0.000110
  0
LTYPE
  2
PHANTOM
 70
    64
  3
_____ _ _ _____ _ _ _____ _ _ _____ _ _ ____
 72
    65
 73
     6
 40
0.001100
 49
0.000550
 49
-0.000110
 49
0.000110
 49
-0.000110
 49
0.000110
 49
-0.000110
  0
LTYPE
  2
DOT
 70
    64
  3
...............................................
 72
    65
 73
     2
 40
0.000110
 49
0.000000
 49
-0.000110
  0
LTYPE
  2
DASHDOT
 70
    64
  3
__ . __ . __ . __ . __ . __ . __ . __ . __ . __
 72
    65
 73
     4
 40
0.000440
 49
0.000220
 49
-0.000110
 49
0.000000
 49
-0.000110
  0
LTYPE
  2
BORDER
 70
    64
  3
__ __ . __ __ . __ __ . __ __ . __ __ . __ __
 72
    65
 73
     6
 40
0.000770
 49
0.000220
 49
-0.000110
 49
0.000220
 49
-0.000110
 49
0.000000
 49
-0.000110
  0
LTYPE
  2
DIVIDE
 70
    64
  3
__ . . __ . . __ . . __ . . __ . . __ . . __
 72
    65
 73
     6
 40
0.000550
 49
0.000220
 49
-0.000110
 49
0.000000
 49
-0.000110
 49
0.000000
 49
-0.000110
  0
LTYPE
  2
DOTDOT
 70
    64
  3
 . .  . .  . .  . .  . .  . . 
 72
    65
 73
     5
 40
0.000242
 49
-0.000110
 49
0.000000
 49
-0.000110
 49
0.000000
 49
-0.000110
  0
ENDTAB
  0
TABLE
  2
STYLE
 70
     2
  0
STYLE
 70
     0
  2
SN0
 40
0.000000
 41
0.000440
 50
0.000000
 71
     0
 42
0.000000
  3
ROMAND
  0
STYLE
 70
    68
  2
SV0
 40
0.000000
 41
0.000440
 50
0.000000
 71
     0
 42
0.000000
  3
ROMAND
  0
ENDTAB
  0
TABLE
  2
LAYER
 70
     3
  0
LAYER
  2
FOREGROUND
 70
    64
 62
     7
  6
CONTINUOUS
  0
LAYER
  2
BACKGROUND
 70
    65
 62
    -7
  6
CONTINUOUS
  0
LAYER
  2
0
 70
    64
 62
     7
  6
CONTINUOUS
  0
ENDTAB
  0
ENDSEC
  0
SECTION
  2
ENTITIES
  0
POLYLINE
  8
FOREGROUND
  6
CONTINUOUS
 66
     1
 40
0.000000
 41
0.000000
  0
VERTEX
  8
FOREGROUND
  6
CONTINUOUS
 10
0.000000
 20
5.195520
  0
VERTEX
  8
FOREGROUND
  6
CONTINUOUS
 10
8.499920
 20
5.195520
  0
VERTEX
  8
FOREGROUND
  6
CONTINUOUS
 10
8.499920
 20
-5.804480
  0
VERTEX
  8
FOREGROUND
  6
CONTINUOUS
 10
0.000000
 20
-5.804480
  0
VERTEX
  8
FOREGROUND
  6
CONTINUOUS
 10
0.000000
 20
5.195520
  0
SEQEND
  8
0
  0
POLYLINE
  8
FOREGROUND
  6
CONTINUOUS
 66
     1
 40
0.000000
 41
0.000000
  0
VERTEX
  8
FOREGROUND
  6
CONTINUOUS
 10
0.000000
 20
5.195520
  0
VERTEX
  8
FOREGROUND
  6
CONTINUOUS
 10
8.499920
 20
5.195520
  0
VERTEX
  8
FOREGROUND
  6
CONTINUOUS
 10
8.499920
 20
-5.804480
  0
VERTEX
  8
FOREGROUND
  6
CONTINUOUS
 10
0.000000
 20
-5.804480
  0
VERTEX
  8
FOREGROUND
  6
CONTINUOUS
 10
0.000000
 20
5.195520
  0
SEQEND
  8
0
  0
SOLID
  8
0
 62
    15
 10
4.488000
 20
1.756040
 11
4.488000
 21
2.508440
 12
4.499000
 22
1.743720
 13
4.498560
 23
2.496120
  0
POLYLINE
  8
0
  6
CONTINUOUS
 66
     1
 40
0.000000
 41
0.000000
  0
VERTEX
  8
0
  6
CONTINUOUS
 10
4.488000
 20
1.756040
  0
VERTEX
  8
0
  6
CONTINUOUS
 10
4.488000
 20
2.508440
  0
VERTEX
  8
0
  6
CONTINUOUS
 10
4.498560
 20
2.496120
  0
VERTEX
  8
0
  6
CONTINUOUS
 10
4.499000
 20
1.743720
  0
VERTEX
  8
0
  6
CONTINUOUS
 10
4.488000
 20
1.756040
  0
SEQEND
  8
0
  0
SOLID
  8
0
 62
    15
 10
3.613280
 20
0.993520
 11
3.613280
 21
1.745480
 12
3.613280
 22
1.453760
 13
3.613280
 23
2.206160
  0
POLYLINE
  8
0
  6
CONTINUOUS
 66
     1
 40
0.000000
 41
0.000000
  0
VERTEX
  8
0
  6
CONTINUOUS
 10
3.613280
 20
0.993520
  0
VERTEX
  8
0
  6
CONTINUOUS
 10
3.613280
 20
1.745480
  0
VERTEX
  8
0
  6
CONTINUOUS
 10
3.613280
 20
2.206160
  0
VERTEX
  8
0
  6
CONTINUOUS
 10
3.613280
 20
1.453760
  0
VERTEX
  8
0
  6
CONTINUOUS
 10
3.613280
 20
0.993520
  0
SEQEND
  8
0
  0
SOLID
  8
0
 62
    15
 10
3.419680
 20
1.455960
 11
3.419240
 21
2.207920
 12
3.419680
 22
1.743280
 13
3.419240
 23
2.495680
  0
POLYLINE
  8
0
  6
CONTINUOUS
 66
     1
 40
0.000000
 41
0.000000
  0
VERTEX
  8
0
  6
CONTINUOUS
 10
3.419680
 20
1.455960
  0
VERTEX
  8
0
  6
CONTINUOUS
 10
3.419240
 20
2.207920
  0
VERTEX
  8
0
  6
CONTINUOUS
 10
3.419240
 20
2.495680
  0
VERTEX
  8
0
  6
CONTINUOUS
 10
3.419680
 20
1.743280
  0
VERTEX
  8
0
  6
CONTINUOUS
 10
3.419680
 20
1.455960
  0
SEQEND
  8
0
  0
SOLID
  8
0
 62
    15
 10
3.419680
 20
1.743280
 11
3.419240
 21
2.495680
 12
3.424960
 22
1.786840
 13
3.424960
 23
2.539240
  0
POLYLINE
  8
0
  6
CONTINUOUS
 66
     1
 40
0.000000
 41
0.000000
  0
VERTEX
  8
0
  6
CONTINUOUS
 10
3.419680
 20
1.743280
  0
VERTEX
  8
0
  6
CONTINUOUS
 10
3.419240
 20
2.495680
  0
VERTEX
  8
0
  6
CONTINUOUS
 10
3.424960
 20
2.539240
  0
VERTEX
  8
0
  6
CONTINUOUS
 10
3.424960
 20
1.786840
  0
VERTEX
  8
0
  6
CONTINUOUS
 10
3.419680
 20
1.743280
  0
SEQEND
  8
0
  0
SOLID
  8
0
 62
    15
 10
3.424960
 20
1.786840
 11
3.424960
 21
2.539240
 12
3.433320
 22
1.806640
 13
3.432880
 23
2.559040
  0
POLYLINE
  8
0
  6
CONTINUOUS
 66
     1
 40
0.000000
 41
0.000000
  0
VERTEX
  8
0
  6
CONTINUOUS
 10
3.424960
 20
1.786840
  0
VERTEX
  8
0
  6
CONTINUOUS
 10
3.424960
 20
2.539240
  0
VERTEX
  8
0
  6
CONTINUOUS
 10
3.432880
 20
2.559040
  0
VERTEX
  8
0
  6
CONTINUOUS
 10
3.433320
 20
1.806640
  0
VERTEX
  8
0
  6
CONTINUOUS
 10
3.424960
 20
1.786840
  0
SEQEND
  8
0
  0
SOLID
  8
0
 62
    15
 10
3.433320
 20
1.806640
 11
3.432880
 21
2.559040
 12
3.445640
 22
1.824240
 13
3.445200
 23
2.576200
  0
POLYLINE
  8
0
  6
CONTINUOUS
 66
     1
 40
0.000000
 41
0.000000
  0
VERTEX
  8
0
  6
CONTINUOUS
 10
3.433320
 20
1.806640
  0
VERTEX
  8
0
  6
CONTINUOUS
 10
3.432880
 20
2.559040
  0
VERTEX
  8
0
  6
CONTINUOUS
 10
3.445200
 20
2.576200
  0
VERTEX
  8
0
  6
CONTINUOUS
 10
3.445640
 20
1.824240
  0
VERTEX
  8
0
  6
CONTINUOUS
 10
3.433320
 20
1.806640
  0
SEQEND
  8
0
  0
SOLID
  8
0
 62
    15
 10
3.445640
 20
1.824240
 11
3.445200
 21
2.576200
 12
3.463240
 22
1.839200
 13
3.462800
 23
2.591600
  0
POLYLINE
  8
0
  6
CONTINUOUS
 66
     1
 40
0.000000
 41
0.000000
  0
VERTEX
  8
0
  6
CONTINUOUS
 10
3.445640
 20
1.824240
  0
VERTEX
  8
0
  6
CONTINUOUS
 10
3.445200
 20
2.576200
  0
VERTEX
  8
0
  6
CONTINUOUS
 10
3.462800
 20
2.591600
  0
VERTEX
  8
0
  6
CONTINUOUS
 10
3.463240
 20
1.839200
  0
VERTEX
  8
0
  6
CONTINUOUS
 10
3.445640
 20
1.824240
  0
SEQEND
  8
0
  0
SOLID
  8
0
 62
    15
 10
3.463240
 20
1.839200
 11
3.462800
 21
2.591600
 12
3.486120
 22
1.851080
 13
3.486120
 23
2.603480
  0
POLYLINE
  8
0
  6
CONTINUOUS
 66
     1
 40
0.000000
 41
0.000000
  0
VERTEX
  8
0
  6
CONTINUOUS
 10
3.463240
 20
1.839200
  0
VERTEX
  8
0
  6
CONTINUOUS
 10
3.462800
 20
2.591600
  0
VERTEX
  8
0
  6
CONTINUOUS
 10
3.486120
 20
2.603480
  0
VERTEX
  8
0
  6
CONTINUOUS
 10
3.486120
 20
1.851080
  0
VERTEX
  8
0
  6
CONTINUOUS
 10
3.463240
 20
1.839200
  0
SEQEND
  8
0
  0
SOLID
  8
0
 62
    15
 10
3.486120
 20
1.851080
 11
3.486120
 21
2.603480
 12
3.516040
 22
1.859880
 13
3.516040
 23
2.611840
  0
POLYLINE
  8
0
  6
CONTINUOUS
 66
     1
 40
0.000000
 41
0.000000
  0
VERTEX
  8
0
  6
CONTINUOUS
 10
3.486120
 20
1.851080
  0
VERTEX
  8
0
  6
CONTINUOUS
 10
3.486120
 20
2.603480
  0
VERTEX
  8
0
  6
CONTINUOUS
 10
3.516040
 20
2.611840
  0
VERTEX
  8
0
  6
CONTINUOUS
 10
3.516040
 20
1.859880
  0
VERTEX
  8
0
  6
CONTINUOUS
 10
3.486120
 20
1.851080
  0
SEQEND
  8
0
  0
SOLID
  8
0
 62
    15
 10
3.516040
 20
1.859880
 11
3.516040
 21
2.611840
 12
3.553000
 22
1.864280
 13
3.552560
 23
2.616240
  0
POLYLINE
  8
0
  6
CONTINUOUS
 66
     1
 40
0.000000
 41
0.000000
  0
VERTEX
  8
0
  6
CONTINUOUS
 10
3.516040
 20
1.859880
  0
VERTEX
  8
0
  6
CONTINUOUS
 10
3.516040
 20
2.611840
  0
VERTEX
  8
0
  6
CONTINUOUS
 10
3.552560
 20
2.616240
  0
VERTEX
  8
0
  6
CONTINUOUS
 10
3.553000
 20
1.864280
  0
VERTEX
  8
0
  6
CONTINUOUS
 10
3.516040
 20
1.859880
  0
SEQEND
  8
0
  0
SOLID
  8
0
 62
    15
 10
4.250840
 20
1.799600
 11
4.250840
 21
2.552000
 12
4.253040
 22
1.795640
 13
4.252600
 23
2.547600
  0
POLYLINE
  8
0
  6
CONTINUOUS
 66
     1
 40
0.000000
 41
0.000000
  0
VERTEX
  8
0
  6
CONTINUOUS
 10
4.250840
 20
1.799600
  0
VERTEX
  8
0
  6
CONTINUOUS
 10
4.250840
 20
2.552000
  0
VERTEX
  8
0
  6
CONTINUOUS
 10
4.252600
 20
2.547600
  0
VERTEX
  8
0
  6
CONTINUOUS
 10
4.253040
 20
1.795640
  0
VERTEX
  8
0
  6
CONTINUOUS
 10
4.250840
 20
1.799600
  0
SEQEND
  8
0
  0
SOLID
  8
0
 62
    15
 10
3.553000
 20
1.864280
 11
3.552560
 21
2.616240
 12
4.250840
 22
1.864280
 13
4.250840
 23
2.616240
  0
POLYLINE
  8
0
  6
CONTINUOUS
 66
     1
 40
0.000000
 41
0.000000
  0
VERTEX
  8
0
  6
CONTINUOUS
 10
3.553000
 20
1.864280
  0
VERTEX
  8
0
  6
CONTINUOUS
 10
3.552560
 20
2.616240
  0
VERTEX
  8
0
  6
CONTINUOUS
 10
4.250840
 20
2.616240
  0
VERTEX
  8
0
  6
CONTINUOUS
 10
4.250840
 20
1.864280
  0
VERTEX
  8
0
  6
CONTINUOUS
 10
3.553000
 20
1.864280
  0
SEQEND
  8
0
  0
SOLID
  8
0
 62
    15
 10
4.253040
 20
1.795640
 11
4.252600
 21
2.547600
 12
4.307160
 22
1.799160
 13
4.306720
 23
2.551560
  0
POLYLINE
  8
0
  6
CONTINUOUS
 66
     1
 40
0.000000
 41
0.000000
  0
VERTEX
  8
0
  6
CONTINUOUS
 10
4.253040
 20
1.795640
  0
VERTEX
  8
0
  6
CONTINUOUS
 10
4.252600
 20
2.547600
  0
VERTEX
  8
0
  6
CONTINUOUS
 10
4.306720
 20
2.551560
  0
VERTEX
  8
0
  6
CONTINUOUS
 10
4.307160
 20
1.799160
  0
VERTEX
  8
0
  6
CONTINUOUS
 10
4.253040
 20
1.795640
  0
SEQEND
  8
0
  0
SOLID
  8
0
 62
    15
 10
4.307160
 20
1.799160
 11
4.306720
 21
2.551560
 12
4.351600
 22
1.800040
 13
4.351600
 23
2.552000
  0
POLYLINE
  8
0
  6
CONTINUOUS
 66
     1
 40
0.000000
 41
0.000000
  0
VERTEX
  8
0
  6
CONTINUOUS
 10
4.307160
 20
1.799160
  0
VERTEX
  8
0
  6
CONTINUOUS
 10
4.306720
 20
2.551560
  0
VERTEX
  8
0
  6
CONTINUOUS
 10
4.351600
 20
2.552000
  0
VERTEX
  8
0
  6
CONTINUOUS
 10
4.351600
 20
1.800040
  0
VERTEX
  8
0
  6
CONTINUOUS
 10
4.307160
 20
1.799160
  0
SEQEND
  8
0
  0
SOLID
  8
0
 62
    15
 10
4.351600
 20
1.800040
 11
4.351600
 21
2.552000
 12
4.388560
 22
1.797840
 13
4.388120
 23
2.550240
  0
POLYLINE
  8
0
  6
CONTINUOUS
 66
     1
 40
0.000000
 41
0.000000
  0
VERTEX
  8
0
  6
CONTINUOUS
 10
4.351600
 20
1.800040
  0
VERTEX
  8
0
  6
CONTINUOUS
 10
4.351600
 20
2.552000
  0
VERTEX
  8
0
  6
CONTINUOUS
 10
4.388120
 20
2.550240
  0
VERTEX
  8
0
  6
CONTINUOUS
 10
4.388560
 20
1.797840
  0
VERTEX
  8
0
  6
CONTINUOUS
 10
4.351600
 20
1.800040
  0
SEQEND
  8
0
  0
SOLID
  8
0
 62
    15
 10
4.388560
 20
1.797840
 11
4.388120
 21
2.550240
 12
4.418040
 22
1.793440
 13
4.418040
 23
2.545400
  0
POLYLINE
  8
0
  6
CONTINUOUS
 66
     1
 40
0.000000
 41
0.000000
  0
VERTEX
  8
0
  6
CONTINUOUS
 10
4.388560
 20
1.797840
  0
VERTEX
  8
0
  6
CONTINUOUS
 10
4.388120
 20
2.550240
  0
VERTEX
  8
0
  6
CONTINUOUS
 10
4.418040
 20
2.545400
  0
VERTEX
  8
0
  6
CONTINUOUS
 10
4.418040
 20
1.793440
  0
VERTEX
  8
0
  6
CONTINUOUS
 10
4.388560
 20
1.797840
  0
SEQEND
  8
0
  0
SOLID
  8
0
 62
    15
 10
4.418040
 20
1.793440
 11
4.418040
 21
2.545400
 12
4.441800
 22
1.786400
 13
4.441360
 23
2.538800
  0
POLYLINE
  8
0
  6
CONTINUOUS
 66
     1
 40
0.000000
 41
0.000000
  0
VERTEX
  8
0
  6
CONTINUOUS
 10
4.418040
 20
1.793440
  0
VERTEX
  8
0
  6
CONTINUOUS
 10
4.418040
 20
2.545400
  0
VERTEX
  8
0
  6
CONTINUOUS
 10
4.441360
 20
2.538800
  0
VERTEX
  8
0
  6
CONTINUOUS
 10
4.441800
 20
1.786400
  0
VERTEX
  8
0
  6
CONTINUOUS
 10
4.418040
 20
1.793440
  0
SEQEND
  8
0
  0
SOLID
  8
0
 62
    15
 10
4.441800
 20
1.786400
 11
4.441360
 21
2.538800
 12
4.460720
 22
1.777600
 13
4.460280
 23
2.530000
  0
POLYLINE
  8
0
  6
CONTINUOUS
 66
     1
 40
0.000000
 41
0.000000
  0
VERTEX
  8
0
  6
CONTINUOUS
 10
4.441800
 20
1.786400
  0
VERTEX
  8
0
  6
CONTINUOUS
 10
4.441360
 20
2.538800
  0
VERTEX
  8
0
  6
CONTINUOUS
 10
4.460280
 20
2.530000
  0
VERTEX
  8
0
  6
CONTINUOUS
 10
4.460720
 20
1.777600
  0
VERTEX
  8
0
  6
CONTINUOUS
 10
4.441800
 20
1.786400
  0
SEQEND
  8
0
  0
SOLID
  8
0
 62
    15
 10
4.460720
 20
1.777600
 11
4.460280
 21
2.530000
 12
4.488000
 22
1.756040
 13
4.488000
 23
2.508440
  0
POLYLINE
  8
0
  6
CONTINUOUS
 66
     1
 40
0.000000
 41
0.000000
  0
VERTEX
  8
0
  6
CONTINUOUS
 10
4.460720
 20
1.777600
  0
VERTEX
  8
0
  6
CONTINUOUS
 10
4.460280
 20
2.530000
  0
VERTEX
  8
0
  6
CONTINUOUS
 10
4.488000
 20
2.508440
  0
VERTEX
  8
0
  6
CONTINUOUS
 10
4.488000
 20
1.756040
  0
VERTEX
  8
0
  6
CONTINUOUS
 10
4.460720
 20
1.777600
  0
SEQEND
  8
0
  0
SOLID
  8
0
 62
    15
 10
7.061560
 20
1.142680
 11
7.061120
 21
1.895080
 12
7.123600
 22
1.142680
 13
7.123600
 23
1.895080
  0
POLYLINE
  8
0
  6
CONTINUOUS
 66
     1
 40
0.000000
 41
0.000000
  0
VERTEX
  8
0
  6
CONTINUOUS
 10
7.061560
 20
1.142680
  0
VERTEX
  8
0
  6
CONTINUOUS
 10
7.061120
 20
1.895080
  0
VERTEX
  8
0
  6
CONTINUOUS
 10
7.123600
 20
1.895080
  0
VERTEX
  8
0
  6
CONTINUOUS
 10
7.123600
 20
1.142680
  0
VERTEX
  8
0
  6
CONTINUOUS
 10
7.061560
 20
1.142680
  0
SEQEND
  8
0
  0
SOLID
  8
0
 62
    15
 10
4.499000
 20
1.743720
 11
4.498560
 21
2.496120
 12
4.503840
 22
1.737120
 13
4.503840
 23
2.489520
  0
POLYLINE
  8
0
  6
CONTINUOUS
 66
     1
 40
0.000000
 41
0.000000
  0
VERTEX
  8
0
  6
CONTINUOUS
 10
4.499000
 20
1.743720
  0
VERTEX
  8
0
  6
CONTINUOUS
 10
4.498560
 20
2.496120
  0
VERTEX
  8
0
  6
CONTINUOUS
 10
4.503840
 20
2.489520
  0
VERTEX
  8
0
  6
CONTINUOUS
 10
4.503840
 20
1.737120
  0
VERTEX
  8
0
  6
CONTINUOUS
 10
4.499000
 20
1.743720
  0
SEQEND
  8
0
  0
SOLID
  8
0
 62
    15
 10
4.503840
 20
1.737120
 11
4.503840
 21
2.489520
 12
4.509120
 22
1.730520
 13
4.509120
 23
2.482920
  0
POLYLINE
  8
0
  6
CONTINUOUS
 66
     1
 40
0.000000
 41
0.000000
  0
VERTEX
  8
0
  6
CONTINUOUS
 10
4.503840
 20
1.737120
  0
VERTEX
  8
0
  6
CONTINUOUS
 10
4.503840
 20
2.489520
  0
VERTEX
  8
0
  6
CONTINUOUS
 10
4.509120
 20
2.482920
  0
VERTEX
  8
0
  6
CONTINUOUS
 10
4.509120
 20
1.730520
  0
VERTEX
  8
0
  6
CONTINUOUS
 10
4.503840
 20
1.737120
  0
SEQEND
  8
0
  0
SOLID
  8
0
 62
    15
 10
4.509120
 20
1.730520
 11
4.509120
 21
2.482920
 12
4.532880
 22
1.703680
 13
4.532440
 23
2.456080
  0
POLYLINE
  8
0
  6
CONTINUOUS
 66
     1
 40
0.000000
 41
0.000000
  0
VERTEX
  8
0
  6
CONTINUOUS
 10
4.509120
 20
1.730520
  0
VERTEX
  8
0
  6
CONTINUOUS
 10
4.509120
 20
2.482920
  0
VERTEX
  8
0
  6
CONTINUOUS
 10
4.532440
 20
2.456080
  0
VERTEX
  8
0
  6
CONTINUOUS
 10
4.532880
 20
1.703680
  0
VERTEX
  8
0
  6
CONTINUOUS
 10
4.509120
 20
1.730520
  0
SEQEND
  8
0
  0
SOLID
  8
0
 62
    15
 10
4.532880
 20
1.703680
 11
4.532440
 21
2.456080
 12
4.567200
 22
1.678160
 13
4.567200
 23
2.430120
  0
POLYLINE
  8
0
  6
CONTINUOUS
 66
     1
 40
0.000000
 41
0.000000
  0
VERTEX
  8
0
  6
CONTINUOUS
 10
4.532880
 20
1.703680
  0
VERTEX
  8
0
  6
CONTINUOUS
 10
4.532440
 20
2.456080
  0
VERTEX
  8
0
  6
CONTINUOUS
 10
4.567200
 20
2.430120
  0
VERTEX
  8
0
  6
CONTINUOUS
 10
4.567200
 20
1.678160
  0
VERTEX
  8
0
  6
CONTINUOUS
 10
4.532880
 20
1.703680
  0
SEQEND
  8
0
  0
SOLID
  8
0
 62
    15
 10
4.567200
 20
1.678160
 11
4.567200
 21
2.430120
 12
4.591400
 22
1.666280
 13
4.591400
 23
2.418680
  0
POLYLINE
  8
0
  6
CONTINUOUS
 66
     1
 40
0.000000
 41
0.000000
  0
VERTEX
  8
0
  6
CONTINUOUS
 10
4.567200
 20
1.678160
  0
VERTEX
  8
0
  6
CONTINUOUS
 10
4.567200
 20
2.430120
  0
VERTEX
  8
0
  6
CONTINUOUS
 10
4.591400
 20
2.418680
  0
VERTEX
  8
0
  6
CONTINUOUS
 10
4.591400
 20
1.666280
  0
VERTEX
  8
0
  6
CONTINUOUS
 10
4.567200
 20
1.678160
  0
SEQEND
  8
0
  0
SOLID
  8
0
 62
    15
 10
4.591400
 20
1.666280
 11
4.591400
 21
2.418680
 12
4.621760
 22
1.655720
 13
4.621320
 23
2.408120
  0
POLYLINE
  8
0
  6
CONTINUOUS
 66
     1
 40
0.000000
 41
0.000000
  0
VERTEX
  8
0
  6
CONTINUOUS
 10
4.591400
 20
1.666280
  0
VERTEX
  8
0
  6
CONTINUOUS
 10
4.591400
 20
2.418680
  0
VERTEX
  8
0
  6
CONTINUOUS
 10
4.621320
 20
2.408120
  0
VERTEX
  8
0
  6
CONTINUOUS
 10
4.621760
 20
1.655720
  0
VERTEX
  8
0
  6
CONTINUOUS
 10
4.591400
 20
1.666280
  0
SEQEND
  8
0
  0
SOLID
  8
0
 62
    15
 10
6.793600
 20
1.288760
 11
6.793600
 21
2.040720
 12
6.826160
 22
1.283920
 13
6.825720
 23
2.036320
  0
POLYLINE
  8
0
  6
CONTINUOUS
 66
     1
 40
0.000000
 41
0.000000
  0
VERTEX
  8
0
  6
CONTINUOUS
 10
6.793600
 20
1.288760
  0
VERTEX
  8
0
  6
CONTINUOUS
 10
6.793600
 20
2.040720
  0
VERTEX
  8
0
  6
CONTINUOUS
 10
6.825720
 20
2.036320
  0
VERTEX
  8
0
  6
CONTINUOUS
 10
6.826160
 20
1.283920
  0
VERTEX
  8
0
  6
CONTINUOUS
 10
6.793600
 20
1.288760
  0
SEQEND
  8
0
  0
SOLID
  8
0
 62
    15
 10
6.715280
 20
1.288760
 11
6.715280
 21
2.040720
 12
6.794040
 22
1.288760
 13
6.793600
 23
2.040720
  0
POLYLINE
  8
0
  6
CONTINUOUS
 66
     1
 40
0.000000
 41
0.000000
  0
VERTEX
  8
0
  6
CONTINUOUS
 10
6.715280
 20
1.288760
  0
VERTEX
  8
0
  6
CONTINUOUS
 10
6.715280
 20
2.040720
  0
VERTEX
  8
0
  6
CONTINUOUS
 10
6.793600
 20
2.040720
  0
VERTEX
  8
0
  6
CONTINUOUS
 10
6.794040
 20
1.288760
  0
VERTEX
  8
0
  6
CONTINUOUS
 10
6.715280
 20
1.288760
  0
SEQEND
  8
0
  0
SOLID
  8
0
 62
    15
 10
6.532240
 20
1.395240
 11
6.531800
 21
2.147640
 12
6.715280
 22
1.395240
 13
6.715280
 23
2.147640
  0
POLYLINE
  8
0
  6
CONTINUOUS
 66
     1
 40
0.000000
 41
0.000000
  0
VERTEX
  8
0
  6
CONTINUOUS
 10
6.532240
 20
1.395240
  0
VERTEX
  8
0
  6
CONTINUOUS
 10
6.531800
 20
2.147640
  0
VERTEX
  8
0
  6
CONTINUOUS
 10
6.715280
 20
2.147640
  0
VERTEX
  8
0
  6
CONTINUOUS
 10
6.715280
 20
1.395240
  0
VERTEX
  8
0
  6
CONTINUOUS
 10
6.532240
 20
1.395240
  0
SEQEND
  8
0
  0
SOLID
  8
0
 62
    15
 10
4.963200
 20
1.468280
 11
4.963200
 21
2.220680
 12
6.532240
 22
1.468280
 13
6.531800
 23
2.220680
  0
POLYLINE
  8
0
  6
CONTINUOUS
 66
     1
 40
0.000000
 41
0.000000
  0
VERTEX
  8
0
  6
CONTINUOUS
 10
4.963200
 20
1.468280
  0
VERTEX
  8
0
  6
CONTINUOUS
 10
4.963200
 20
2.220680
  0
VERTEX
  8
0
  6
CONTINUOUS
 10
6.531800
 20
2.220680
  0
VERTEX
  8
0
  6
CONTINUOUS
 10
6.532240
 20
1.468280
  0
VERTEX
  8
0
  6
CONTINUOUS
 10
4.963200
 20
1.468280
  0
SEQEND
  8
0
  0
SOLID
  8
0
 62
    15
 10
4.752880
 20
1.564200
 11
4.752880
 21
2.316600
 12
4.963200
 22
1.564200
 13
4.963200
 23
2.316600
  0
POLYLINE
  8
0
  6
CONTINUOUS
 66
     1
 40
0.000000
 41
0.000000
  0
VERTEX
  8
0
  6
CONTINUOUS
 10
4.752880
 20
1.564200
  0
VERTEX
  8
0
  6
CONTINUOUS
 10
4.752880
 20
2.316600
  0
VERTEX
  8
0
  6
CONTINUOUS
 10
4.963200
 20
2.316600
  0
VERTEX
  8
0
  6
CONTINUOUS
 10
4.963200
 20
1.564200
  0
VERTEX
  8
0
  6
CONTINUOUS
 10
4.752880
 20
1.564200
  0
SEQEND
  8
0
  0
SOLID
  8
0
 62
    15
 10
4.621760
 20
1.655720
 11
4.621320
 21
2.408120
 12
4.752880
 22
1.655720
 13
4.752880
 23
2.408120
  0
POLYLINE
  8
0
  6
CONTINUOUS
 66
     1
 40
0.000000
 41
0.000000
  0
VERTEX
  8
0
  6
CONTINUOUS
 10
4.621760
 20
1.655720
  0
VERTEX
  8
0
  6
CONTINUOUS
 10
4.621320
 20
2.408120
  0
VERTEX
  8
0
  6
CONTINUOUS
 10
4.752880
 20
2.408120
  0
VERTEX
  8
0
  6
CONTINUOUS
 10
4.752880
 20
1.655720
  0
VERTEX
  8
0
  6
CONTINUOUS
 10
4.621760
 20
1.655720
  0
SEQEND
  8
0
  0
SOLID
  8
0
 62
    15
 10
6.826160
 20
1.283920
 11
6.825720
 21
2.036320
 12
6.857400
 22
1.269840
 13
6.856960
 23
2.022240
  0
POLYLINE
  8
0
  6
CONTINUOUS
 66
     1
 40
0.000000
 41
0.000000
  0
VERTEX
  8
0
  6
CONTINUOUS
 10
6.826160
 20
1.283920
  0
VERTEX
  8
0
  6
CONTINUOUS
 10
6.825720
 20
2.036320
  0
VERTEX
  8
0
  6
CONTINUOUS
 10
6.856960
 20
2.022240
  0
VERTEX
  8
0
  6
CONTINUOUS
 10
6.857400
 20
1.269840
  0
VERTEX
  8
0
  6
CONTINUOUS
 10
6.826160
 20
1.283920
  0
SEQEND
  8
0
  0
SOLID
  8
0
 62
    15
 10
6.857400
 20
1.269840
 11
6.856960
 21
2.022240
 12
6.891720
 22
1.245640
 13
6.891720
 23
1.998040
  0
POLYLINE
  8
0
  6
CONTINUOUS
 66
     1
 40
0.000000
 41
0.000000
  0
VERTEX
  8
0
  6
CONTINUOUS
 10
6.857400
 20
1.269840
  0
VERTEX
  8
0
  6
CONTINUOUS
 10
6.856960
 20
2.022240
  0
VERTEX
  8
0
  6
CONTINUOUS
 10
6.891720
 20
1.998040
  0
VERTEX
  8
0
  6
CONTINUOUS
 10
6.891720
 20
1.245640
  0
VERTEX
  8
0
  6
CONTINUOUS
 10
6.857400
 20
1.269840
  0
SEQEND
  8
0
  0
SOLID
  8
0
 62
    15
 10
6.891720
 20
1.245640
 11
6.891720
 21
1.998040
 12
6.933960
 22
1.211320
 13
6.933520
 23
1.963280
  0
POLYLINE
  8
0
  6
CONTINUOUS
 66
     1
 40
0.000000
 41
0.000000
  0
VERTEX
  8
0
  6
CONTINUOUS
 10
6.891720
 20
1.245640
  0
VERTEX
  8
0
  6
CONTINUOUS
 10
6.891720
 20
1.998040
  0
VERTEX
  8
0
  6
CONTINUOUS
 10
6.933520
 20
1.963280
  0
VERTEX
  8
0
  6
CONTINUOUS
 10
6.933960
 20
1.211320
  0
VERTEX
  8
0
  6
CONTINUOUS
 10
6.891720
 20
1.245640
  0
SEQEND
  8
0
  0
SOLID
  8
0
 62
    15
 10
6.933960
 20
1.211320
 11
6.933520
 21
1.963280
 12
6.972240
 22
1.178320
 13
6.972240
 23
1.930720
  0
POLYLINE
  8
0
  6
CONTINUOUS
 66
     1
 40
0.000000
 41
0.000000
  0
VERTEX
  8
0
  6
CONTINUOUS
 10
6.933960
 20
1.211320
  0
VERTEX
  8
0
  6
CONTINUOUS
 10
6.933520
 20
1.963280
  0
VERTEX
  8
0
  6
CONTINUOUS
 10
6.972240
 20
1.930720
  0
VERTEX
  8
0
  6
CONTINUOUS
 10
6.972240
 20
1.178320
  0
VERTEX
  8
0
  6
CONTINUOUS
 10
6.933960
 20
1.211320
  0
SEQEND
  8
0
  0
SOLID
  8
0
 62
    15
 10
6.972240
 20
1.178320
 11
6.972240
 21
1.930720
 12
6.999960
 22
1.158080
 13
6.999960
 23
1.910040
  0
POLYLINE
  8
0
  6
CONTINUOUS
 66
     1
 40
0.000000
 41
0.000000
  0
VERTEX
  8
0
  6
CONTINUOUS
 10
6.972240
 20
1.178320
  0
VERTEX
  8
0
  6
CONTINUOUS
 10
6.972240
 20
1.930720
  0
VERTEX
  8
0
  6
CONTINUOUS
 10
6.999960
 20
1.910040
  0
VERTEX
  8
0
  6
CONTINUOUS
 10
6.999960
 20
1.158080
  0
VERTEX
  8
0
  6
CONTINUOUS
 10
6.972240
 20
1.178320
  0
SEQEND
  8
0
  0
SOLID
  8
0
 62
    15
 10
6.999960
 20
1.158080
 11
6.999960
 21
1.910040
 12
7.026800
 22
1.147080
 13
7.026800
 23
1.899480
  0
POLYLINE
  8
0
  6
CONTINUOUS
 66
     1
 40
0.000000
 41
0.000000
  0
VERTEX
  8
0
  6
CONTINUOUS
 10
6.999960
 20
1.158080
  0
VERTEX
  8
0
  6
CONTINUOUS
 10
6.999960
 20
1.910040
  0
VERTEX
  8
0
  6
CONTINUOUS
 10
7.026800
 20
1.899480
  0
VERTEX
  8
0
  6
CONTINUOUS
 10
7.026800
 20
1.147080
  0
VERTEX
  8
0
  6
CONTINUOUS
 10
6.999960
 20
1.158080
  0
SEQEND
  8
0
  0
SOLID
  8
0
 62
    15
 10
7.026800
 20
1.147080
 11
7.026800
 21
1.899480
 12
7.062440
 22
1.142680
 13
7.062440
 23
1.895080
  0
POLYLINE
  8
0
  6
CONTINUOUS
 66
     1
 40
0.000000
 41
0.000000
  0
VERTEX
  8
0
  6
CONTINUOUS
 10
7.026800
 20
1.147080
  0
VERTEX
  8
0
  6
CONTINUOUS
 10
7.026800
 20
1.899480
  0
VERTEX
  8
0
  6
CONTINUOUS
 10
7.062440
 20
1.895080
  0
VERTEX
  8
0
  6
CONTINUOUS
 10
7.062440
 20
1.142680
  0
VERTEX
  8
0
  6
CONTINUOUS
 10
7.026800
 20
1.147080
  0
SEQEND
  8
0
  0
POLYLINE
  8
0
  6
CONTINUOUS
 66
     1
 40
0.000000
 41
0.000000
  0
VERTEX
  8
0
  6
CONTINUOUS
 10
7.061560
 20
1.142680
  0
VERTEX
  8
0
  6
CONTINUOUS
 10
7.123600
 20
1.142680
  0
VERTEX
  8
0
  6
CONTINUOUS
 10
7.123600
 20
0.993520
  0
VERTEX
  8
0
  6
CONTINUOUS
 10
3.613280
 20
0.993520
  0
VERTEX
  8
0
  6
CONTINUOUS
 10
3.613280
 20
1.453760
  0
VERTEX
  8
0
  6
CONTINUOUS
 10
3.421880
 20
1.453760
  0
VERTEX
  8
0
  6
CONTINUOUS
 10
3.419680
 20
1.455960
  0
VERTEX
  8
0
  6
CONTINUOUS
 10
3.419680
 20
1.743280
  0
VERTEX
  8
0
  6
CONTINUOUS
 10
3.424960
 20
1.786840
  0
VERTEX
  8
0
  6
CONTINUOUS
 10
3.433320
 20
1.806640
  0
VERTEX
  8
0
  6
CONTINUOUS
 10
3.445640
 20
1.824240
  0
VERTEX
  8
0
  6
CONTINUOUS
 10
3.463240
 20
1.839200
  0
VERTEX
  8
0
  6
CONTINUOUS
 10
3.486120
 20
1.851080
  0
VERTEX
  8
0
  6
CONTINUOUS
 10
3.516040
 20
1.859880
  0
VERTEX
  8
0
  6
CONTINUOUS
 10
3.553000
 20
1.864280
  0
VERTEX
  8
0
  6
CONTINUOUS
 10
4.250840
 20
1.864280
  0
VERTEX
  8
0
  6
CONTINUOUS
 10
4.250840
 20
1.799600
  0
VERTEX
  8
0
  6
CONTINUOUS
 10
4.253040
 20
1.795640
  0
VERTEX
  8
0
  6
CONTINUOUS
 10
4.307160
 20
1.799160
  0
VERTEX
  8
0
  6
CONTINUOUS
 10
4.351600
 20
1.800040
  0
VERTEX
  8
0
  6
CONTINUOUS
 10
4.388560
 20
1.797840
  0
VERTEX
  8
0
  6
CONTINUOUS
 10
4.418040
 20
1.793440
  0
VERTEX
  8
0
  6
CONTINUOUS
 10
4.441800
 20
1.786400
  0
VERTEX
  8
0
  6
CONTINUOUS
 10
4.460720
 20
1.777600
  0
VERTEX
  8
0
  6
CONTINUOUS
 10
4.488000
 20
1.756040
  0
VERTEX
  8
0
  6
CONTINUOUS
 10
4.532880
 20
1.703680
  0
VERTEX
  8
0
  6
CONTINUOUS
 10
4.567200
 20
1.678160
  0
VERTEX
  8
0
  6
CONTINUOUS
 10
4.591400
 20
1.666280
  0
VERTEX
  8
0
  6
CONTINUOUS
 10
4.621760
 20
1.655720
  0
VERTEX
  8
0
  6
CONTINUOUS
 10
4.752880
 20
1.655720
  0
VERTEX
  8
0
  6
CONTINUOUS
 10
4.752880
 20
1.564200
  0
VERTEX
  8
0
  6
CONTINUOUS
 10
4.963200
 20
1.564200
  0
VERTEX
  8
0
  6
CONTINUOUS
 10
4.963200
 20
1.468280
  0
VERTEX
  8
0
  6
CONTINUOUS
 10
6.532240
 20
1.468280
  0
VERTEX
  8
0
  6
CONTINUOUS
 10
6.532240
 20
1.395240
  0
VERTEX
  8
0
  6
CONTINUOUS
 10
6.715280
 20
1.395240
  0
VERTEX
  8
0
  6
CONTINUOUS
 10
6.715280
 20
1.288760
  0
VERTEX
  8
0
  6
CONTINUOUS
 10
6.794040
 20
1.288760
  0
VERTEX
  8
0
  6
CONTINUOUS
 10
6.793600
 20
1.288760
  0
VERTEX
  8
0
  6
CONTINUOUS
 10
6.826160
 20
1.283920
  0
VERTEX
  8
0
  6
CONTINUOUS
 10
6.857400
 20
1.269840
  0
VERTEX
  8
0
  6
CONTINUOUS
 10
6.891720
 20
1.245640
  0
VERTEX
  8
0
  6
CONTINUOUS
 10
6.972240
 20
1.178320
  0
VERTEX
  8
0
  6
CONTINUOUS
 10
6.999960
 20
1.158080
  0
VERTEX
  8
0
  6
CONTINUOUS
 10
7.026800
 20
1.147080
  0
VERTEX
  8
0
  6
CONTINUOUS
 10
7.062440
 20
1.142680
  0
VERTEX
  8
0
  6
CONTINUOUS
 10
7.061560
 20
1.142680
  0
SEQEND
  8
0
  0
SOLID
  8
0
 62
    15
 10
3.364680
 20
2.218480
 11
3.364240
 21
2.952400
 12
3.404720
 22
2.183280
 13
3.403840
 23
2.917200
  0
POLYLINE
  8
0
  6
CONTINUOUS
 66
     1
 40
0.000000
 41
0.000000
  0
VERTEX
  8
0
  6
CONTINUOUS
 10
3.364680
 20
2.218480
  0
VERTEX
  8
0
  6
CONTINUOUS
 10
3.364240
 20
2.952400
  0
VERTEX
  8
0
  6
CONTINUOUS
 10
3.403840
 20
2.917200
  0
VERTEX
  8
0
  6
CONTINUOUS
 10
3.404720
 20
2.183280
  0
VERTEX
  8
0
  6
CONTINUOUS
 10
3.364680
 20
2.218480
  0
SEQEND
  8
0
  0
SOLID
  8
0
 62
    15
 10
3.184720
 20
2.306040
 11
3.183840
 21
3.039960
 12
3.217280
 22
2.305600
 13
3.216400
 23
3.039520
  0
POLYLINE
  8
0
  6
CONTINUOUS
 66
     1
 40
0.000000
 41
0.000000
  0
VERTEX
  8
0
  6
CONTINUOUS
 10
3.184720
 20
2.306040
  0
VERTEX
  8
0
  6
CONTINUOUS
 10
3.183840
 20
3.039960
  0
VERTEX
  8
0
  6
CONTINUOUS
 10
3.216400
 20
3.039520
  0
VERTEX
  8
0
  6
CONTINUOUS
 10
3.217280
 20
2.305600
  0
VERTEX
  8
0
  6
CONTINUOUS
 10
3.184720
 20
2.306040
  0
SEQEND
  8
0
  0
SOLID
  8
0
 62
    15
 10
3.217280
 20
2.305600
 11
3.216400
 21
3.039520
 12
3.245440
 22
2.300760
 13
3.244560
 23
3.034680
  0
POLYLINE
  8
0
  6
CONTINUOUS
 66
     1
 40
0.000000
 41
0.000000
  0
VERTEX
  8
0
  6
CONTINUOUS
 10
3.217280
 20
2.305600
  0
VERTEX
  8
0
  6
CONTINUOUS
 10
3.216400
 20
3.039520
  0
VERTEX
  8
0
  6
CONTINUOUS
 10
3.244560
 20
3.034680
  0
VERTEX
  8
0
  6
CONTINUOUS
 10
3.245440
 20
2.300760
  0
VERTEX
  8
0
  6
CONTINUOUS
 10
3.217280
 20
2.305600
  0
SEQEND
  8
0
  0
SOLID
  8
0
 62
     7
 10
3.245440
 20
2.300760
 11
3.244560
 21
3.034680
 12
3.270080
 22
2.292400
 13
3.269200
 23
3.026320
  0
POLYLINE
  8
0
  6
CONTINUOUS
 66
     1
 40
0.000000
 41
0.000000
  0
VERTEX
  8
0
  6
CONTINUOUS
 10
3.245440
 20
2.300760
  0
VERTEX
  8
0
  6
CONTINUOUS
 10
3.244560
 20
3.034680
  0
VERTEX
  8
0
  6
CONTINUOUS
 10
3.269200
 20
3.026320
  0
VERTEX
  8
0
  6
CONTINUOUS
 10
3.270080
 20
2.292400
  0
VERTEX
  8
0
  6
CONTINUOUS
 10
3.245440
 20
2.300760
  0
SEQEND
  8
0
  0
SOLID
  8
0
 62
     7
 10
3.270080
 20
2.292400
 11
3.269200
 21
3.026320
 12
3.291640
 22
2.281400
 13
3.290760
 23
3.015320
  0
POLYLINE
  8
0
  6
CONTINUOUS
 66
     1
 40
0.000000
 41
0.000000
  0
VERTEX
  8
0
  6
CONTINUOUS
 10
3.270080
 20
2.292400
  0
VERTEX
  8
0
  6
CONTINUOUS
 10
3.269200
 20
3.026320
  0
VERTEX
  8
0
  6
CONTINUOUS
 10
3.290760
 20
3.015320
  0
VERTEX
  8
0
  6
CONTINUOUS
 10
3.291640
 20
2.281400
  0
VERTEX
  8
0
  6
CONTINUOUS
 10
3.270080
 20
2.292400
  0
SEQEND
  8
0
  0
SOLID
  8
0
 62
    15
 10
3.291640
 20
2.281400
 11
3.290760
 21
3.015320
 12
3.329040
 22
2.252360
 13
3.328600
 23
2.986280
  0
POLYLINE
  8
0
  6
CONTINUOUS
 66
     1
 40
0.000000
 41
0.000000
  0
VERTEX
  8
0
  6
CONTINUOUS
 10
3.291640
 20
2.281400
  0
VERTEX
  8
0
  6
CONTINUOUS
 10
3.290760
 20
3.015320
  0
VERTEX
  8
0
  6
CONTINUOUS
 10
3.328600
 20
2.986280
  0
VERTEX
  8
0
  6
CONTINUOUS
 10
3.329040
 20
2.252360
  0
VERTEX
  8
0
  6
CONTINUOUS
 10
3.291640
 20
2.281400
  0
SEQEND
  8
0
  0
SOLID
  8
0
 62
    15
 10
3.329040
 20
2.252360
 11
3.328600
 21
2.986280
 12
3.347080
 22
2.235640
 13
3.346200
 23
2.969560
  0
POLYLINE
  8
0
  6
CONTINUOUS
 66
     1
 40
0.000000
 41
0.000000
  0
VERTEX
  8
0
  6
CONTINUOUS
 10
3.329040
 20
2.252360
  0
VERTEX
  8
0
  6
CONTINUOUS
 10
3.328600
 20
2.986280
  0
VERTEX
  8
0
  6
CONTINUOUS
 10
3.346200
 20
2.969560
  0
VERTEX
  8
0
  6
CONTINUOUS
 10
3.347080
 20
2.235640
  0
VERTEX
  8
0
  6
CONTINUOUS
 10
3.329040
 20
2.252360
  0
SEQEND
  8
0
  0
SOLID
  8
0
 62
    15
 10
3.347080
 20
2.235640
 11
3.346200
 21
2.969560
 12
3.364680
 22
2.218480
 13
3.364240
 23
2.952400
  0
POLYLINE
  8
0
  6
CONTINUOUS
 66
     1
 40
0.000000
 41
0.000000
  0
VERTEX
  8
0
  6
CONTINUOUS
 10
3.347080
 20
2.235640
  0
VERTEX
  8
0
  6
CONTINUOUS
 10
3.346200
 20
2.969560
  0
VERTEX
  8
0
  6
CONTINUOUS
 10
3.364240
 20
2.952400
  0
VERTEX
  8
0
  6
CONTINUOUS
 10
3.364680
 20
2.218480
  0
VERTEX
  8
0
  6
CONTINUOUS
 10
3.347080
 20
2.235640
  0
SEQEND
  8
0
  0
SOLID
  8
0
 62
    15
 10
2.861760
 20
0.996600
 11
2.860880
 21
1.730520
 12
2.861760
 22
2.381280
 13
2.860880
 23
3.115200
  0
POLYLINE
  8
0
  6
CONTINUOUS
 66
     1
 40
0.000000
 41
0.000000
  0
VERTEX
  8
0
  6
CONTINUOUS
 10
2.861760
 20
0.996600
  0
VERTEX
  8
0
  6
CONTINUOUS
 10
2.860880
 20
1.730520
  0
VERTEX
  8
0
  6
CONTINUOUS
 10
2.860880
 20
3.115200
  0
VERTEX
  8
0
  6
CONTINUOUS
 10
2.861760
 20
2.381280
  0
VERTEX
  8
0
  6
CONTINUOUS
 10
2.861760
 20
0.996600
  0
SEQEND
  8
0
  0
SOLID
  8
0
 62
     7
 10
3.414840
 20
1.456400
 11
3.413960
 21
2.190320
 12
3.609760
 22
1.456400
 13
3.609320
 23
2.190320
  0
POLYLINE
  8
0
  6
CONTINUOUS
 66
     1
 40
0.000000
 41
0.000000
  0
VERTEX
  8
0
  6
CONTINUOUS
 10
3.414840
 20
1.456400
  0
VERTEX
  8
0
  6
CONTINUOUS
 10
3.413960
 20
2.190320
  0
VERTEX
  8
0
  6
CONTINUOUS
 10
3.609320
 20
2.190320
  0
VERTEX
  8
0
  6
CONTINUOUS
 10
3.609760
 20
1.456400
  0
VERTEX
  8
0
  6
CONTINUOUS
 10
3.414840
 20
1.456400
  0
SEQEND
  8
0
  0
SOLID
  8
0
 62
     7
 10
3.428480
 20
2.166560
 11
3.427600
 21
2.900480
 12
3.455320
 22
2.151600
 13
3.454440
 23
2.885520
  0
POLYLINE
  8
0
  6
CONTINUOUS
 66
     1
 40
0.000000
 41
0.000000
  0
VERTEX
  8
0
  6
CONTINUOUS
 10
3.428480
 20
2.166560
  0
VERTEX
  8
0
  6
CONTINUOUS
 10
3.427600
 20
2.900480
  0
VERTEX
  8
0
  6
CONTINUOUS
 10
3.454440
 20
2.885520
  0
VERTEX
  8
0
  6
CONTINUOUS
 10
3.455320
 20
2.151600
  0
VERTEX
  8
0
  6
CONTINUOUS
 10
3.428480
 20
2.166560
  0
SEQEND
  8
0
  0
SOLID
  8
0
 62
     7
 10
3.455320
 20
2.151600
 11
3.454440
 21
2.885520
 12
3.486560
 22
2.138400
 13
3.485680
 23
2.872320
  0
POLYLINE
  8
0
  6
CONTINUOUS
 66
     1
 40
0.000000
 41
0.000000
  0
VERTEX
  8
0
  6
CONTINUOUS
 10
3.455320
 20
2.151600
  0
VERTEX
  8
0
  6
CONTINUOUS
 10
3.454440
 20
2.885520
  0
VERTEX
  8
0
  6
CONTINUOUS
 10
3.485680
 20
2.872320
  0
VERTEX
  8
0
  6
CONTINUOUS
 10
3.486560
 20
2.138400
  0
VERTEX
  8
0
  6
CONTINUOUS
 10
3.455320
 20
2.151600
  0
SEQEND
  8
0
  0
SOLID
  8
0
 62
     7
 10
3.486560
 20
2.138400
 11
3.485680
 21
2.872320
 12
3.523080
 22
2.127840
 13
3.522200
 23
2.861760
  0
POLYLINE
  8
0
  6
CONTINUOUS
 66
     1
 40
0.000000
 41
0.000000
  0
VERTEX
  8
0
  6
CONTINUOUS
 10
3.486560
 20
2.138400
  0
VERTEX
  8
0
  6
CONTINUOUS
 10
3.485680
 20
2.872320
  0
VERTEX
  8
0
  6
CONTINUOUS
 10
3.522200
 20
2.861760
  0
VERTEX
  8
0
  6
CONTINUOUS
 10
3.523080
 20
2.127840
  0
VERTEX
  8
0
  6
CONTINUOUS
 10
3.486560
 20
2.138400
  0
SEQEND
  8
0
  0
SOLID
  8
0
 62
     7
 10
3.523080
 20
2.127840
 11
3.522200
 21
2.861760
 12
3.564880
 22
2.120360
 13
3.564440
 23
2.854280
  0
POLYLINE
  8
0
  6
CONTINUOUS
 66
     1
 40
0.000000
 41
0.000000
  0
VERTEX
  8
0
  6
CONTINUOUS
 10
3.523080
 20
2.127840
  0
VERTEX
  8
0
  6
CONTINUOUS
 10
3.522200
 20
2.861760
  0
VERTEX
  8
0
  6
CONTINUOUS
 10
3.564440
 20
2.854280
  0
VERTEX
  8
0
  6
CONTINUOUS
 10
3.564880
 20
2.120360
  0
VERTEX
  8
0
  6
CONTINUOUS
 10
3.523080
 20
2.127840
  0
SEQEND
  8
0
  0
SOLID
  8
0
 62
     7
 10
3.564880
 20
2.120360
 11
3.564440
 21
2.854280
 12
3.613720
 22
2.116400
 13
3.612840
 23
2.850320
  0
POLYLINE
  8
0
  6
CONTINUOUS
 66
     1
 40
0.000000
 41
0.000000
  0
VERTEX
  8
0
  6
CONTINUOUS
 10
3.564880
 20
2.120360
  0
VERTEX
  8
0
  6
CONTINUOUS
 10
3.564440
 20
2.854280
  0
VERTEX
  8
0
  6
CONTINUOUS
 10
3.612840
 20
2.850320
  0
VERTEX
  8
0
  6
CONTINUOUS
 10
3.613720
 20
2.116400
  0
VERTEX
  8
0
  6
CONTINUOUS
 10
3.564880
 20
2.120360
  0
SEQEND
  8
0
  0
SOLID
  8
0
 62
    15
 10
3.404720
 20
2.183280
 11
3.403840
 21
2.917200
 12
3.428480
 22
2.166560
 13
3.427600
 23
2.900480
  0
POLYLINE
  8
0
  6
CONTINUOUS
 66
     1
 40
0.000000
 41
0.000000
  0
VERTEX
  8
0
  6
CONTINUOUS
 10
3.404720
 20
2.183280
  0
VERTEX
  8
0
  6
CONTINUOUS
 10
3.403840
 20
2.917200
  0
VERTEX
  8
0
  6
CONTINUOUS
 10
3.427600
 20
2.900480
  0
VERTEX
  8
0
  6
CONTINUOUS
 10
3.428480
 20
2.166560
  0
VERTEX
  8
0
  6
CONTINUOUS
 10
3.404720
 20
2.183280
  0
SEQEND
  8
0
  0
SOLID
  8
0
 62
    15
 10
2.861760
 20
2.381280
 11
2.860880
 21
3.115200
 12
3.184720
 22
2.381280
 13
3.183840
 23
3.115200
  0
POLYLINE
  8
0
  6
CONTINUOUS
 66
     1
 40
0.000000
 41
0.000000
  0
VERTEX
  8
0
  6
CONTINUOUS
 10
2.861760
 20
2.381280
  0
VERTEX
  8
0
  6
CONTINUOUS
 10
2.860880
 20
3.115200
  0
VERTEX
  8
0
  6
CONTINUOUS
 10
3.183840
 20
3.115200
  0
VERTEX
  8
0
  6
CONTINUOUS
 10
3.184720
 20
2.381280
  0
VERTEX
  8
0
  6
CONTINUOUS
 10
2.861760
 20
2.381280
  0
SEQEND
  8
0
  0
POLYLINE
  8
0
  6
CONTINUOUS
 66
     1
 40
0.000000
 41
0.000000
  0
VERTEX
  8
0
  6
CONTINUOUS
 10
2.861760
 20
2.381280
  0
VERTEX
  8
0
  6
CONTINUOUS
 10
3.184720
 20
2.381280
  0
VERTEX
  8
0
  6
CONTINUOUS
 10
3.184720
 20
2.306040
  0
VERTEX
  8
0
  6
CONTINUOUS
 10
3.217280
 20
2.305600
  0
VERTEX
  8
0
  6
CONTINUOUS
 10
3.245440
 20
2.300760
  0
VERTEX
  8
0
  6
CONTINUOUS
 10
3.270080
 20
2.292400
  0
VERTEX
  8
0
  6
CONTINUOUS
 10
3.291640
 20
2.281400
  0
VERTEX
  8
0
  6
CONTINUOUS
 10
3.329040
 20
2.252360
  0
VERTEX
  8
0
  6
CONTINUOUS
 10
3.347080
 20
2.235640
  0
VERTEX
  8
0
  6
CONTINUOUS
 10
3.364680
 20
2.218480
  0
VERTEX
  8
0
  6
CONTINUOUS
 10
3.404720
 20
2.183280
  0
VERTEX
  8
0
  6
CONTINUOUS
 10
3.428480
 20
2.166560
  0
VERTEX
  8
0
  6
CONTINUOUS
 10
3.455320
 20
2.151600
  0
VERTEX
  8
0
  6
CONTINUOUS
 10
3.486560
 20
2.138400
  0
VERTEX
  8
0
  6
CONTINUOUS
 10
3.523080
 20
2.127840
  0
VERTEX
  8
0
  6
CONTINUOUS
 10
3.564880
 20
2.120360
  0
VERTEX
  8
0
  6
CONTINUOUS
 10
3.613720
 20
2.116400
  0
VERTEX
  8
0
  6
CONTINUOUS
 10
3.613720
 20
1.866480
  0
VERTEX
  8
0
  6
CONTINUOUS
 10
3.414840
 20
1.866480
  0
VERTEX
  8
0
  6
CONTINUOUS
 10
3.414840
 20
1.456400
  0
VERTEX
  8
0
  6
CONTINUOUS
 10
3.609760
 20
1.456400
  0
VERTEX
  8
0
  6
CONTINUOUS
 10
3.609760
 20
0.996600
  0
VERTEX
  8
0
  6
CONTINUOUS
 10
2.861760
 20
0.996600
  0
VERTEX
  8
0
  6
CONTINUOUS
 10
2.861760
 20
2.381280
  0
SEQEND
  8
0
  0
POLYLINE
  8
0
  6
CONTINUOUS
 66
     1
 40
0.000000
 41
0.000000
  0
VERTEX
  8
0
  6
CONTINUOUS
 10
7.062440
 20
1.142680
  0
VERTEX
  8
0
  6
CONTINUOUS
 10
7.034720
 20
1.145320
  0
VERTEX
  8
0
  6
CONTINUOUS
 10
7.013160
 20
1.151480
  0
VERTEX
  8
0
  6
CONTINUOUS
 10
6.987200
 20
1.166880
  0
VERTEX
  8
0
  6
CONTINUOUS
 10
6.891720
 20
1.246080
  0
VERTEX
  8
0
  6
CONTINUOUS
 10
6.857400
 20
1.269840
  0
VERTEX
  8
0
  6
CONTINUOUS
 10
6.841560
 20
1.278200
  0
VERTEX
  8
0
  6
CONTINUOUS
 10
6.826160
 20
1.284360
  0
VERTEX
  8
0
  6
CONTINUOUS
 10
6.801960
 20
1.288320
  0
VERTEX
  8
0
  6
CONTINUOUS
 10
6.793600
 20
1.288760
  0
VERTEX
  8
0
  6
CONTINUOUS
 10
6.794040
 20
1.288760
  0
VERTEX
  8
0
  6
CONTINUOUS
 10
6.715280
 20
1.288760
  0
VERTEX
  8
0
  6
CONTINUOUS
 10
6.715280
 20
1.395240
  0
VERTEX
  8
0
  6
CONTINUOUS
 10
6.532240
 20
1.395240
  0
VERTEX
  8
0
  6
CONTINUOUS
 10
6.532240
 20
1.468280
  0
VERTEX
  8
0
  6
CONTINUOUS
 10
4.963200
 20
1.468280
  0
VERTEX
  8
0
  6
CONTINUOUS
 10
4.963200
 20
1.564200
  0
VERTEX
  8
0
  6
CONTINUOUS
 10
4.752880
 20
1.564200
  0
VERTEX
  8
0
  6
CONTINUOUS
 10
4.752880
 20
1.655720
  0
VERTEX
  8
0
  6
CONTINUOUS
 10
4.621760
 20
1.655720
  0
VERTEX
  8
0
  6
CONTINUOUS
 10
4.578640
 20
1.672000
  0
VERTEX
  8
0
  6
CONTINUOUS
 10
4.548280
 20
1.690480
  0
VERTEX
  8
0
  6
CONTINUOUS
 10
4.532880
 20
1.703680
  0
VERTEX
  8
0
  6
CONTINUOUS
 10
4.488440
 20
1.756040
  0
VERTEX
  8
0
  6
CONTINUOUS
 10
4.468640
 20
1.773200
  0
VERTEX
  8
0
  6
CONTINUOUS
 10
4.451920
 20
1.782440
  0
VERTEX
  8
0
  6
CONTINUOUS
 10
4.430800
 20
1.790360
  0
VERTEX
  8
0
  6
CONTINUOUS
 10
4.403960
 20
1.796080
  0
VERTEX
  8
0
  6
CONTINUOUS
 10
4.370960
 20
1.799600
  0
VERTEX
  8
0
  6
CONTINUOUS
 10
4.307160
 20
1.799600
  0
VERTEX
  8
0
  6
CONTINUOUS
 10
4.253040
 20
1.795640
  0
VERTEX
  8
0
  6
CONTINUOUS
 10
4.250840
 20
1.799600
  0
VERTEX
  8
0
  6
CONTINUOUS
 10
4.250840
 20
1.864280
  0
VERTEX
  8
0
  6
CONTINUOUS
 10
3.553000
 20
1.864280
  0
VERTEX
  8
0
  6
CONTINUOUS
 10
3.516040
 20
1.859880
  0
VERTEX
  8
0
  6
CONTINUOUS
 10
3.486560
 20
1.851520
  0
VERTEX
  8
0
  6
CONTINUOUS
 10
3.463240
 20
1.839200
  0
VERTEX
  8
0
  6
CONTINUOUS
 10
3.445640
 20
1.824240
  0
VERTEX
  8
0
  6
CONTINUOUS
 10
3.433320
 20
1.806640
  0
VERTEX
  8
0
  6
CONTINUOUS
 10
3.425400
 20
1.786840
  0
VERTEX
  8
0
  6
CONTINUOUS
 10
3.421000
 20
1.765720
  0
VERTEX
  8
0
  6
CONTINUOUS
 10
3.419680
 20
1.743280
  0
VERTEX
  8
0
  6
CONTINUOUS
 10
3.419680
 20
1.747680
  0
VERTEX
  8
0
  6
CONTINUOUS
 10
3.419680
 20
1.455960
  0
VERTEX
  8
0
  6
CONTINUOUS
 10
3.421880
 20
1.453760
  0
VERTEX
  8
0
  6
CONTINUOUS
 10
3.613280
 20
1.453760
  0
VERTEX
  8
0
  6
CONTINUOUS
 10
3.613280
 20
0.993520
  0
VERTEX
  8
0
  6
CONTINUOUS
 10
7.123600
 20
0.993520
  0
VERTEX
  8
0
  6
CONTINUOUS
 10
7.123600
 20
1.142680
  0
VERTEX
  8
0
  6
CONTINUOUS
 10
7.061560
 20
1.142680
  0
VERTEX
  8
0
  6
CONTINUOUS
 10
7.062440
 20
1.142680
  0
SEQEND
  8
0
  0
TEXT
  8
0
 10
4.287360
 20
0.762960
 40
0.138080
  1
BA  428 3/4" x 1-11/16"
 41
1.000000
  7
SN0
 71
     0
 72
     5
 11
6.003738
 21
0.762960
  0
TEXT
  8
0
 10
4.287360
 20
0.571120
 40
0.138080
  1
BA  429 7/8" x 3-11/16"
 41
1.000000
  7
SN0
 71
     0
 72
     5
 11
6.003738
 21
0.571120
  0
TEXT
  8
0
 10
2.958560
 20
1.107040
 40
0.138080
  1
428
 41
1.000000
  7
SN0
 71
     0
 72
     5
 11
3.235034
 21
1.107040
  0
TEXT
  8
0
 10
3.729000
 20
1.107920
 40
0.138080
  1
429
 41
1.000000
  7
SN0
 71
     0
 72
     5
 11
4.005474
 21
1.107920
  0
POLYLINE
  8
0
  6
CONTINUOUS
 66
     1
 40
0.000000
 41
0.000000
  0
VERTEX
  8
0
  6
CONTINUOUS
 10
2.814680
 20
4.667080
  0
VERTEX
  8
0
  6
CONTINUOUS
 10
3.137640
 20
4.667080
  0
VERTEX
  8
0
  6
CONTINUOUS
 10
3.137640
 20
4.592280
  0
VERTEX
  8
0
  6
CONTINUOUS
 10
3.137640
 20
4.591840
  0
VERTEX
  8
0
  6
CONTINUOUS
 10
3.154360
 20
4.592280
  0
VERTEX
  8
0
  6
CONTINUOUS
 10
3.170200
 20
4.591400
  0
VERTEX
  8
0
  6
CONTINUOUS
 10
3.184720
 20
4.589200
  0
VERTEX
  8
0
  6
CONTINUOUS
 10
3.198360
 20
4.586560
  0
VERTEX
  8
0
  6
CONTINUOUS
 10
3.211120
 20
4.583040
  0
VERTEX
  8
0
  6
CONTINUOUS
 10
3.223000
 20
4.578200
  0
VERTEX
  8
0
  6
CONTINUOUS
 10
3.234000
 20
4.572920
  0
VERTEX
  8
0
  6
CONTINUOUS
 10
3.244560
 20
4.567200
  0
VERTEX
  8
0
  6
CONTINUOUS
 10
3.254680
 20
4.560600
  0
VERTEX
  8
0
  6
CONTINUOUS
 10
3.263920
 20
4.553560
  0
VERTEX
  8
0
  6
CONTINUOUS
 10
3.282400
 20
4.538160
  0
VERTEX
  8
0
  6
CONTINUOUS
 10
3.300000
 20
4.521440
  0
VERTEX
  8
0
  6
CONTINUOUS
 10
3.318040
 20
4.504280
  0
VERTEX
  8
0
  6
CONTINUOUS
 10
3.336960
 20
4.486680
  0
VERTEX
  8
0
  6
CONTINUOUS
 10
3.357640
 20
4.469080
  0
VERTEX
  8
0
  6
CONTINUOUS
 10
3.369080
 20
4.460720
  0
VERTEX
  8
0
  6
CONTINUOUS
 10
3.381400
 20
4.452800
  0
VERTEX
  8
0
  6
CONTINUOUS
 10
3.394160
 20
4.444880
  0
VERTEX
  8
0
  6
CONTINUOUS
 10
3.408240
 20
4.437840
  0
VERTEX
  8
0
  6
CONTINUOUS
 10
3.423200
 20
4.430800
  0
VERTEX
  8
0
  6
CONTINUOUS
 10
3.439480
 20
4.424640
  0
VERTEX
  8
0
  6
CONTINUOUS
 10
3.457080
 20
4.418920
  0
VERTEX
  8
0
  6
CONTINUOUS
 10
3.476000
 20
4.414080
  0
VERTEX
  8
0
  6
CONTINUOUS
 10
3.496240
 20
4.409680
  0
VERTEX
  8
0
  6
CONTINUOUS
 10
3.517800
 20
4.406600
  0
VERTEX
  8
0
  6
CONTINUOUS
 10
3.541560
 20
4.403960
  0
VERTEX
  8
0
  6
CONTINUOUS
 10
3.566640
 20
4.402640
  0
VERTEX
  8
0
  6
CONTINUOUS
 10
3.566640
 20
4.398240
  0
VERTEX
  8
0
  6
CONTINUOUS
 10
3.566640
 20
4.152280
  0
VERTEX
  8
0
  6
CONTINUOUS
 10
3.367760
 20
4.152280
  0
VERTEX
  8
0
  6
CONTINUOUS
 10
3.367760
 20
3.742200
  0
VERTEX
  8
0
  6
CONTINUOUS
 10
3.563120
 20
3.742200
  0
VERTEX
  8
0
  6
CONTINUOUS
 10
3.563120
 20
3.282400
  0
VERTEX
  8
0
  6
CONTINUOUS
 10
2.814680
 20
3.282400
  0
VERTEX
  8
0
  6
CONTINUOUS
 10
2.814680
 20
4.667080
  0
SEQEND
  8
0
  0
POLYLINE
  8
0
  6
CONTINUOUS
 66
     1
 40
0.000000
 41
0.000000
  0
VERTEX
  8
0
  6
CONTINUOUS
 10
7.008760
 20
3.432000
  0
VERTEX
  8
0
  6
CONTINUOUS
 10
6.981040
 20
3.434640
  0
VERTEX
  8
0
  6
CONTINUOUS
 10
6.959480
 20
3.440800
  0
VERTEX
  8
0
  6
CONTINUOUS
 10
6.933520
 20
3.456200
  0
VERTEX
  8
0
  6
CONTINUOUS
 10
6.838040
 20
3.535400
  0
VERTEX
  8
0
  6
CONTINUOUS
 10
6.803720
 20
3.559160
  0
VERTEX
  8
0
  6
CONTINUOUS
 10
6.787880
 20
3.567520
  0
VERTEX
  8
0
  6
CONTINUOUS
 10
6.772480
 20
3.573680
  0
VERTEX
  8
0
  6
CONTINUOUS
 10
6.748280
 20
3.577640
  0
VERTEX
  8
0
  6
CONTINUOUS
 10
6.661600
 20
3.578080
  0
VERTEX
  8
0
  6
CONTINUOUS
 10
6.661600
 20
3.685000
  0
VERTEX
  8
0
  6
CONTINUOUS
 10
6.478560
 20
3.685000
  0
VERTEX
  8
0
  6
CONTINUOUS
 10
6.478560
 20
3.757600
  0
VERTEX
  8
0
  6
CONTINUOUS
 10
4.909520
 20
3.757600
  0
VERTEX
  8
0
  6
CONTINUOUS
 10
4.909520
 20
3.853520
  0
VERTEX
  8
0
  6
CONTINUOUS
 10
4.699200
 20
3.853520
  0
VERTEX
  8
0
  6
CONTINUOUS
 10
4.699200
 20
3.945480
  0
VERTEX
  8
0
  6
CONTINUOUS
 10
4.568080
 20
3.945480
  0
VERTEX
  8
0
  6
CONTINUOUS
 10
4.537720
 20
3.956040
  0
VERTEX
  8
0
  6
CONTINUOUS
 10
4.503400
 20
3.973640
  0
VERTEX
  8
0
  6
CONTINUOUS
 10
4.478760
 20
3.993440
  0
VERTEX
  8
0
  6
CONTINUOUS
 10
4.434320
 20
4.045360
  0
VERTEX
  8
0
  6
CONTINUOUS
 10
4.414960
 20
4.062520
  0
VERTEX
  8
0
  6
CONTINUOUS
 10
4.398240
 20
4.071760
  0
VERTEX
  8
0
  6
CONTINUOUS
 10
4.377120
 20
4.079680
  0
VERTEX
  8
0
  6
CONTINUOUS
 10
4.350280
 20
4.085400
  0
VERTEX
  8
0
  6
CONTINUOUS
 10
4.317280
 20
4.088920
  0
VERTEX
  8
0
  6
CONTINUOUS
 10
4.253480
 20
4.088920
  0
VERTEX
  8
0
  6
CONTINUOUS
 10
4.199360
 20
4.084960
  0
VERTEX
  8
0
  6
CONTINUOUS
 10
4.197160
 20
4.088920
  0
VERTEX
  8
0
  6
CONTINUOUS
 10
4.197160
 20
4.153600
  0
VERTEX
  8
0
  6
CONTINUOUS
 10
3.499320
 20
4.153600
  0
VERTEX
  8
0
  6
CONTINUOUS
 10
3.462360
 20
4.149200
  0
VERTEX
  8
0
  6
CONTINUOUS
 10
3.432880
 20
4.140840
  0
VERTEX
  8
0
  6
CONTINUOUS
 10
3.409560
 20
4.128520
  0
VERTEX
  8
0
  6
CONTINUOUS
 10
3.391960
 20
4.113560
  0
VERTEX
  8
0
  6
CONTINUOUS
 10
3.379640
 20
4.095960
  0
VERTEX
  8
0
  6
CONTINUOUS
 10
3.371720
 20
4.076160
  0
VERTEX
  8
0
  6
CONTINUOUS
 10
3.367320
 20
4.055040
  0
VERTEX
  8
0
  6
CONTINUOUS
 10
3.366000
 20
4.032600
  0
VERTEX
  8
0
  6
CONTINUOUS
 10
3.366000
 20
4.037000
  0
VERTEX
  8
0
  6
CONTINUOUS
 10
3.366000
 20
3.745280
  0
VERTEX
  8
0
  6
CONTINUOUS
 10
3.367760
 20
3.743080
  0
VERTEX
  8
0
  6
CONTINUOUS
 10
3.559600
 20
3.743080
  0
VERTEX
  8
0
  6
CONTINUOUS
 10
3.559600
 20
3.282840
  0
VERTEX
  8
0
  6
CONTINUOUS
 10
7.069920
 20
3.282840
  0
VERTEX
  8
0
  6
CONTINUOUS
 10
7.069920
 20
3.432000
  0
VERTEX
  8
0
  6
CONTINUOUS
 10
7.007880
 20
3.432000
  0
VERTEX
  8
0
  6
CONTINUOUS
 10
7.008760
 20
3.432000
  0
SEQEND
  8
0
  0
TEXT
  8
0
 10
4.244240
 20
3.543760
 40
0.138080
  1
BA  428 3/4" x 1-11/16"
 41
1.000000
  7
SN0
 71
     0
 72
     5
 11
5.960618
 21
3.543760
  0
TEXT
  8
0
 10
4.244240
 20
3.351920
 40
0.138080
  1
BA  429 7/8" x 3-11/16"
 41
1.000000
  7
SN0
 71
     0
 72
     5
 11
5.960618
 21
3.351920
  0
TEXT
  8
0
 10
2.903120
 20
3.382720
 40
0.138080
  1
428
 41
1.000000
  7
SN0
 71
     0
 72
     5
 11
3.179594
 21
3.382720
  0
TEXT
  8
0
 10
3.673120
 20
3.383600
 40
0.138080
  1
429
 41
1.000000
  7
SN0
 71
     0
 72
     5
 11
3.949594
 21
3.383600
  0
ENDSEC
  0
EOF
