  0
SECTION
  2
HEADER
  9
$ACADVER
  1
AC1006
  9
$EXTMIN
 10
3.407800
 20
0.480480
  9
$EXTMAX
 10
7.885680
 20
3.916880
  9
$LTSCALE
 40
0.044000
  9
$PDMODE
 70
    35
  9
$PDSIZE
 40
0.035200
  0
ENDSEC
  0
SECTION
  2
TABLES
  0
TABLE
  2
LTYPE
 70
     9
  0
LTYPE
  2
CONTINUOUS
 70
    64
  3
Solid line
 72
    65
 73
     0
 40
0.000000
  0
LTYPE
  2
DASHED
 70
    64
  3
__ __ __ __ __ __ __ __ __ __ __ __ __ __ __
 72
    65
 73
     2
 40
0.000330
 49
0.000220
 49
-0.000110
  0
LTYPE
  2
HIDDEN
 70
    64
  3
 _ _ _ _ _ _ _ _ _ _ _ _ _ _ _ _ _ _ _ _ _ _
 72
    65
 73
     2
 40
0.000165
 49
0.000110
 49
-0.000055
  0
LTYPE
  2
CENTER
 70
    64
  3
____ _ ____ _ ____ _ ____ _ ____ _ ____ _ ____
 72
    65
 73
     4
 40
0.000880
 49
0.000550
 49
-0.000110
 49
0.000110
 49
-0.000110
  0
LTYPE
  2
PHANTOM
 70
    64
  3
_____ _ _ _____ _ _ _____ _ _ _____ _ _ ____
 72
    65
 73
     6
 40
0.001100
 49
0.000550
 49
-0.000110
 49
0.000110
 49
-0.000110
 49
0.000110
 49
-0.000110
  0
LTYPE
  2
DOT
 70
    64
  3
...............................................
 72
    65
 73
     2
 40
0.000110
 49
0.000000
 49
-0.000110
  0
LTYPE
  2
DASHDOT
 70
    64
  3
__ . __ . __ . __ . __ . __ . __ . __ . __ . __
 72
    65
 73
     4
 40
0.000440
 49
0.000220
 49
-0.000110
 49
0.000000
 49
-0.000110
  0
LTYPE
  2
BORDER
 70
    64
  3
__ __ . __ __ . __ __ . __ __ . __ __ . __ __
 72
    65
 73
     6
 40
0.000770
 49
0.000220
 49
-0.000110
 49
0.000220
 49
-0.000110
 49
0.000000
 49
-0.000110
  0
LTYPE
  2
DIVIDE
 70
    64
  3
__ . . __ . . __ . . __ . . __ . . __ . . __
 72
    65
 73
     6
 40
0.000550
 49
0.000220
 49
-0.000110
 49
0.000000
 49
-0.000110
 49
0.000000
 49
-0.000110
  0
LTYPE
  2
DOTDOT
 70
    64
  3
 . .  . .  . .  . .  . .  . . 
 72
    65
 73
     5
 40
0.000242
 49
-0.000110
 49
0.000000
 49
-0.000110
 49
0.000000
 49
-0.000110
  0
ENDTAB
  0
TABLE
  2
STYLE
 70
     2
  0
STYLE
 70
     0
  2
SN0
 40
0.000000
 41
0.000440
 50
0.000000
 71
     0
 42
0.000000
  3
ROMAND
  0
STYLE
 70
    68
  2
SV0
 40
0.000000
 41
0.000440
 50
0.000000
 71
     0
 42
0.000000
  3
ROMAND
  0
ENDTAB
  0
TABLE
  2
LAYER
 70
     3
  0
LAYER
  2
FOREGROUND
 70
    64
 62
     7
  6
CONTINUOUS
  0
LAYER
  2
BACKGROUND
 70
    65
 62
    -7
  6
CONTINUOUS
  0
LAYER
  2
0
 70
    64
 62
     7
  6
CONTINUOUS
  0
ENDTAB
  0
ENDSEC
  0
SECTION
  2
ENTITIES
  0
POLYLINE
  8
FOREGROUND
  6
CONTINUOUS
 66
     1
 40
0.000000
 41
0.000000
  0
VERTEX
  8
FOREGROUND
  6
CONTINUOUS
 10
0.000000
 20
4.397360
  0
VERTEX
  8
FOREGROUND
  6
CONTINUOUS
 10
8.499920
 20
4.397360
  0
VERTEX
  8
FOREGROUND
  6
CONTINUOUS
 10
8.499920
 20
-6.602640
  0
VERTEX
  8
FOREGROUND
  6
CONTINUOUS
 10
0.000000
 20
-6.602640
  0
VERTEX
  8
FOREGROUND
  6
CONTINUOUS
 10
0.000000
 20
4.397360
  0
SEQEND
  8
0
  0
POLYLINE
  8
FOREGROUND
  6
CONTINUOUS
 66
     1
 40
0.000000
 41
0.000000
  0
VERTEX
  8
FOREGROUND
  6
CONTINUOUS
 10
0.000000
 20
4.397360
  0
VERTEX
  8
FOREGROUND
  6
CONTINUOUS
 10
8.499920
 20
4.397360
  0
VERTEX
  8
FOREGROUND
  6
CONTINUOUS
 10
8.499920
 20
-6.602640
  0
VERTEX
  8
FOREGROUND
  6
CONTINUOUS
 10
0.000000
 20
-6.602640
  0
VERTEX
  8
FOREGROUND
  6
CONTINUOUS
 10
0.000000
 20
4.397360
  0
SEQEND
  8
0
  0
POLYLINE
  8
0
  6
CONTINUOUS
 66
     1
 40
0.014080
 41
0.014080
  0
VERTEX
  8
0
  6
CONTINUOUS
 10
5.507040
 20
3.429800
  0
VERTEX
  8
0
  6
CONTINUOUS
 10
6.406840
 20
3.429800
  0
VERTEX
  8
0
  6
CONTINUOUS
 10
6.406840
 20
3.327720
  0
VERTEX
  8
0
  6
CONTINUOUS
 10
6.439400
 20
3.325960
  0
VERTEX
  8
0
  6
CONTINUOUS
 10
6.476360
 20
3.319800
  0
VERTEX
  8
0
  6
CONTINUOUS
 10
6.505400
 20
3.310120
  0
VERTEX
  8
0
  6
CONTINUOUS
 10
6.536640
 20
3.293840
  0
VERTEX
  8
0
  6
CONTINUOUS
 10
6.579760
 20
3.265680
  0
VERTEX
  8
0
  6
CONTINUOUS
 10
6.614960
 20
3.248520
  0
VERTEX
  8
0
  6
CONTINUOUS
 10
6.648840
 20
3.237520
  0
VERTEX
  8
0
  6
CONTINUOUS
 10
6.692400
 20
3.230040
  0
VERTEX
  8
0
  6
CONTINUOUS
 10
6.747840
 20
3.226080
  0
VERTEX
  8
0
  6
CONTINUOUS
 10
6.769400
 20
3.225640
  0
VERTEX
  8
0
  6
CONTINUOUS
 10
6.769400
 20
3.154800
  0
VERTEX
  8
0
  6
CONTINUOUS
 10
6.919440
 20
3.154800
  0
VERTEX
  8
0
  6
CONTINUOUS
 10
6.919440
 20
3.029840
  0
VERTEX
  8
0
  6
CONTINUOUS
 10
3.415280
 20
3.029840
  0
VERTEX
  8
0
  6
CONTINUOUS
 10
3.415280
 20
3.780040
  0
VERTEX
  8
0
  6
CONTINUOUS
 10
3.813040
 20
3.780040
  0
VERTEX
  8
0
  6
CONTINUOUS
 10
3.813040
 20
3.727680
  0
VERTEX
  8
0
  6
CONTINUOUS
 10
3.847360
 20
3.726360
  0
VERTEX
  8
0
  6
CONTINUOUS
 10
3.885200
 20
3.719760
  0
VERTEX
  8
0
  6
CONTINUOUS
 10
3.916440
 20
3.708320
  0
VERTEX
  8
0
  6
CONTINUOUS
 10
3.952520
 20
3.688960
  0
VERTEX
  8
0
  6
CONTINUOUS
 10
4.004000
 20
3.655960
  0
VERTEX
  8
0
  6
CONTINUOUS
 10
4.033040
 20
3.640120
  0
VERTEX
  8
0
  6
CONTINUOUS
 10
4.068240
 20
3.626920
  0
VERTEX
  8
0
  6
CONTINUOUS
 10
4.110480
 20
3.617240
  0
VERTEX
  8
0
  6
CONTINUOUS
 10
4.144360
 20
3.613720
  0
VERTEX
  8
0
  6
CONTINUOUS
 10
4.183080
 20
3.612400
  0
VERTEX
  8
0
  6
CONTINUOUS
 10
4.209040
 20
3.613280
  0
VERTEX
  8
0
  6
CONTINUOUS
 10
4.209040
 20
3.542440
  0
VERTEX
  8
0
  6
CONTINUOUS
 10
4.394280
 20
3.542440
  0
VERTEX
  8
0
  6
CONTINUOUS
 10
4.394280
 20
3.483920
  0
VERTEX
  8
0
  6
CONTINUOUS
 10
4.565440
 20
3.483920
  0
VERTEX
  8
0
  6
CONTINUOUS
 10
4.565440
 20
3.435960
  0
VERTEX
  8
0
  6
CONTINUOUS
 10
4.583920
 20
3.435960
  0
VERTEX
  8
0
  6
CONTINUOUS
 10
4.586120
 20
3.438160
  0
VERTEX
  8
0
  6
CONTINUOUS
 10
4.623960
 20
3.456640
  0
VERTEX
  8
0
  6
CONTINUOUS
 10
4.661360
 20
3.472480
  0
VERTEX
  8
0
  6
CONTINUOUS
 10
4.699200
 20
3.485680
  0
VERTEX
  8
0
  6
CONTINUOUS
 10
4.736600
 20
3.496680
  0
VERTEX
  8
0
  6
CONTINUOUS
 10
4.774440
 20
3.505480
  0
VERTEX
  8
0
  6
CONTINUOUS
 10
4.811840
 20
3.511640
  0
VERTEX
  8
0
  6
CONTINUOUS
 10
4.850120
 20
3.515600
  0
VERTEX
  8
0
  6
CONTINUOUS
 10
4.887960
 20
3.516920
  0
VERTEX
  8
0
  6
CONTINUOUS
 10
4.926680
 20
3.516040
  0
VERTEX
  8
0
  6
CONTINUOUS
 10
4.965400
 20
3.512520
  0
VERTEX
  8
0
  6
CONTINUOUS
 10
5.004560
 20
3.506800
  0
VERTEX
  8
0
  6
CONTINUOUS
 10
5.044160
 20
3.498880
  0
VERTEX
  8
0
  6
CONTINUOUS
 10
5.084640
 20
3.488320
  0
VERTEX
  8
0
  6
CONTINUOUS
 10
5.166920
 20
3.460160
  0
VERTEX
  8
0
  6
CONTINUOUS
 10
5.210920
 20
3.442560
  0
VERTEX
  8
0
  6
CONTINUOUS
 10
5.232040
 20
3.442560
  0
VERTEX
  8
0
  6
CONTINUOUS
 10
5.232040
 20
3.521760
  0
VERTEX
  8
0
  6
CONTINUOUS
 10
5.502640
 20
3.521760
  0
VERTEX
  8
0
  6
CONTINUOUS
 10
5.502640
 20
3.429800
  0
VERTEX
  8
0
  6
CONTINUOUS
 10
5.507040
 20
3.429800
  0
SEQEND
  8
0
  0
SOLID
  8
0
 62
    15
 10
4.499440
 20
1.584440
 11
4.491520
 21
2.340800
 12
4.544760
 22
1.565960
 13
4.536840
 23
2.322320
  0
POLYLINE
  8
0
  6
CONTINUOUS
 66
     1
 40
0.000000
 41
0.000000
  0
VERTEX
  8
0
  6
CONTINUOUS
 10
4.499440
 20
1.584440
  0
VERTEX
  8
0
  6
CONTINUOUS
 10
4.491520
 20
2.340800
  0
VERTEX
  8
0
  6
CONTINUOUS
 10
4.536840
 20
2.322320
  0
VERTEX
  8
0
  6
CONTINUOUS
 10
4.544760
 20
1.565960
  0
VERTEX
  8
0
  6
CONTINUOUS
 10
4.499440
 20
1.584440
  0
SEQEND
  8
0
  0
SOLID
  8
0
 62
    15
 10
6.883360
 20
1.266760
 11
6.875440
 21
2.023120
 12
6.885560
 22
1.266760
 13
6.877640
 23
2.023120
  0
POLYLINE
  8
0
  6
CONTINUOUS
 66
     1
 40
0.000000
 41
0.000000
  0
VERTEX
  8
0
  6
CONTINUOUS
 10
6.883360
 20
1.266760
  0
VERTEX
  8
0
  6
CONTINUOUS
 10
6.875440
 20
2.023120
  0
VERTEX
  8
0
  6
CONTINUOUS
 10
6.877640
 20
2.023120
  0
VERTEX
  8
0
  6
CONTINUOUS
 10
6.885560
 20
1.266760
  0
VERTEX
  8
0
  6
CONTINUOUS
 10
6.883360
 20
1.266760
  0
SEQEND
  8
0
  0
SOLID
  8
0
 62
    15
 10
6.885560
 20
1.266760
 11
6.877640
 21
2.023120
 12
6.915920
 22
1.265000
 13
6.908000
 23
2.021360
  0
POLYLINE
  8
0
  6
CONTINUOUS
 66
     1
 40
0.000000
 41
0.000000
  0
VERTEX
  8
0
  6
CONTINUOUS
 10
6.885560
 20
1.266760
  0
VERTEX
  8
0
  6
CONTINUOUS
 10
6.877640
 20
2.023120
  0
VERTEX
  8
0
  6
CONTINUOUS
 10
6.908000
 20
2.021360
  0
VERTEX
  8
0
  6
CONTINUOUS
 10
6.915920
 20
1.265000
  0
VERTEX
  8
0
  6
CONTINUOUS
 10
6.885560
 20
1.266760
  0
SEQEND
  8
0
  0
SOLID
  8
0
 62
    15
 10
6.915920
 20
1.265000
 11
6.908000
 21
2.021360
 12
6.941440
 22
1.261480
 13
6.933520
 23
2.017400
  0
POLYLINE
  8
0
  6
CONTINUOUS
 66
     1
 40
0.000000
 41
0.000000
  0
VERTEX
  8
0
  6
CONTINUOUS
 10
6.915920
 20
1.265000
  0
VERTEX
  8
0
  6
CONTINUOUS
 10
6.908000
 20
2.021360
  0
VERTEX
  8
0
  6
CONTINUOUS
 10
6.933520
 20
2.017400
  0
VERTEX
  8
0
  6
CONTINUOUS
 10
6.941440
 20
1.261480
  0
VERTEX
  8
0
  6
CONTINUOUS
 10
6.915920
 20
1.265000
  0
SEQEND
  8
0
  0
SOLID
  8
0
 62
    15
 10
6.941440
 20
1.261480
 11
6.933520
 21
2.017400
 12
6.981920
 22
1.249160
 13
6.974000
 23
2.005520
  0
POLYLINE
  8
0
  6
CONTINUOUS
 66
     1
 40
0.000000
 41
0.000000
  0
VERTEX
  8
0
  6
CONTINUOUS
 10
6.941440
 20
1.261480
  0
VERTEX
  8
0
  6
CONTINUOUS
 10
6.933520
 20
2.017400
  0
VERTEX
  8
0
  6
CONTINUOUS
 10
6.974000
 20
2.005520
  0
VERTEX
  8
0
  6
CONTINUOUS
 10
6.981920
 20
1.249160
  0
VERTEX
  8
0
  6
CONTINUOUS
 10
6.941440
 20
1.261480
  0
SEQEND
  8
0
  0
SOLID
  8
0
 62
    15
 10
6.981920
 20
1.249160
 11
6.974000
 21
2.005520
 12
7.013160
 22
1.232880
 13
7.005240
 23
1.989240
  0
POLYLINE
  8
0
  6
CONTINUOUS
 66
     1
 40
0.000000
 41
0.000000
  0
VERTEX
  8
0
  6
CONTINUOUS
 10
6.981920
 20
1.249160
  0
VERTEX
  8
0
  6
CONTINUOUS
 10
6.974000
 20
2.005520
  0
VERTEX
  8
0
  6
CONTINUOUS
 10
7.005240
 20
1.989240
  0
VERTEX
  8
0
  6
CONTINUOUS
 10
7.013160
 20
1.232880
  0
VERTEX
  8
0
  6
CONTINUOUS
 10
6.981920
 20
1.249160
  0
SEQEND
  8
0
  0
SOLID
  8
0
 62
    15
 10
7.013160
 20
1.232880
 11
7.005240
 21
1.989240
 12
7.041760
 22
1.214400
 13
7.033400
 23
1.970760
  0
POLYLINE
  8
0
  6
CONTINUOUS
 66
     1
 40
0.000000
 41
0.000000
  0
VERTEX
  8
0
  6
CONTINUOUS
 10
7.013160
 20
1.232880
  0
VERTEX
  8
0
  6
CONTINUOUS
 10
7.005240
 20
1.989240
  0
VERTEX
  8
0
  6
CONTINUOUS
 10
7.033400
 20
1.970760
  0
VERTEX
  8
0
  6
CONTINUOUS
 10
7.041760
 20
1.214400
  0
VERTEX
  8
0
  6
CONTINUOUS
 10
7.013160
 20
1.232880
  0
SEQEND
  8
0
  0
SOLID
  8
0
 62
    15
 10
7.041760
 20
1.214400
 11
7.033400
 21
1.970760
 12
7.072560
 22
1.195920
 13
7.064640
 23
1.952280
  0
POLYLINE
  8
0
  6
CONTINUOUS
 66
     1
 40
0.000000
 41
0.000000
  0
VERTEX
  8
0
  6
CONTINUOUS
 10
7.041760
 20
1.214400
  0
VERTEX
  8
0
  6
CONTINUOUS
 10
7.033400
 20
1.970760
  0
VERTEX
  8
0
  6
CONTINUOUS
 10
7.064640
 20
1.952280
  0
VERTEX
  8
0
  6
CONTINUOUS
 10
7.072560
 20
1.195920
  0
VERTEX
  8
0
  6
CONTINUOUS
 10
7.041760
 20
1.214400
  0
SEQEND
  8
0
  0
SOLID
  8
0
 62
    15
 10
7.072560
 20
1.195920
 11
7.064640
 21
1.952280
 12
7.113040
 22
1.180080
 13
7.105120
 23
1.936440
  0
POLYLINE
  8
0
  6
CONTINUOUS
 66
     1
 40
0.000000
 41
0.000000
  0
VERTEX
  8
0
  6
CONTINUOUS
 10
7.072560
 20
1.195920
  0
VERTEX
  8
0
  6
CONTINUOUS
 10
7.064640
 20
1.952280
  0
VERTEX
  8
0
  6
CONTINUOUS
 10
7.105120
 20
1.936440
  0
VERTEX
  8
0
  6
CONTINUOUS
 10
7.113040
 20
1.180080
  0
VERTEX
  8
0
  6
CONTINUOUS
 10
7.072560
 20
1.195920
  0
SEQEND
  8
0
  0
SOLID
  8
0
 62
    15
 10
7.113040
 20
1.180080
 11
7.105120
 21
1.936440
 12
7.138560
 22
1.173920
 13
7.130640
 23
1.930280
  0
POLYLINE
  8
0
  6
CONTINUOUS
 66
     1
 40
0.000000
 41
0.000000
  0
VERTEX
  8
0
  6
CONTINUOUS
 10
7.113040
 20
1.180080
  0
VERTEX
  8
0
  6
CONTINUOUS
 10
7.105120
 20
1.936440
  0
VERTEX
  8
0
  6
CONTINUOUS
 10
7.130640
 20
1.930280
  0
VERTEX
  8
0
  6
CONTINUOUS
 10
7.138560
 20
1.173920
  0
VERTEX
  8
0
  6
CONTINUOUS
 10
7.113040
 20
1.180080
  0
SEQEND
  8
0
  0
SOLID
  8
0
 62
    15
 10
7.138560
 20
1.173920
 11
7.130640
 21
1.930280
 12
7.168920
 22
1.169080
 13
7.161000
 23
1.925440
  0
POLYLINE
  8
0
  6
CONTINUOUS
 66
     1
 40
0.000000
 41
0.000000
  0
VERTEX
  8
0
  6
CONTINUOUS
 10
7.138560
 20
1.173920
  0
VERTEX
  8
0
  6
CONTINUOUS
 10
7.130640
 20
1.930280
  0
VERTEX
  8
0
  6
CONTINUOUS
 10
7.161000
 20
1.925440
  0
VERTEX
  8
0
  6
CONTINUOUS
 10
7.168920
 20
1.169080
  0
VERTEX
  8
0
  6
CONTINUOUS
 10
7.138560
 20
1.173920
  0
SEQEND
  8
0
  0
SOLID
  8
0
 62
    15
 10
7.168920
 20
1.169080
 11
7.161000
 21
1.925440
 12
7.204120
 22
1.166000
 13
7.196200
 23
1.922360
  0
POLYLINE
  8
0
  6
CONTINUOUS
 66
     1
 40
0.000000
 41
0.000000
  0
VERTEX
  8
0
  6
CONTINUOUS
 10
7.168920
 20
1.169080
  0
VERTEX
  8
0
  6
CONTINUOUS
 10
7.161000
 20
1.925440
  0
VERTEX
  8
0
  6
CONTINUOUS
 10
7.196200
 20
1.922360
  0
VERTEX
  8
0
  6
CONTINUOUS
 10
7.204120
 20
1.166000
  0
VERTEX
  8
0
  6
CONTINUOUS
 10
7.168920
 20
1.169080
  0
SEQEND
  8
0
  0
SOLID
  8
0
 62
    15
 10
7.245920
 20
1.093840
 11
7.238000
 21
1.850200
 12
7.395960
 22
1.093840
 13
7.388040
 23
1.850200
  0
POLYLINE
  8
0
  6
CONTINUOUS
 66
     1
 40
0.000000
 41
0.000000
  0
VERTEX
  8
0
  6
CONTINUOUS
 10
7.245920
 20
1.093840
  0
VERTEX
  8
0
  6
CONTINUOUS
 10
7.238000
 20
1.850200
  0
VERTEX
  8
0
  6
CONTINUOUS
 10
7.388040
 20
1.850200
  0
VERTEX
  8
0
  6
CONTINUOUS
 10
7.395960
 20
1.093840
  0
VERTEX
  8
0
  6
CONTINUOUS
 10
7.245920
 20
1.093840
  0
SEQEND
  8
0
  0
SOLID
  8
0
 62
    15
 10
7.204120
 20
1.166000
 11
7.196200
 21
1.922360
 12
7.245920
 22
1.164680
 13
7.238000
 23
1.921040
  0
POLYLINE
  8
0
  6
CONTINUOUS
 66
     1
 40
0.000000
 41
0.000000
  0
VERTEX
  8
0
  6
CONTINUOUS
 10
7.204120
 20
1.166000
  0
VERTEX
  8
0
  6
CONTINUOUS
 10
7.196200
 20
1.922360
  0
VERTEX
  8
0
  6
CONTINUOUS
 10
7.238000
 20
1.921040
  0
VERTEX
  8
0
  6
CONTINUOUS
 10
7.245920
 20
1.164680
  0
VERTEX
  8
0
  6
CONTINUOUS
 10
7.204120
 20
1.166000
  0
SEQEND
  8
0
  0
SOLID
  8
0
 62
    15
 10
3.891800
 20
0.968880
 11
3.883880
 21
1.725240
 12
3.891800
 22
1.719080
 13
3.883880
 23
2.475000
  0
POLYLINE
  8
0
  6
CONTINUOUS
 66
     1
 40
0.000000
 41
0.000000
  0
VERTEX
  8
0
  6
CONTINUOUS
 10
3.891800
 20
0.968880
  0
VERTEX
  8
0
  6
CONTINUOUS
 10
3.883880
 20
1.725240
  0
VERTEX
  8
0
  6
CONTINUOUS
 10
3.883880
 20
2.475000
  0
VERTEX
  8
0
  6
CONTINUOUS
 10
3.891800
 20
1.719080
  0
VERTEX
  8
0
  6
CONTINUOUS
 10
3.891800
 20
0.968880
  0
SEQEND
  8
0
  0
SOLID
  8
0
 62
    15
 10
4.290000
 20
1.666720
 11
4.281640
 21
2.423080
 12
4.293960
 22
1.666720
 13
4.286040
 23
2.423080
  0
POLYLINE
  8
0
  6
CONTINUOUS
 66
     1
 40
0.000000
 41
0.000000
  0
VERTEX
  8
0
  6
CONTINUOUS
 10
4.290000
 20
1.666720
  0
VERTEX
  8
0
  6
CONTINUOUS
 10
4.281640
 20
2.423080
  0
VERTEX
  8
0
  6
CONTINUOUS
 10
4.286040
 20
2.423080
  0
VERTEX
  8
0
  6
CONTINUOUS
 10
4.293960
 20
1.666720
  0
VERTEX
  8
0
  6
CONTINUOUS
 10
4.290000
 20
1.666720
  0
SEQEND
  8
0
  0
SOLID
  8
0
 62
    15
 10
3.891800
 20
1.719080
 11
3.883880
 21
2.475000
 12
4.290000
 22
1.719080
 13
4.281640
 23
2.475000
  0
POLYLINE
  8
0
  6
CONTINUOUS
 66
     1
 40
0.000000
 41
0.000000
  0
VERTEX
  8
0
  6
CONTINUOUS
 10
3.891800
 20
1.719080
  0
VERTEX
  8
0
  6
CONTINUOUS
 10
3.883880
 20
2.475000
  0
VERTEX
  8
0
  6
CONTINUOUS
 10
4.281640
 20
2.475000
  0
VERTEX
  8
0
  6
CONTINUOUS
 10
4.290000
 20
1.719080
  0
VERTEX
  8
0
  6
CONTINUOUS
 10
3.891800
 20
1.719080
  0
SEQEND
  8
0
  0
SOLID
  8
0
 62
    15
 10
4.293960
 20
1.666720
 11
4.286040
 21
2.423080
 12
4.323880
 22
1.665400
 13
4.315960
 23
2.421760
  0
POLYLINE
  8
0
  6
CONTINUOUS
 66
     1
 40
0.000000
 41
0.000000
  0
VERTEX
  8
0
  6
CONTINUOUS
 10
4.293960
 20
1.666720
  0
VERTEX
  8
0
  6
CONTINUOUS
 10
4.286040
 20
2.423080
  0
VERTEX
  8
0
  6
CONTINUOUS
 10
4.315960
 20
2.421760
  0
VERTEX
  8
0
  6
CONTINUOUS
 10
4.323880
 20
1.665400
  0
VERTEX
  8
0
  6
CONTINUOUS
 10
4.293960
 20
1.666720
  0
SEQEND
  8
0
  0
SOLID
  8
0
 62
    15
 10
4.323880
 20
1.665400
 11
4.315960
 21
2.421760
 12
4.349840
 22
1.661440
 13
4.341920
 23
2.417800
  0
POLYLINE
  8
0
  6
CONTINUOUS
 66
     1
 40
0.000000
 41
0.000000
  0
VERTEX
  8
0
  6
CONTINUOUS
 10
4.323880
 20
1.665400
  0
VERTEX
  8
0
  6
CONTINUOUS
 10
4.315960
 20
2.421760
  0
VERTEX
  8
0
  6
CONTINUOUS
 10
4.341920
 20
2.417800
  0
VERTEX
  8
0
  6
CONTINUOUS
 10
4.349840
 20
1.661440
  0
VERTEX
  8
0
  6
CONTINUOUS
 10
4.323880
 20
1.665400
  0
SEQEND
  8
0
  0
SOLID
  8
0
 62
    15
 10
4.349840
 20
1.661440
 11
4.341920
 21
2.417800
 12
4.392960
 22
1.647800
 13
4.385040
 23
2.403720
  0
POLYLINE
  8
0
  6
CONTINUOUS
 66
     1
 40
0.000000
 41
0.000000
  0
VERTEX
  8
0
  6
CONTINUOUS
 10
4.349840
 20
1.661440
  0
VERTEX
  8
0
  6
CONTINUOUS
 10
4.341920
 20
2.417800
  0
VERTEX
  8
0
  6
CONTINUOUS
 10
4.385040
 20
2.403720
  0
VERTEX
  8
0
  6
CONTINUOUS
 10
4.392960
 20
1.647800
  0
VERTEX
  8
0
  6
CONTINUOUS
 10
4.349840
 20
1.661440
  0
SEQEND
  8
0
  0
SOLID
  8
0
 62
    15
 10
4.392960
 20
1.647800
 11
4.385040
 21
2.403720
 12
4.462480
 22
1.606000
 13
4.454560
 23
2.362360
  0
POLYLINE
  8
0
  6
CONTINUOUS
 66
     1
 40
0.000000
 41
0.000000
  0
VERTEX
  8
0
  6
CONTINUOUS
 10
4.392960
 20
1.647800
  0
VERTEX
  8
0
  6
CONTINUOUS
 10
4.385040
 20
2.403720
  0
VERTEX
  8
0
  6
CONTINUOUS
 10
4.454560
 20
2.362360
  0
VERTEX
  8
0
  6
CONTINUOUS
 10
4.462480
 20
1.606000
  0
VERTEX
  8
0
  6
CONTINUOUS
 10
4.392960
 20
1.647800
  0
SEQEND
  8
0
  0
SOLID
  8
0
 62
    15
 10
4.462480
 20
1.606000
 11
4.454560
 21
2.362360
 12
4.499440
 22
1.584440
 13
4.491520
 23
2.340800
  0
POLYLINE
  8
0
  6
CONTINUOUS
 66
     1
 40
0.000000
 41
0.000000
  0
VERTEX
  8
0
  6
CONTINUOUS
 10
4.462480
 20
1.606000
  0
VERTEX
  8
0
  6
CONTINUOUS
 10
4.454560
 20
2.362360
  0
VERTEX
  8
0
  6
CONTINUOUS
 10
4.491520
 20
2.340800
  0
VERTEX
  8
0
  6
CONTINUOUS
 10
4.499440
 20
1.584440
  0
VERTEX
  8
0
  6
CONTINUOUS
 10
4.462480
 20
1.606000
  0
SEQEND
  8
0
  0
SOLID
  8
0
 62
    15
 10
5.983560
 20
1.368840
 11
5.975640
 21
2.125200
 12
6.883360
 22
1.368840
 13
6.875440
 23
2.125200
  0
POLYLINE
  8
0
  6
CONTINUOUS
 66
     1
 40
0.000000
 41
0.000000
  0
VERTEX
  8
0
  6
CONTINUOUS
 10
5.983560
 20
1.368840
  0
VERTEX
  8
0
  6
CONTINUOUS
 10
5.975640
 20
2.125200
  0
VERTEX
  8
0
  6
CONTINUOUS
 10
6.875440
 20
2.125200
  0
VERTEX
  8
0
  6
CONTINUOUS
 10
6.883360
 20
1.368840
  0
VERTEX
  8
0
  6
CONTINUOUS
 10
5.983560
 20
1.368840
  0
SEQEND
  8
0
  0
SOLID
  8
0
 62
    15
 10
4.544760
 20
1.565960
 11
4.536840
 21
2.322320
 12
4.572040
 22
1.559360
 13
4.564120
 23
2.315720
  0
POLYLINE
  8
0
  6
CONTINUOUS
 66
     1
 40
0.000000
 41
0.000000
  0
VERTEX
  8
0
  6
CONTINUOUS
 10
4.544760
 20
1.565960
  0
VERTEX
  8
0
  6
CONTINUOUS
 10
4.536840
 20
2.322320
  0
VERTEX
  8
0
  6
CONTINUOUS
 10
4.564120
 20
2.315720
  0
VERTEX
  8
0
  6
CONTINUOUS
 10
4.572040
 20
1.559360
  0
VERTEX
  8
0
  6
CONTINUOUS
 10
4.544760
 20
1.565960
  0
SEQEND
  8
0
  0
SOLID
  8
0
 62
    15
 10
4.572040
 20
1.559360
 11
4.564120
 21
2.315720
 12
4.603720
 22
1.554520
 13
4.595800
 23
2.310440
  0
POLYLINE
  8
0
  6
CONTINUOUS
 66
     1
 40
0.000000
 41
0.000000
  0
VERTEX
  8
0
  6
CONTINUOUS
 10
4.572040
 20
1.559360
  0
VERTEX
  8
0
  6
CONTINUOUS
 10
4.564120
 20
2.315720
  0
VERTEX
  8
0
  6
CONTINUOUS
 10
4.595800
 20
2.310440
  0
VERTEX
  8
0
  6
CONTINUOUS
 10
4.603720
 20
1.554520
  0
VERTEX
  8
0
  6
CONTINUOUS
 10
4.572040
 20
1.559360
  0
SEQEND
  8
0
  0
SOLID
  8
0
 62
    15
 10
4.603720
 20
1.554520
 11
4.595800
 21
2.310440
 12
4.639800
 22
1.551880
 13
4.631880
 23
2.308240
  0
POLYLINE
  8
0
  6
CONTINUOUS
 66
     1
 40
0.000000
 41
0.000000
  0
VERTEX
  8
0
  6
CONTINUOUS
 10
4.603720
 20
1.554520
  0
VERTEX
  8
0
  6
CONTINUOUS
 10
4.595800
 20
2.310440
  0
VERTEX
  8
0
  6
CONTINUOUS
 10
4.631880
 20
2.308240
  0
VERTEX
  8
0
  6
CONTINUOUS
 10
4.639800
 20
1.551880
  0
VERTEX
  8
0
  6
CONTINUOUS
 10
4.603720
 20
1.554520
  0
SEQEND
  8
0
  0
SOLID
  8
0
 62
    15
 10
4.639800
 20
1.551880
 11
4.631880
 21
2.308240
 12
4.681600
 22
1.551880
 13
4.673680
 23
2.308240
  0
POLYLINE
  8
0
  6
CONTINUOUS
 66
     1
 40
0.000000
 41
0.000000
  0
VERTEX
  8
0
  6
CONTINUOUS
 10
4.639800
 20
1.551880
  0
VERTEX
  8
0
  6
CONTINUOUS
 10
4.631880
 20
2.308240
  0
VERTEX
  8
0
  6
CONTINUOUS
 10
4.673680
 20
2.308240
  0
VERTEX
  8
0
  6
CONTINUOUS
 10
4.681600
 20
1.551880
  0
VERTEX
  8
0
  6
CONTINUOUS
 10
4.639800
 20
1.551880
  0
SEQEND
  8
0
  0
SOLID
  8
0
 62
    15
 10
5.041960
 20
1.375000
 11
5.034040
 21
2.131360
 12
5.060440
 22
1.375000
 13
5.052520
 23
2.131360
  0
POLYLINE
  8
0
  6
CONTINUOUS
 66
     1
 40
0.000000
 41
0.000000
  0
VERTEX
  8
0
  6
CONTINUOUS
 10
5.041960
 20
1.375000
  0
VERTEX
  8
0
  6
CONTINUOUS
 10
5.034040
 20
2.131360
  0
VERTEX
  8
0
  6
CONTINUOUS
 10
5.052520
 20
2.131360
  0
VERTEX
  8
0
  6
CONTINUOUS
 10
5.060440
 20
1.375000
  0
VERTEX
  8
0
  6
CONTINUOUS
 10
5.041960
 20
1.375000
  0
SEQEND
  8
0
  0
SOLID
  8
0
 62
    15
 10
4.871240
 20
1.422960
 11
4.862880
 21
2.179320
 12
5.041960
 22
1.422960
 13
5.034040
 23
2.179320
  0
POLYLINE
  8
0
  6
CONTINUOUS
 66
     1
 40
0.000000
 41
0.000000
  0
VERTEX
  8
0
  6
CONTINUOUS
 10
4.871240
 20
1.422960
  0
VERTEX
  8
0
  6
CONTINUOUS
 10
4.862880
 20
2.179320
  0
VERTEX
  8
0
  6
CONTINUOUS
 10
5.034040
 20
2.179320
  0
VERTEX
  8
0
  6
CONTINUOUS
 10
5.041960
 20
1.422960
  0
VERTEX
  8
0
  6
CONTINUOUS
 10
4.871240
 20
1.422960
  0
SEQEND
  8
0
  0
SOLID
  8
0
 62
    15
 10
4.685560
 20
1.481480
 11
4.677640
 21
2.237840
 12
4.871240
 22
1.481480
 13
4.862880
 23
2.237840
  0
POLYLINE
  8
0
  6
CONTINUOUS
 66
     1
 40
0.000000
 41
0.000000
  0
VERTEX
  8
0
  6
CONTINUOUS
 10
4.685560
 20
1.481480
  0
VERTEX
  8
0
  6
CONTINUOUS
 10
4.677640
 20
2.237840
  0
VERTEX
  8
0
  6
CONTINUOUS
 10
4.862880
 20
2.237840
  0
VERTEX
  8
0
  6
CONTINUOUS
 10
4.871240
 20
1.481480
  0
VERTEX
  8
0
  6
CONTINUOUS
 10
4.685560
 20
1.481480
  0
SEQEND
  8
0
  0
SOLID
  8
0
 62
    15
 10
4.681600
 20
1.551880
 11
4.673680
 21
2.308240
 12
4.685560
 22
1.552320
 13
4.677640
 23
2.308680
  0
POLYLINE
  8
0
  6
CONTINUOUS
 66
     1
 40
0.000000
 41
0.000000
  0
VERTEX
  8
0
  6
CONTINUOUS
 10
4.681600
 20
1.551880
  0
VERTEX
  8
0
  6
CONTINUOUS
 10
4.673680
 20
2.308240
  0
VERTEX
  8
0
  6
CONTINUOUS
 10
4.677640
 20
2.308680
  0
VERTEX
  8
0
  6
CONTINUOUS
 10
4.685560
 20
1.552320
  0
VERTEX
  8
0
  6
CONTINUOUS
 10
4.681600
 20
1.551880
  0
SEQEND
  8
0
  0
SOLID
  8
0
 62
    15
 10
5.060440
 20
1.375000
 11
5.052520
 21
2.131360
 12
5.062640
 22
1.377200
 13
5.054720
 23
2.133560
  0
POLYLINE
  8
0
  6
CONTINUOUS
 66
     1
 40
0.000000
 41
0.000000
  0
VERTEX
  8
0
  6
CONTINUOUS
 10
5.060440
 20
1.375000
  0
VERTEX
  8
0
  6
CONTINUOUS
 10
5.052520
 20
2.131360
  0
VERTEX
  8
0
  6
CONTINUOUS
 10
5.054720
 20
2.133560
  0
VERTEX
  8
0
  6
CONTINUOUS
 10
5.062640
 20
1.377200
  0
VERTEX
  8
0
  6
CONTINUOUS
 10
5.060440
 20
1.375000
  0
SEQEND
  8
0
  0
SOLID
  8
0
 62
    15
 10
5.062640
 20
1.377200
 11
5.054720
 21
2.133560
 12
5.138320
 22
1.411520
 13
5.130400
 23
2.167880
  0
POLYLINE
  8
0
  6
CONTINUOUS
 66
     1
 40
0.000000
 41
0.000000
  0
VERTEX
  8
0
  6
CONTINUOUS
 10
5.062640
 20
1.377200
  0
VERTEX
  8
0
  6
CONTINUOUS
 10
5.054720
 20
2.133560
  0
VERTEX
  8
0
  6
CONTINUOUS
 10
5.130400
 20
2.167880
  0
VERTEX
  8
0
  6
CONTINUOUS
 10
5.138320
 20
1.411520
  0
VERTEX
  8
0
  6
CONTINUOUS
 10
5.062640
 20
1.377200
  0
SEQEND
  8
0
  0
SOLID
  8
0
 62
    15
 10
5.138320
 20
1.411520
 11
5.130400
 21
2.167880
 12
5.213560
 22
1.435720
 13
5.205200
 23
2.192080
  0
POLYLINE
  8
0
  6
CONTINUOUS
 66
     1
 40
0.000000
 41
0.000000
  0
VERTEX
  8
0
  6
CONTINUOUS
 10
5.138320
 20
1.411520
  0
VERTEX
  8
0
  6
CONTINUOUS
 10
5.130400
 20
2.167880
  0
VERTEX
  8
0
  6
CONTINUOUS
 10
5.205200
 20
2.192080
  0
VERTEX
  8
0
  6
CONTINUOUS
 10
5.213560
 20
1.435720
  0
VERTEX
  8
0
  6
CONTINUOUS
 10
5.138320
 20
1.411520
  0
SEQEND
  8
0
  0
SOLID
  8
0
 62
    15
 10
5.213560
 20
1.435720
 11
5.205200
 21
2.192080
 12
5.288800
 22
1.450680
 13
5.280880
 23
2.207040
  0
POLYLINE
  8
0
  6
CONTINUOUS
 66
     1
 40
0.000000
 41
0.000000
  0
VERTEX
  8
0
  6
CONTINUOUS
 10
5.213560
 20
1.435720
  0
VERTEX
  8
0
  6
CONTINUOUS
 10
5.205200
 20
2.192080
  0
VERTEX
  8
0
  6
CONTINUOUS
 10
5.280880
 20
2.207040
  0
VERTEX
  8
0
  6
CONTINUOUS
 10
5.288800
 20
1.450680
  0
VERTEX
  8
0
  6
CONTINUOUS
 10
5.213560
 20
1.435720
  0
SEQEND
  8
0
  0
SOLID
  8
0
 62
    15
 10
5.288800
 20
1.450680
 11
5.280880
 21
2.207040
 12
5.364920
 22
1.455960
 13
5.357000
 23
2.212320
  0
POLYLINE
  8
0
  6
CONTINUOUS
 66
     1
 40
0.000000
 41
0.000000
  0
VERTEX
  8
0
  6
CONTINUOUS
 10
5.288800
 20
1.450680
  0
VERTEX
  8
0
  6
CONTINUOUS
 10
5.280880
 20
2.207040
  0
VERTEX
  8
0
  6
CONTINUOUS
 10
5.357000
 20
2.212320
  0
VERTEX
  8
0
  6
CONTINUOUS
 10
5.364920
 20
1.455960
  0
VERTEX
  8
0
  6
CONTINUOUS
 10
5.288800
 20
1.450680
  0
SEQEND
  8
0
  0
SOLID
  8
0
 62
    15
 10
5.364920
 20
1.455960
 11
5.357000
 21
2.212320
 12
5.441920
 22
1.451560
 13
5.434000
 23
2.207920
  0
POLYLINE
  8
0
  6
CONTINUOUS
 66
     1
 40
0.000000
 41
0.000000
  0
VERTEX
  8
0
  6
CONTINUOUS
 10
5.364920
 20
1.455960
  0
VERTEX
  8
0
  6
CONTINUOUS
 10
5.357000
 20
2.212320
  0
VERTEX
  8
0
  6
CONTINUOUS
 10
5.434000
 20
2.207920
  0
VERTEX
  8
0
  6
CONTINUOUS
 10
5.441920
 20
1.451560
  0
VERTEX
  8
0
  6
CONTINUOUS
 10
5.364920
 20
1.455960
  0
SEQEND
  8
0
  0
SOLID
  8
0
 62
    15
 10
5.441920
 20
1.451560
 11
5.434000
 21
2.207920
 12
5.521120
 22
1.437480
 13
5.512760
 23
2.193840
  0
POLYLINE
  8
0
  6
CONTINUOUS
 66
     1
 40
0.000000
 41
0.000000
  0
VERTEX
  8
0
  6
CONTINUOUS
 10
5.441920
 20
1.451560
  0
VERTEX
  8
0
  6
CONTINUOUS
 10
5.434000
 20
2.207920
  0
VERTEX
  8
0
  6
CONTINUOUS
 10
5.512760
 20
2.193840
  0
VERTEX
  8
0
  6
CONTINUOUS
 10
5.521120
 20
1.437480
  0
VERTEX
  8
0
  6
CONTINUOUS
 10
5.441920
 20
1.451560
  0
SEQEND
  8
0
  0
SOLID
  8
0
 62
    15
 10
5.521120
 20
1.437480
 11
5.512760
 21
2.193840
 12
5.602080
 22
1.414160
 13
5.594160
 23
2.170520
  0
POLYLINE
  8
0
  6
CONTINUOUS
 66
     1
 40
0.000000
 41
0.000000
  0
VERTEX
  8
0
  6
CONTINUOUS
 10
5.521120
 20
1.437480
  0
VERTEX
  8
0
  6
CONTINUOUS
 10
5.512760
 20
2.193840
  0
VERTEX
  8
0
  6
CONTINUOUS
 10
5.594160
 20
2.170520
  0
VERTEX
  8
0
  6
CONTINUOUS
 10
5.602080
 20
1.414160
  0
VERTEX
  8
0
  6
CONTINUOUS
 10
5.521120
 20
1.437480
  0
SEQEND
  8
0
  0
SOLID
  8
0
 62
    15
 10
5.602080
 20
1.414160
 11
5.594160
 21
2.170520
 12
5.685680
 22
1.381160
 13
5.677760
 23
2.137520
  0
POLYLINE
  8
0
  6
CONTINUOUS
 66
     1
 40
0.000000
 41
0.000000
  0
VERTEX
  8
0
  6
CONTINUOUS
 10
5.602080
 20
1.414160
  0
VERTEX
  8
0
  6
CONTINUOUS
 10
5.594160
 20
2.170520
  0
VERTEX
  8
0
  6
CONTINUOUS
 10
5.677760
 20
2.137520
  0
VERTEX
  8
0
  6
CONTINUOUS
 10
5.685680
 20
1.381160
  0
VERTEX
  8
0
  6
CONTINUOUS
 10
5.602080
 20
1.414160
  0
SEQEND
  8
0
  0
SOLID
  8
0
 62
    15
 10
5.685680
 20
1.381160
 11
5.677760
 21
2.137520
 12
5.708560
 22
1.381160
 13
5.700640
 23
2.137520
  0
POLYLINE
  8
0
  6
CONTINUOUS
 66
     1
 40
0.000000
 41
0.000000
  0
VERTEX
  8
0
  6
CONTINUOUS
 10
5.685680
 20
1.381160
  0
VERTEX
  8
0
  6
CONTINUOUS
 10
5.677760
 20
2.137520
  0
VERTEX
  8
0
  6
CONTINUOUS
 10
5.700640
 20
2.137520
  0
VERTEX
  8
0
  6
CONTINUOUS
 10
5.708560
 20
1.381160
  0
VERTEX
  8
0
  6
CONTINUOUS
 10
5.685680
 20
1.381160
  0
SEQEND
  8
0
  0
SOLID
  8
0
 62
    15
 10
5.708560
 20
1.381160
 11
5.700640
 21
2.137520
 12
5.708560
 22
1.460360
 13
5.700640
 23
2.216720
  0
POLYLINE
  8
0
  6
CONTINUOUS
 66
     1
 40
0.000000
 41
0.000000
  0
VERTEX
  8
0
  6
CONTINUOUS
 10
5.708560
 20
1.381160
  0
VERTEX
  8
0
  6
CONTINUOUS
 10
5.700640
 20
2.137520
  0
VERTEX
  8
0
  6
CONTINUOUS
 10
5.700640
 20
2.216720
  0
VERTEX
  8
0
  6
CONTINUOUS
 10
5.708560
 20
1.460360
  0
VERTEX
  8
0
  6
CONTINUOUS
 10
5.708560
 20
1.381160
  0
SEQEND
  8
0
  0
SOLID
  8
0
 62
    15
 10
5.979600
 20
1.368840
 11
5.971240
 21
2.125200
 12
5.983560
 22
1.368840
 13
5.975640
 23
2.125200
  0
POLYLINE
  8
0
  6
CONTINUOUS
 66
     1
 40
0.000000
 41
0.000000
  0
VERTEX
  8
0
  6
CONTINUOUS
 10
5.979600
 20
1.368840
  0
VERTEX
  8
0
  6
CONTINUOUS
 10
5.971240
 20
2.125200
  0
VERTEX
  8
0
  6
CONTINUOUS
 10
5.975640
 20
2.125200
  0
VERTEX
  8
0
  6
CONTINUOUS
 10
5.983560
 20
1.368840
  0
VERTEX
  8
0
  6
CONTINUOUS
 10
5.979600
 20
1.368840
  0
SEQEND
  8
0
  0
SOLID
  8
0
 62
    15
 10
5.708560
 20
1.460360
 11
5.700640
 21
2.216720
 12
5.979600
 22
1.460360
 13
5.971240
 23
2.216720
  0
POLYLINE
  8
0
  6
CONTINUOUS
 66
     1
 40
0.000000
 41
0.000000
  0
VERTEX
  8
0
  6
CONTINUOUS
 10
5.708560
 20
1.460360
  0
VERTEX
  8
0
  6
CONTINUOUS
 10
5.700640
 20
2.216720
  0
VERTEX
  8
0
  6
CONTINUOUS
 10
5.971240
 20
2.216720
  0
VERTEX
  8
0
  6
CONTINUOUS
 10
5.979600
 20
1.460360
  0
VERTEX
  8
0
  6
CONTINUOUS
 10
5.708560
 20
1.460360
  0
SEQEND
  8
0
  0
POLYLINE
  8
0
  6
CONTINUOUS
 66
     1
 40
0.000000
 41
0.000000
  0
VERTEX
  8
0
  6
CONTINUOUS
 10
5.983560
 20
1.368840
  0
VERTEX
  8
0
  6
CONTINUOUS
 10
6.883360
 20
1.368840
  0
VERTEX
  8
0
  6
CONTINUOUS
 10
6.883360
 20
1.266760
  0
VERTEX
  8
0
  6
CONTINUOUS
 10
6.915920
 20
1.265000
  0
VERTEX
  8
0
  6
CONTINUOUS
 10
6.941440
 20
1.261480
  0
VERTEX
  8
0
  6
CONTINUOUS
 10
6.981920
 20
1.249160
  0
VERTEX
  8
0
  6
CONTINUOUS
 10
7.013160
 20
1.232880
  0
VERTEX
  8
0
  6
CONTINUOUS
 10
7.072560
 20
1.195920
  0
VERTEX
  8
0
  6
CONTINUOUS
 10
7.113040
 20
1.180080
  0
VERTEX
  8
0
  6
CONTINUOUS
 10
7.138560
 20
1.173920
  0
VERTEX
  8
0
  6
CONTINUOUS
 10
7.168920
 20
1.169080
  0
VERTEX
  8
0
  6
CONTINUOUS
 10
7.204120
 20
1.166000
  0
VERTEX
  8
0
  6
CONTINUOUS
 10
7.245920
 20
1.164680
  0
VERTEX
  8
0
  6
CONTINUOUS
 10
7.245920
 20
1.093840
  0
VERTEX
  8
0
  6
CONTINUOUS
 10
7.395960
 20
1.093840
  0
VERTEX
  8
0
  6
CONTINUOUS
 10
7.395960
 20
0.968880
  0
VERTEX
  8
0
  6
CONTINUOUS
 10
3.891800
 20
0.968880
  0
VERTEX
  8
0
  6
CONTINUOUS
 10
3.891800
 20
1.719080
  0
VERTEX
  8
0
  6
CONTINUOUS
 10
4.290000
 20
1.719080
  0
VERTEX
  8
0
  6
CONTINUOUS
 10
4.290000
 20
1.666720
  0
VERTEX
  8
0
  6
CONTINUOUS
 10
4.323880
 20
1.665400
  0
VERTEX
  8
0
  6
CONTINUOUS
 10
4.349840
 20
1.661440
  0
VERTEX
  8
0
  6
CONTINUOUS
 10
4.392960
 20
1.647800
  0
VERTEX
  8
0
  6
CONTINUOUS
 10
4.499440
 20
1.584440
  0
VERTEX
  8
0
  6
CONTINUOUS
 10
4.544760
 20
1.565960
  0
VERTEX
  8
0
  6
CONTINUOUS
 10
4.572040
 20
1.559360
  0
VERTEX
  8
0
  6
CONTINUOUS
 10
4.603720
 20
1.554520
  0
VERTEX
  8
0
  6
CONTINUOUS
 10
4.639800
 20
1.551880
  0
VERTEX
  8
0
  6
CONTINUOUS
 10
4.685560
 20
1.552320
  0
VERTEX
  8
0
  6
CONTINUOUS
 10
4.685560
 20
1.481480
  0
VERTEX
  8
0
  6
CONTINUOUS
 10
4.871240
 20
1.481480
  0
VERTEX
  8
0
  6
CONTINUOUS
 10
4.871240
 20
1.422960
  0
VERTEX
  8
0
  6
CONTINUOUS
 10
5.041960
 20
1.422960
  0
VERTEX
  8
0
  6
CONTINUOUS
 10
5.041960
 20
1.375000
  0
VERTEX
  8
0
  6
CONTINUOUS
 10
5.060440
 20
1.375000
  0
VERTEX
  8
0
  6
CONTINUOUS
 10
5.062640
 20
1.377200
  0
VERTEX
  8
0
  6
CONTINUOUS
 10
5.138320
 20
1.411520
  0
VERTEX
  8
0
  6
CONTINUOUS
 10
5.213560
 20
1.435720
  0
VERTEX
  8
0
  6
CONTINUOUS
 10
5.288800
 20
1.450680
  0
VERTEX
  8
0
  6
CONTINUOUS
 10
5.364920
 20
1.455960
  0
VERTEX
  8
0
  6
CONTINUOUS
 10
5.441920
 20
1.451560
  0
VERTEX
  8
0
  6
CONTINUOUS
 10
5.521120
 20
1.437480
  0
VERTEX
  8
0
  6
CONTINUOUS
 10
5.602080
 20
1.414160
  0
VERTEX
  8
0
  6
CONTINUOUS
 10
5.685680
 20
1.381160
  0
VERTEX
  8
0
  6
CONTINUOUS
 10
5.708560
 20
1.381160
  0
VERTEX
  8
0
  6
CONTINUOUS
 10
5.708560
 20
1.460360
  0
VERTEX
  8
0
  6
CONTINUOUS
 10
5.979600
 20
1.460360
  0
VERTEX
  8
0
  6
CONTINUOUS
 10
5.979600
 20
1.368840
  0
VERTEX
  8
0
  6
CONTINUOUS
 10
5.983560
 20
1.368840
  0
SEQEND
  8
0
  0
TEXT
  8
0
 10
5.343360
 20
0.715880
 40
0.138129
  1
BA  427
 41
1.000000
  7
SN0
 71
     0
 72
     5
 11
5.933768
 21
0.715880
  0
TEXT
  8
0
 10
5.187160
 20
0.524480
 40
0.138129
  1
3/4" x 3-1/2"
 41
1.000000
  7
SN0
 71
     0
 72
     5
 11
6.088109
 21
0.524480
  0
TEXT
  8
0
 10
7.535000
 20
3.765960
 40
0.138129
  1
case
 41
1.000000
  7
SN0
 71
     0
 72
     5
 11
7.885842
 21
3.765960
  0
TEXT
  8
0
 10
7.535000
 20
3.574560
 40
0.138129
  1
427
 41
1.000000
  7
SN0
 71
     0
 72
     5
 11
7.811957
 21
3.574560
  0
ENDSEC
  0
EOF
