  0
SECTION
  2
HEADER
  9
$ACADVER
  1
AC1006
  9
$EXTMIN
 10
5.837920
 20
0.506880
  9
$EXTMAX
 10
7.744880
 20
3.065480
  9
$LTSCALE
 40
0.044000
  9
$PDMODE
 70
    35
  9
$PDSIZE
 40
0.035200
  0
ENDSEC
  0
SECTION
  2
TABLES
  0
TABLE
  2
LTYPE
 70
     9
  0
LTYPE
  2
CONTINUOUS
 70
    64
  3
Solid line
 72
    65
 73
     0
 40
0.000000
  0
LTYPE
  2
DASHED
 70
    64
  3
__ __ __ __ __ __ __ __ __ __ __ __ __ __ __
 72
    65
 73
     2
 40
0.000330
 49
0.000220
 49
-0.000110
  0
LTYPE
  2
HIDDEN
 70
    64
  3
 _ _ _ _ _ _ _ _ _ _ _ _ _ _ _ _ _ _ _ _ _ _
 72
    65
 73
     2
 40
0.000165
 49
0.000110
 49
-0.000055
  0
LTYPE
  2
CENTER
 70
    64
  3
____ _ ____ _ ____ _ ____ _ ____ _ ____ _ ____
 72
    65
 73
     4
 40
0.000880
 49
0.000550
 49
-0.000110
 49
0.000110
 49
-0.000110
  0
LTYPE
  2
PHANTOM
 70
    64
  3
_____ _ _ _____ _ _ _____ _ _ _____ _ _ ____
 72
    65
 73
     6
 40
0.001100
 49
0.000550
 49
-0.000110
 49
0.000110
 49
-0.000110
 49
0.000110
 49
-0.000110
  0
LTYPE
  2
DOT
 70
    64
  3
...............................................
 72
    65
 73
     2
 40
0.000110
 49
0.000000
 49
-0.000110
  0
LTYPE
  2
DASHDOT
 70
    64
  3
__ . __ . __ . __ . __ . __ . __ . __ . __ . __
 72
    65
 73
     4
 40
0.000440
 49
0.000220
 49
-0.000110
 49
0.000000
 49
-0.000110
  0
LTYPE
  2
BORDER
 70
    64
  3
__ __ . __ __ . __ __ . __ __ . __ __ . __ __
 72
    65
 73
     6
 40
0.000770
 49
0.000220
 49
-0.000110
 49
0.000220
 49
-0.000110
 49
0.000000
 49
-0.000110
  0
LTYPE
  2
DIVIDE
 70
    64
  3
__ . . __ . . __ . . __ . . __ . . __ . . __
 72
    65
 73
     6
 40
0.000550
 49
0.000220
 49
-0.000110
 49
0.000000
 49
-0.000110
 49
0.000000
 49
-0.000110
  0
LTYPE
  2
DOTDOT
 70
    64
  3
 . .  . .  . .  . .  . .  . . 
 72
    65
 73
     5
 40
0.000242
 49
-0.000110
 49
0.000000
 49
-0.000110
 49
0.000000
 49
-0.000110
  0
ENDTAB
  0
TABLE
  2
STYLE
 70
     2
  0
STYLE
 70
     0
  2
SN0
 40
0.000000
 41
0.000440
 50
0.000000
 71
     0
 42
0.000000
  3
ROMAND
  0
STYLE
 70
    68
  2
SV0
 40
0.000000
 41
0.000440
 50
0.000000
 71
     0
 42
0.000000
  3
ROMAND
  0
ENDTAB
  0
TABLE
  2
LAYER
 70
     3
  0
LAYER
  2
FOREGROUND
 70
    64
 62
     7
  6
CONTINUOUS
  0
LAYER
  2
BACKGROUND
 70
    65
 62
    -7
  6
CONTINUOUS
  0
LAYER
  2
0
 70
    64
 62
     7
  6
CONTINUOUS
  0
ENDTAB
  0
ENDSEC
  0
SECTION
  2
ENTITIES
  0
POLYLINE
  8
FOREGROUND
  6
CONTINUOUS
 66
     1
 40
0.000000
 41
0.000000
  0
VERTEX
  8
FOREGROUND
  6
CONTINUOUS
 10
0.000000
 20
3.572360
  0
VERTEX
  8
FOREGROUND
  6
CONTINUOUS
 10
8.499920
 20
3.572360
  0
VERTEX
  8
FOREGROUND
  6
CONTINUOUS
 10
8.499920
 20
-7.427640
  0
VERTEX
  8
FOREGROUND
  6
CONTINUOUS
 10
0.000000
 20
-7.427640
  0
VERTEX
  8
FOREGROUND
  6
CONTINUOUS
 10
0.000000
 20
3.572360
  0
SEQEND
  8
0
  0
POLYLINE
  8
FOREGROUND
  6
CONTINUOUS
 66
     1
 40
0.000000
 41
0.000000
  0
VERTEX
  8
FOREGROUND
  6
CONTINUOUS
 10
0.000000
 20
3.572360
  0
VERTEX
  8
FOREGROUND
  6
CONTINUOUS
 10
8.499920
 20
3.572360
  0
VERTEX
  8
FOREGROUND
  6
CONTINUOUS
 10
8.499920
 20
-7.427640
  0
VERTEX
  8
FOREGROUND
  6
CONTINUOUS
 10
0.000000
 20
-7.427640
  0
VERTEX
  8
FOREGROUND
  6
CONTINUOUS
 10
0.000000
 20
3.572360
  0
SEQEND
  8
0
  0
POLYLINE
  8
0
  6
CONTINUOUS
 66
     1
 40
0.014080
 41
0.014080
  0
VERTEX
  8
0
  6
CONTINUOUS
 10
6.703840
 20
2.799720
  0
VERTEX
  8
0
  6
CONTINUOUS
 10
6.691520
 20
2.799720
  0
VERTEX
  8
0
  6
CONTINUOUS
 10
6.691520
 20
2.847240
  0
VERTEX
  8
0
  6
CONTINUOUS
 10
6.596920
 20
2.846800
  0
VERTEX
  8
0
  6
CONTINUOUS
 10
6.537080
 20
2.848560
  0
VERTEX
  8
0
  6
CONTINUOUS
 10
6.469760
 20
2.854280
  0
VERTEX
  8
0
  6
CONTINUOUS
 10
6.416080
 20
2.862640
  0
VERTEX
  8
0
  6
CONTINUOUS
 10
6.364600
 20
2.876280
  0
VERTEX
  8
0
  6
CONTINUOUS
 10
6.334240
 20
2.889480
  0
VERTEX
  8
0
  6
CONTINUOUS
 10
6.311800
 20
2.903560
  0
VERTEX
  8
0
  6
CONTINUOUS
 10
6.288920
 20
2.925560
  0
VERTEX
  8
0
  6
CONTINUOUS
 10
6.256360
 20
2.973080
  0
VERTEX
  8
0
  6
CONTINUOUS
 10
6.244920
 20
2.982760
  0
VERTEX
  8
0
  6
CONTINUOUS
 10
6.237880
 20
2.987160
  0
VERTEX
  8
0
  6
CONTINUOUS
 10
6.219400
 20
2.992880
  0
VERTEX
  8
0
  6
CONTINUOUS
 10
6.194320
 20
2.995520
  0
VERTEX
  8
0
  6
CONTINUOUS
 10
6.178920
 20
2.995520
  0
VERTEX
  8
0
  6
CONTINUOUS
 10
6.178920
 20
3.058000
  0
VERTEX
  8
0
  6
CONTINUOUS
 10
5.845840
 20
3.058000
  0
VERTEX
  8
0
  6
CONTINUOUS
 10
5.845840
 20
2.557720
  0
VERTEX
  8
0
  6
CONTINUOUS
 10
7.076960
 20
2.557720
  0
VERTEX
  8
0
  6
CONTINUOUS
 10
7.076960
 20
2.730640
  0
VERTEX
  8
0
  6
CONTINUOUS
 10
6.870600
 20
2.730640
  0
VERTEX
  8
0
  6
CONTINUOUS
 10
6.870160
 20
2.780800
  0
VERTEX
  8
0
  6
CONTINUOUS
 10
6.864000
 20
2.803680
  0
VERTEX
  8
0
  6
CONTINUOUS
 10
6.856520
 20
2.816880
  0
VERTEX
  8
0
  6
CONTINUOUS
 10
6.840240
 20
2.832720
  0
VERTEX
  8
0
  6
CONTINUOUS
 10
6.827040
 20
2.840640
  0
VERTEX
  8
0
  6
CONTINUOUS
 10
6.804160
 20
2.848120
  0
VERTEX
  8
0
  6
CONTINUOUS
 10
6.787440
 20
2.849440
  0
VERTEX
  8
0
  6
CONTINUOUS
 10
6.774240
 20
2.848560
  0
VERTEX
  8
0
  6
CONTINUOUS
 10
6.761920
 20
2.845920
  0
VERTEX
  8
0
  6
CONTINUOUS
 10
6.750040
 20
2.841520
  0
VERTEX
  8
0
  6
CONTINUOUS
 10
6.729360
 20
2.828320
  0
VERTEX
  8
0
  6
CONTINUOUS
 10
6.713520
 20
2.810280
  0
VERTEX
  8
0
  6
CONTINUOUS
 10
6.708240
 20
2.799720
  0
VERTEX
  8
0
  6
CONTINUOUS
 10
6.703840
 20
2.799720
  0
SEQEND
  8
0
  0
SOLID
  8
0
 62
     7
 10
6.909760
 20
1.364440
 11
6.912400
 21
2.111120
 12
6.921200
 22
1.354760
 13
6.924280
 23
2.101000
  0
POLYLINE
  8
0
  6
CONTINUOUS
 66
     1
 40
0.000000
 41
0.000000
  0
VERTEX
  8
0
  6
CONTINUOUS
 10
6.909760
 20
1.364440
  0
VERTEX
  8
0
  6
CONTINUOUS
 10
6.912400
 20
2.111120
  0
VERTEX
  8
0
  6
CONTINUOUS
 10
6.924280
 20
2.101000
  0
VERTEX
  8
0
  6
CONTINUOUS
 10
6.921200
 20
1.354760
  0
VERTEX
  8
0
  6
CONTINUOUS
 10
6.909760
 20
1.364440
  0
SEQEND
  8
0
  0
SOLID
  8
0
 62
    15
 10
7.385400
 20
1.201200
 11
7.388480
 21
1.947880
 12
7.403880
 22
1.217040
 13
7.406960
 23
1.963720
  0
POLYLINE
  8
0
  6
CONTINUOUS
 66
     1
 40
0.000000
 41
0.000000
  0
VERTEX
  8
0
  6
CONTINUOUS
 10
7.385400
 20
1.201200
  0
VERTEX
  8
0
  6
CONTINUOUS
 10
7.388480
 20
1.947880
  0
VERTEX
  8
0
  6
CONTINUOUS
 10
7.406960
 20
1.963720
  0
VERTEX
  8
0
  6
CONTINUOUS
 10
7.403880
 20
1.217040
  0
VERTEX
  8
0
  6
CONTINUOUS
 10
7.385400
 20
1.201200
  0
SEQEND
  8
0
  0
SOLID
  8
0
 62
    15
 10
7.403880
 20
1.217040
 11
7.406960
 21
1.963720
 12
7.426320
 22
1.227600
 13
7.429400
 23
1.974280
  0
POLYLINE
  8
0
  6
CONTINUOUS
 66
     1
 40
0.000000
 41
0.000000
  0
VERTEX
  8
0
  6
CONTINUOUS
 10
7.403880
 20
1.217040
  0
VERTEX
  8
0
  6
CONTINUOUS
 10
7.406960
 20
1.963720
  0
VERTEX
  8
0
  6
CONTINUOUS
 10
7.429400
 20
1.974280
  0
VERTEX
  8
0
  6
CONTINUOUS
 10
7.426320
 20
1.227600
  0
VERTEX
  8
0
  6
CONTINUOUS
 10
7.403880
 20
1.217040
  0
SEQEND
  8
0
  0
SOLID
  8
0
 62
    15
 10
7.426320
 20
1.227600
 11
7.429400
 21
1.974280
 12
7.451840
 22
1.231120
 13
7.454920
 23
1.977800
  0
POLYLINE
  8
0
  6
CONTINUOUS
 66
     1
 40
0.000000
 41
0.000000
  0
VERTEX
  8
0
  6
CONTINUOUS
 10
7.426320
 20
1.227600
  0
VERTEX
  8
0
  6
CONTINUOUS
 10
7.429400
 20
1.974280
  0
VERTEX
  8
0
  6
CONTINUOUS
 10
7.454920
 20
1.977800
  0
VERTEX
  8
0
  6
CONTINUOUS
 10
7.451840
 20
1.231120
  0
VERTEX
  8
0
  6
CONTINUOUS
 10
7.426320
 20
1.227600
  0
SEQEND
  8
0
  0
SOLID
  8
0
 62
     7
 10
7.451840
 20
1.231120
 11
7.454920
 21
1.977800
 12
7.468560
 22
1.229800
 13
7.471640
 23
1.976480
  0
POLYLINE
  8
0
  6
CONTINUOUS
 66
     1
 40
0.000000
 41
0.000000
  0
VERTEX
  8
0
  6
CONTINUOUS
 10
7.451840
 20
1.231120
  0
VERTEX
  8
0
  6
CONTINUOUS
 10
7.454920
 20
1.977800
  0
VERTEX
  8
0
  6
CONTINUOUS
 10
7.471640
 20
1.976480
  0
VERTEX
  8
0
  6
CONTINUOUS
 10
7.468560
 20
1.229800
  0
VERTEX
  8
0
  6
CONTINUOUS
 10
7.451840
 20
1.231120
  0
SEQEND
  8
0
  0
SOLID
  8
0
 62
     7
 10
7.468560
 20
1.229800
 11
7.471640
 21
1.976480
 12
7.484400
 22
1.225840
 13
7.487480
 23
1.972520
  0
POLYLINE
  8
0
  6
CONTINUOUS
 66
     1
 40
0.000000
 41
0.000000
  0
VERTEX
  8
0
  6
CONTINUOUS
 10
7.468560
 20
1.229800
  0
VERTEX
  8
0
  6
CONTINUOUS
 10
7.471640
 20
1.976480
  0
VERTEX
  8
0
  6
CONTINUOUS
 10
7.487480
 20
1.972520
  0
VERTEX
  8
0
  6
CONTINUOUS
 10
7.484400
 20
1.225840
  0
VERTEX
  8
0
  6
CONTINUOUS
 10
7.468560
 20
1.229800
  0
SEQEND
  8
0
  0
SOLID
  8
0
 62
     7
 10
7.484400
 20
1.225840
 11
7.487480
 21
1.972520
 12
7.498480
 22
1.218800
 13
7.501560
 23
1.965480
  0
POLYLINE
  8
0
  6
CONTINUOUS
 66
     1
 40
0.000000
 41
0.000000
  0
VERTEX
  8
0
  6
CONTINUOUS
 10
7.484400
 20
1.225840
  0
VERTEX
  8
0
  6
CONTINUOUS
 10
7.487480
 20
1.972520
  0
VERTEX
  8
0
  6
CONTINUOUS
 10
7.501560
 20
1.965480
  0
VERTEX
  8
0
  6
CONTINUOUS
 10
7.498480
 20
1.218800
  0
VERTEX
  8
0
  6
CONTINUOUS
 10
7.484400
 20
1.225840
  0
SEQEND
  8
0
  0
SOLID
  8
0
 62
     7
 10
7.498480
 20
1.218800
 11
7.501560
 21
1.965480
 12
7.510800
 22
1.210000
 13
7.513880
 23
1.956680
  0
POLYLINE
  8
0
  6
CONTINUOUS
 66
     1
 40
0.000000
 41
0.000000
  0
VERTEX
  8
0
  6
CONTINUOUS
 10
7.498480
 20
1.218800
  0
VERTEX
  8
0
  6
CONTINUOUS
 10
7.501560
 20
1.965480
  0
VERTEX
  8
0
  6
CONTINUOUS
 10
7.513880
 20
1.956680
  0
VERTEX
  8
0
  6
CONTINUOUS
 10
7.510800
 20
1.210000
  0
VERTEX
  8
0
  6
CONTINUOUS
 10
7.498480
 20
1.218800
  0
SEQEND
  8
0
  0
SOLID
  8
0
 62
    15
 10
7.510800
 20
1.210000
 11
7.513880
 21
1.956680
 12
7.520920
 22
1.198560
 13
7.524000
 23
1.945240
  0
POLYLINE
  8
0
  6
CONTINUOUS
 66
     1
 40
0.000000
 41
0.000000
  0
VERTEX
  8
0
  6
CONTINUOUS
 10
7.510800
 20
1.210000
  0
VERTEX
  8
0
  6
CONTINUOUS
 10
7.513880
 20
1.956680
  0
VERTEX
  8
0
  6
CONTINUOUS
 10
7.524000
 20
1.945240
  0
VERTEX
  8
0
  6
CONTINUOUS
 10
7.520920
 20
1.198560
  0
VERTEX
  8
0
  6
CONTINUOUS
 10
7.510800
 20
1.210000
  0
SEQEND
  8
0
  0
SOLID
  8
0
 62
    15
 10
7.520920
 20
1.198560
 11
7.524000
 21
1.945240
 12
7.528840
 22
1.185800
 13
7.531920
 23
1.932040
  0
POLYLINE
  8
0
  6
CONTINUOUS
 66
     1
 40
0.000000
 41
0.000000
  0
VERTEX
  8
0
  6
CONTINUOUS
 10
7.520920
 20
1.198560
  0
VERTEX
  8
0
  6
CONTINUOUS
 10
7.524000
 20
1.945240
  0
VERTEX
  8
0
  6
CONTINUOUS
 10
7.531920
 20
1.932040
  0
VERTEX
  8
0
  6
CONTINUOUS
 10
7.528840
 20
1.185800
  0
VERTEX
  8
0
  6
CONTINUOUS
 10
7.520920
 20
1.198560
  0
SEQEND
  8
0
  0
SOLID
  8
0
 62
    15
 10
7.528840
 20
1.185800
 11
7.531920
 21
1.932040
 12
7.533680
 22
1.170840
 13
7.536760
 23
1.917520
  0
POLYLINE
  8
0
  6
CONTINUOUS
 66
     1
 40
0.000000
 41
0.000000
  0
VERTEX
  8
0
  6
CONTINUOUS
 10
7.528840
 20
1.185800
  0
VERTEX
  8
0
  6
CONTINUOUS
 10
7.531920
 20
1.932040
  0
VERTEX
  8
0
  6
CONTINUOUS
 10
7.536760
 20
1.917520
  0
VERTEX
  8
0
  6
CONTINUOUS
 10
7.533680
 20
1.170840
  0
VERTEX
  8
0
  6
CONTINUOUS
 10
7.528840
 20
1.185800
  0
SEQEND
  8
0
  0
SOLID
  8
0
 62
    15
 10
7.741800
 20
1.112760
 11
7.744440
 21
1.859000
 12
7.741800
 22
0.939840
 13
7.744440
 23
1.686080
  0
POLYLINE
  8
0
  6
CONTINUOUS
 66
     1
 40
0.000000
 41
0.000000
  0
VERTEX
  8
0
  6
CONTINUOUS
 10
7.741800
 20
1.112760
  0
VERTEX
  8
0
  6
CONTINUOUS
 10
7.744440
 20
1.859000
  0
VERTEX
  8
0
  6
CONTINUOUS
 10
7.744440
 20
1.686080
  0
VERTEX
  8
0
  6
CONTINUOUS
 10
7.741800
 20
0.939840
  0
VERTEX
  8
0
  6
CONTINUOUS
 10
7.741800
 20
1.112760
  0
SEQEND
  8
0
  0
SOLID
  8
0
 62
     7
 10
7.535440
 20
1.112760
 11
7.538520
 21
1.859000
 12
7.741800
 22
1.112760
 13
7.744440
 23
1.859000
  0
POLYLINE
  8
0
  6
CONTINUOUS
 66
     1
 40
0.000000
 41
0.000000
  0
VERTEX
  8
0
  6
CONTINUOUS
 10
7.535440
 20
1.112760
  0
VERTEX
  8
0
  6
CONTINUOUS
 10
7.538520
 20
1.859000
  0
VERTEX
  8
0
  6
CONTINUOUS
 10
7.744440
 20
1.859000
  0
VERTEX
  8
0
  6
CONTINUOUS
 10
7.741800
 20
1.112760
  0
VERTEX
  8
0
  6
CONTINUOUS
 10
7.535440
 20
1.112760
  0
SEQEND
  8
0
  0
SOLID
  8
0
 62
    15
 10
7.535440
 20
1.154120
 11
7.538520
 21
1.900800
 12
7.535440
 22
1.112760
 13
7.538520
 23
1.859000
  0
POLYLINE
  8
0
  6
CONTINUOUS
 66
     1
 40
0.000000
 41
0.000000
  0
VERTEX
  8
0
  6
CONTINUOUS
 10
7.535440
 20
1.154120
  0
VERTEX
  8
0
  6
CONTINUOUS
 10
7.538520
 20
1.900800
  0
VERTEX
  8
0
  6
CONTINUOUS
 10
7.538520
 20
1.859000
  0
VERTEX
  8
0
  6
CONTINUOUS
 10
7.535440
 20
1.112760
  0
VERTEX
  8
0
  6
CONTINUOUS
 10
7.535440
 20
1.154120
  0
SEQEND
  8
0
  0
SOLID
  8
0
 62
    15
 10
7.533680
 20
1.170840
 11
7.536760
 21
1.917520
 12
7.535440
 22
1.154120
 13
7.538520
 23
1.900800
  0
POLYLINE
  8
0
  6
CONTINUOUS
 66
     1
 40
0.000000
 41
0.000000
  0
VERTEX
  8
0
  6
CONTINUOUS
 10
7.533680
 20
1.170840
  0
VERTEX
  8
0
  6
CONTINUOUS
 10
7.536760
 20
1.917520
  0
VERTEX
  8
0
  6
CONTINUOUS
 10
7.538520
 20
1.900800
  0
VERTEX
  8
0
  6
CONTINUOUS
 10
7.535440
 20
1.154120
  0
VERTEX
  8
0
  6
CONTINUOUS
 10
7.533680
 20
1.170840
  0
SEQEND
  8
0
  0
SOLID
  8
0
 62
    15
 10
6.510240
 20
1.439680
 11
6.513320
 21
2.186360
 12
6.843760
 22
1.439680
 13
6.846840
 23
2.186360
  0
POLYLINE
  8
0
  6
CONTINUOUS
 66
     1
 40
0.000000
 41
0.000000
  0
VERTEX
  8
0
  6
CONTINUOUS
 10
6.510240
 20
1.439680
  0
VERTEX
  8
0
  6
CONTINUOUS
 10
6.513320
 20
2.186360
  0
VERTEX
  8
0
  6
CONTINUOUS
 10
6.846840
 20
2.186360
  0
VERTEX
  8
0
  6
CONTINUOUS
 10
6.843760
 20
1.439680
  0
VERTEX
  8
0
  6
CONTINUOUS
 10
6.510240
 20
1.439680
  0
SEQEND
  8
0
  0
SOLID
  8
0
 62
    15
 10
6.843760
 20
1.439680
 11
6.846840
 21
2.186360
 12
6.843760
 22
1.377200
 13
6.846840
 23
2.123880
  0
POLYLINE
  8
0
  6
CONTINUOUS
 66
     1
 40
0.000000
 41
0.000000
  0
VERTEX
  8
0
  6
CONTINUOUS
 10
6.843760
 20
1.439680
  0
VERTEX
  8
0
  6
CONTINUOUS
 10
6.846840
 20
2.186360
  0
VERTEX
  8
0
  6
CONTINUOUS
 10
6.846840
 20
2.123880
  0
VERTEX
  8
0
  6
CONTINUOUS
 10
6.843760
 20
1.377200
  0
VERTEX
  8
0
  6
CONTINUOUS
 10
6.843760
 20
1.439680
  0
SEQEND
  8
0
  0
SOLID
  8
0
 62
    15
 10
6.843760
 20
1.377200
 11
6.846840
 21
2.123880
 12
6.859160
 22
1.377200
 13
6.862240
 23
2.123880
  0
POLYLINE
  8
0
  6
CONTINUOUS
 66
     1
 40
0.000000
 41
0.000000
  0
VERTEX
  8
0
  6
CONTINUOUS
 10
6.843760
 20
1.377200
  0
VERTEX
  8
0
  6
CONTINUOUS
 10
6.846840
 20
2.123880
  0
VERTEX
  8
0
  6
CONTINUOUS
 10
6.862240
 20
2.123880
  0
VERTEX
  8
0
  6
CONTINUOUS
 10
6.859160
 20
1.377200
  0
VERTEX
  8
0
  6
CONTINUOUS
 10
6.843760
 20
1.377200
  0
SEQEND
  8
0
  0
SOLID
  8
0
 62
    15
 10
6.859160
 20
1.377200
 11
6.862240
 21
2.123880
 12
6.872800
 22
1.376320
 13
6.875440
 23
2.123000
  0
POLYLINE
  8
0
  6
CONTINUOUS
 66
     1
 40
0.000000
 41
0.000000
  0
VERTEX
  8
0
  6
CONTINUOUS
 10
6.859160
 20
1.377200
  0
VERTEX
  8
0
  6
CONTINUOUS
 10
6.862240
 20
2.123880
  0
VERTEX
  8
0
  6
CONTINUOUS
 10
6.875440
 20
2.123000
  0
VERTEX
  8
0
  6
CONTINUOUS
 10
6.872800
 20
1.376320
  0
VERTEX
  8
0
  6
CONTINUOUS
 10
6.859160
 20
1.377200
  0
SEQEND
  8
0
  0
SOLID
  8
0
 62
     7
 10
6.872800
 20
1.376320
 11
6.875440
 21
2.123000
 12
6.893920
 22
1.371920
 13
6.897000
 23
2.118600
  0
POLYLINE
  8
0
  6
CONTINUOUS
 66
     1
 40
0.000000
 41
0.000000
  0
VERTEX
  8
0
  6
CONTINUOUS
 10
6.872800
 20
1.376320
  0
VERTEX
  8
0
  6
CONTINUOUS
 10
6.875440
 20
2.123000
  0
VERTEX
  8
0
  6
CONTINUOUS
 10
6.897000
 20
2.118600
  0
VERTEX
  8
0
  6
CONTINUOUS
 10
6.893920
 20
1.371920
  0
VERTEX
  8
0
  6
CONTINUOUS
 10
6.872800
 20
1.376320
  0
SEQEND
  8
0
  0
SOLID
  8
0
 62
     7
 10
6.893920
 20
1.371920
 11
6.897000
 21
2.118600
 12
6.909760
 22
1.364440
 13
6.912400
 23
2.111120
  0
POLYLINE
  8
0
  6
CONTINUOUS
 66
     1
 40
0.000000
 41
0.000000
  0
VERTEX
  8
0
  6
CONTINUOUS
 10
6.893920
 20
1.371920
  0
VERTEX
  8
0
  6
CONTINUOUS
 10
6.897000
 20
2.118600
  0
VERTEX
  8
0
  6
CONTINUOUS
 10
6.912400
 20
2.111120
  0
VERTEX
  8
0
  6
CONTINUOUS
 10
6.909760
 20
1.364440
  0
VERTEX
  8
0
  6
CONTINUOUS
 10
6.893920
 20
1.371920
  0
SEQEND
  8
0
  0
SOLID
  8
0
 62
    15
 10
7.373080
 20
1.181400
 11
7.375720
 21
1.928080
 12
7.385400
 22
1.201200
 13
7.388480
 23
1.947880
  0
POLYLINE
  8
0
  6
CONTINUOUS
 66
     1
 40
0.000000
 41
0.000000
  0
VERTEX
  8
0
  6
CONTINUOUS
 10
7.373080
 20
1.181400
  0
VERTEX
  8
0
  6
CONTINUOUS
 10
7.375720
 20
1.928080
  0
VERTEX
  8
0
  6
CONTINUOUS
 10
7.388480
 20
1.947880
  0
VERTEX
  8
0
  6
CONTINUOUS
 10
7.385400
 20
1.201200
  0
VERTEX
  8
0
  6
CONTINUOUS
 10
7.373080
 20
1.181400
  0
SEQEND
  8
0
  0
SOLID
  8
0
 62
     7
 10
6.921200
 20
1.354760
 11
6.924280
 21
2.101000
 12
6.930440
 22
1.342440
 13
6.933080
 23
2.089120
  0
POLYLINE
  8
0
  6
CONTINUOUS
 66
     1
 40
0.000000
 41
0.000000
  0
VERTEX
  8
0
  6
CONTINUOUS
 10
6.921200
 20
1.354760
  0
VERTEX
  8
0
  6
CONTINUOUS
 10
6.924280
 20
2.101000
  0
VERTEX
  8
0
  6
CONTINUOUS
 10
6.933080
 20
2.089120
  0
VERTEX
  8
0
  6
CONTINUOUS
 10
6.930440
 20
1.342440
  0
VERTEX
  8
0
  6
CONTINUOUS
 10
6.921200
 20
1.354760
  0
SEQEND
  8
0
  0
SOLID
  8
0
 62
    15
 10
6.930440
 20
1.342440
 11
6.933080
 21
2.089120
 12
6.934400
 22
1.336280
 13
6.937480
 23
2.082520
  0
POLYLINE
  8
0
  6
CONTINUOUS
 66
     1
 40
0.000000
 41
0.000000
  0
VERTEX
  8
0
  6
CONTINUOUS
 10
6.930440
 20
1.342440
  0
VERTEX
  8
0
  6
CONTINUOUS
 10
6.933080
 20
2.089120
  0
VERTEX
  8
0
  6
CONTINUOUS
 10
6.937480
 20
2.082520
  0
VERTEX
  8
0
  6
CONTINUOUS
 10
6.934400
 20
1.336280
  0
VERTEX
  8
0
  6
CONTINUOUS
 10
6.930440
 20
1.342440
  0
SEQEND
  8
0
  0
SOLID
  8
0
 62
    15
 10
6.934400
 20
1.336280
 11
6.937480
 21
2.082520
 12
6.938800
 22
1.329240
 13
6.941440
 23
2.075920
  0
POLYLINE
  8
0
  6
CONTINUOUS
 66
     1
 40
0.000000
 41
0.000000
  0
VERTEX
  8
0
  6
CONTINUOUS
 10
6.934400
 20
1.336280
  0
VERTEX
  8
0
  6
CONTINUOUS
 10
6.937480
 20
2.082520
  0
VERTEX
  8
0
  6
CONTINUOUS
 10
6.941440
 20
2.075920
  0
VERTEX
  8
0
  6
CONTINUOUS
 10
6.938800
 20
1.329240
  0
VERTEX
  8
0
  6
CONTINUOUS
 10
6.934400
 20
1.336280
  0
SEQEND
  8
0
  0
SOLID
  8
0
 62
    15
 10
6.938800
 20
1.329240
 11
6.941440
 21
2.075920
 12
6.948040
 22
1.314720
 13
6.951120
 23
2.061400
  0
POLYLINE
  8
0
  6
CONTINUOUS
 66
     1
 40
0.000000
 41
0.000000
  0
VERTEX
  8
0
  6
CONTINUOUS
 10
6.938800
 20
1.329240
  0
VERTEX
  8
0
  6
CONTINUOUS
 10
6.941440
 20
2.075920
  0
VERTEX
  8
0
  6
CONTINUOUS
 10
6.951120
 20
2.061400
  0
VERTEX
  8
0
  6
CONTINUOUS
 10
6.948040
 20
1.314720
  0
VERTEX
  8
0
  6
CONTINUOUS
 10
6.938800
 20
1.329240
  0
SEQEND
  8
0
  0
SOLID
  8
0
 62
     7
 10
6.948040
 20
1.314720
 11
6.951120
 21
2.061400
 12
6.960360
 22
1.300200
 13
6.963000
 23
2.046440
  0
POLYLINE
  8
0
  6
CONTINUOUS
 66
     1
 40
0.000000
 41
0.000000
  0
VERTEX
  8
0
  6
CONTINUOUS
 10
6.948040
 20
1.314720
  0
VERTEX
  8
0
  6
CONTINUOUS
 10
6.951120
 20
2.061400
  0
VERTEX
  8
0
  6
CONTINUOUS
 10
6.963000
 20
2.046440
  0
VERTEX
  8
0
  6
CONTINUOUS
 10
6.960360
 20
1.300200
  0
VERTEX
  8
0
  6
CONTINUOUS
 10
6.948040
 20
1.314720
  0
SEQEND
  8
0
  0
SOLID
  8
0
 62
     7
 10
6.960360
 20
1.300200
 11
6.963000
 21
2.046440
 12
6.976640
 22
1.285240
 13
6.979280
 23
2.031920
  0
POLYLINE
  8
0
  6
CONTINUOUS
 66
     1
 40
0.000000
 41
0.000000
  0
VERTEX
  8
0
  6
CONTINUOUS
 10
6.960360
 20
1.300200
  0
VERTEX
  8
0
  6
CONTINUOUS
 10
6.963000
 20
2.046440
  0
VERTEX
  8
0
  6
CONTINUOUS
 10
6.979280
 20
2.031920
  0
VERTEX
  8
0
  6
CONTINUOUS
 10
6.976640
 20
1.285240
  0
VERTEX
  8
0
  6
CONTINUOUS
 10
6.960360
 20
1.300200
  0
SEQEND
  8
0
  0
SOLID
  8
0
 62
     7
 10
6.976640
 20
1.285240
 11
6.979280
 21
2.031920
 12
6.999080
 22
1.271160
 13
7.002160
 23
2.017840
  0
POLYLINE
  8
0
  6
CONTINUOUS
 66
     1
 40
0.000000
 41
0.000000
  0
VERTEX
  8
0
  6
CONTINUOUS
 10
6.976640
 20
1.285240
  0
VERTEX
  8
0
  6
CONTINUOUS
 10
6.979280
 20
2.031920
  0
VERTEX
  8
0
  6
CONTINUOUS
 10
7.002160
 20
2.017840
  0
VERTEX
  8
0
  6
CONTINUOUS
 10
6.999080
 20
1.271160
  0
VERTEX
  8
0
  6
CONTINUOUS
 10
6.976640
 20
1.285240
  0
SEQEND
  8
0
  0
SOLID
  8
0
 62
     7
 10
6.999080
 20
1.271160
 11
7.002160
 21
2.017840
 12
7.029440
 22
1.258400
 13
7.032080
 23
2.005080
  0
POLYLINE
  8
0
  6
CONTINUOUS
 66
     1
 40
0.000000
 41
0.000000
  0
VERTEX
  8
0
  6
CONTINUOUS
 10
6.999080
 20
1.271160
  0
VERTEX
  8
0
  6
CONTINUOUS
 10
7.002160
 20
2.017840
  0
VERTEX
  8
0
  6
CONTINUOUS
 10
7.032080
 20
2.005080
  0
VERTEX
  8
0
  6
CONTINUOUS
 10
7.029440
 20
1.258400
  0
VERTEX
  8
0
  6
CONTINUOUS
 10
6.999080
 20
1.271160
  0
SEQEND
  8
0
  0
SOLID
  8
0
 62
     7
 10
7.029440
 20
1.258400
 11
7.032080
 21
2.005080
 12
7.047920
 22
1.252240
 13
7.051000
 23
1.998920
  0
POLYLINE
  8
0
  6
CONTINUOUS
 66
     1
 40
0.000000
 41
0.000000
  0
VERTEX
  8
0
  6
CONTINUOUS
 10
7.029440
 20
1.258400
  0
VERTEX
  8
0
  6
CONTINUOUS
 10
7.032080
 20
2.005080
  0
VERTEX
  8
0
  6
CONTINUOUS
 10
7.051000
 20
1.998920
  0
VERTEX
  8
0
  6
CONTINUOUS
 10
7.047920
 20
1.252240
  0
VERTEX
  8
0
  6
CONTINUOUS
 10
7.029440
 20
1.258400
  0
SEQEND
  8
0
  0
SOLID
  8
0
 62
     7
 10
7.047920
 20
1.252240
 11
7.051000
 21
1.998920
 12
7.069040
 22
1.246960
 13
7.072120
 23
1.993640
  0
POLYLINE
  8
0
  6
CONTINUOUS
 66
     1
 40
0.000000
 41
0.000000
  0
VERTEX
  8
0
  6
CONTINUOUS
 10
7.047920
 20
1.252240
  0
VERTEX
  8
0
  6
CONTINUOUS
 10
7.051000
 20
1.998920
  0
VERTEX
  8
0
  6
CONTINUOUS
 10
7.072120
 20
1.993640
  0
VERTEX
  8
0
  6
CONTINUOUS
 10
7.069040
 20
1.246960
  0
VERTEX
  8
0
  6
CONTINUOUS
 10
7.047920
 20
1.252240
  0
SEQEND
  8
0
  0
SOLID
  8
0
 62
     7
 10
7.069040
 20
1.246960
 11
7.072120
 21
1.993640
 12
7.092800
 22
1.242120
 13
7.095880
 23
1.988800
  0
POLYLINE
  8
0
  6
CONTINUOUS
 66
     1
 40
0.000000
 41
0.000000
  0
VERTEX
  8
0
  6
CONTINUOUS
 10
7.069040
 20
1.246960
  0
VERTEX
  8
0
  6
CONTINUOUS
 10
7.072120
 20
1.993640
  0
VERTEX
  8
0
  6
CONTINUOUS
 10
7.095880
 20
1.988800
  0
VERTEX
  8
0
  6
CONTINUOUS
 10
7.092800
 20
1.242120
  0
VERTEX
  8
0
  6
CONTINUOUS
 10
7.069040
 20
1.246960
  0
SEQEND
  8
0
  0
SOLID
  8
0
 62
     7
 10
7.092800
 20
1.242120
 11
7.095880
 21
1.988800
 12
7.120080
 22
1.238160
 13
7.122720
 23
1.984400
  0
POLYLINE
  8
0
  6
CONTINUOUS
 66
     1
 40
0.000000
 41
0.000000
  0
VERTEX
  8
0
  6
CONTINUOUS
 10
7.092800
 20
1.242120
  0
VERTEX
  8
0
  6
CONTINUOUS
 10
7.095880
 20
1.988800
  0
VERTEX
  8
0
  6
CONTINUOUS
 10
7.122720
 20
1.984400
  0
VERTEX
  8
0
  6
CONTINUOUS
 10
7.120080
 20
1.238160
  0
VERTEX
  8
0
  6
CONTINUOUS
 10
7.092800
 20
1.242120
  0
SEQEND
  8
0
  0
SOLID
  8
0
 62
     7
 10
7.120080
 20
1.238160
 11
7.122720
 21
1.984400
 12
7.150000
 22
1.234640
 13
7.153080
 23
1.980880
  0
POLYLINE
  8
0
  6
CONTINUOUS
 66
     1
 40
0.000000
 41
0.000000
  0
VERTEX
  8
0
  6
CONTINUOUS
 10
7.120080
 20
1.238160
  0
VERTEX
  8
0
  6
CONTINUOUS
 10
7.122720
 20
1.984400
  0
VERTEX
  8
0
  6
CONTINUOUS
 10
7.153080
 20
1.980880
  0
VERTEX
  8
0
  6
CONTINUOUS
 10
7.150000
 20
1.234640
  0
VERTEX
  8
0
  6
CONTINUOUS
 10
7.120080
 20
1.238160
  0
SEQEND
  8
0
  0
SOLID
  8
0
 62
     7
 10
7.150000
 20
1.234640
 11
7.153080
 21
1.980880
 12
7.183440
 22
1.231560
 13
7.186520
 23
1.978240
  0
POLYLINE
  8
0
  6
CONTINUOUS
 66
     1
 40
0.000000
 41
0.000000
  0
VERTEX
  8
0
  6
CONTINUOUS
 10
7.150000
 20
1.234640
  0
VERTEX
  8
0
  6
CONTINUOUS
 10
7.153080
 20
1.980880
  0
VERTEX
  8
0
  6
CONTINUOUS
 10
7.186520
 20
1.978240
  0
VERTEX
  8
0
  6
CONTINUOUS
 10
7.183440
 20
1.231560
  0
VERTEX
  8
0
  6
CONTINUOUS
 10
7.150000
 20
1.234640
  0
SEQEND
  8
0
  0
SOLID
  8
0
 62
     7
 10
7.183440
 20
1.231560
 11
7.186520
 21
1.978240
 12
7.220840
 22
1.229800
 13
7.223480
 23
1.976040
  0
POLYLINE
  8
0
  6
CONTINUOUS
 66
     1
 40
0.000000
 41
0.000000
  0
VERTEX
  8
0
  6
CONTINUOUS
 10
7.183440
 20
1.231560
  0
VERTEX
  8
0
  6
CONTINUOUS
 10
7.186520
 20
1.978240
  0
VERTEX
  8
0
  6
CONTINUOUS
 10
7.223480
 20
1.976040
  0
VERTEX
  8
0
  6
CONTINUOUS
 10
7.220840
 20
1.229800
  0
VERTEX
  8
0
  6
CONTINUOUS
 10
7.183440
 20
1.231560
  0
SEQEND
  8
0
  0
SOLID
  8
0
 62
     7
 10
7.220840
 20
1.229800
 11
7.223480
 21
1.976040
 12
7.261760
 22
1.228480
 13
7.264840
 23
1.975160
  0
POLYLINE
  8
0
  6
CONTINUOUS
 66
     1
 40
0.000000
 41
0.000000
  0
VERTEX
  8
0
  6
CONTINUOUS
 10
7.220840
 20
1.229800
  0
VERTEX
  8
0
  6
CONTINUOUS
 10
7.223480
 20
1.976040
  0
VERTEX
  8
0
  6
CONTINUOUS
 10
7.264840
 20
1.975160
  0
VERTEX
  8
0
  6
CONTINUOUS
 10
7.261760
 20
1.228480
  0
VERTEX
  8
0
  6
CONTINUOUS
 10
7.220840
 20
1.229800
  0
SEQEND
  8
0
  0
SOLID
  8
0
 62
     7
 10
7.261760
 20
1.228480
 11
7.264840
 21
1.975160
 12
7.306640
 22
1.228480
 13
7.309720
 23
1.975160
  0
POLYLINE
  8
0
  6
CONTINUOUS
 66
     1
 40
0.000000
 41
0.000000
  0
VERTEX
  8
0
  6
CONTINUOUS
 10
7.261760
 20
1.228480
  0
VERTEX
  8
0
  6
CONTINUOUS
 10
7.264840
 20
1.975160
  0
VERTEX
  8
0
  6
CONTINUOUS
 10
7.309720
 20
1.975160
  0
VERTEX
  8
0
  6
CONTINUOUS
 10
7.306640
 20
1.228480
  0
VERTEX
  8
0
  6
CONTINUOUS
 10
7.261760
 20
1.228480
  0
SEQEND
  8
0
  0
SOLID
  8
0
 62
     7
 10
7.356360
 20
1.181400
 11
7.359000
 21
1.928080
 12
7.368680
 22
1.181400
 13
7.371760
 23
1.928080
  0
POLYLINE
  8
0
  6
CONTINUOUS
 66
     1
 40
0.000000
 41
0.000000
  0
VERTEX
  8
0
  6
CONTINUOUS
 10
7.356360
 20
1.181400
  0
VERTEX
  8
0
  6
CONTINUOUS
 10
7.359000
 20
1.928080
  0
VERTEX
  8
0
  6
CONTINUOUS
 10
7.371760
 20
1.928080
  0
VERTEX
  8
0
  6
CONTINUOUS
 10
7.368680
 20
1.181400
  0
VERTEX
  8
0
  6
CONTINUOUS
 10
7.356360
 20
1.181400
  0
SEQEND
  8
0
  0
SOLID
  8
0
 62
    15
 10
7.356360
 20
1.229360
 11
7.359000
 21
1.976040
 12
7.356360
 22
1.181400
 13
7.359000
 23
1.928080
  0
POLYLINE
  8
0
  6
CONTINUOUS
 66
     1
 40
0.000000
 41
0.000000
  0
VERTEX
  8
0
  6
CONTINUOUS
 10
7.356360
 20
1.229360
  0
VERTEX
  8
0
  6
CONTINUOUS
 10
7.359000
 20
1.976040
  0
VERTEX
  8
0
  6
CONTINUOUS
 10
7.359000
 20
1.928080
  0
VERTEX
  8
0
  6
CONTINUOUS
 10
7.356360
 20
1.181400
  0
VERTEX
  8
0
  6
CONTINUOUS
 10
7.356360
 20
1.229360
  0
SEQEND
  8
0
  0
SOLID
  8
0
 62
     7
 10
7.306640
 20
1.228480
 11
7.309720
 21
1.975160
 12
7.356360
 22
1.229360
 13
7.359000
 23
1.976040
  0
POLYLINE
  8
0
  6
CONTINUOUS
 66
     1
 40
0.000000
 41
0.000000
  0
VERTEX
  8
0
  6
CONTINUOUS
 10
7.306640
 20
1.228480
  0
VERTEX
  8
0
  6
CONTINUOUS
 10
7.309720
 20
1.975160
  0
VERTEX
  8
0
  6
CONTINUOUS
 10
7.359000
 20
1.976040
  0
VERTEX
  8
0
  6
CONTINUOUS
 10
7.356360
 20
1.229360
  0
VERTEX
  8
0
  6
CONTINUOUS
 10
7.306640
 20
1.228480
  0
SEQEND
  8
0
  0
SOLID
  8
0
 62
     7
 10
7.368680
 20
1.181400
 11
7.371760
 21
1.928080
 12
7.373080
 22
1.181400
 13
7.375720
 23
1.928080
  0
POLYLINE
  8
0
  6
CONTINUOUS
 66
     1
 40
0.000000
 41
0.000000
  0
VERTEX
  8
0
  6
CONTINUOUS
 10
7.368680
 20
1.181400
  0
VERTEX
  8
0
  6
CONTINUOUS
 10
7.371760
 20
1.928080
  0
VERTEX
  8
0
  6
CONTINUOUS
 10
7.375720
 20
1.928080
  0
VERTEX
  8
0
  6
CONTINUOUS
 10
7.373080
 20
1.181400
  0
VERTEX
  8
0
  6
CONTINUOUS
 10
7.368680
 20
1.181400
  0
SEQEND
  8
0
  0
POLYLINE
  8
0
  6
CONTINUOUS
 66
     1
 40
0.000000
 41
0.000000
  0
VERTEX
  8
0
  6
CONTINUOUS
 10
7.373080
 20
1.181400
  0
VERTEX
  8
0
  6
CONTINUOUS
 10
7.385400
 20
1.201200
  0
VERTEX
  8
0
  6
CONTINUOUS
 10
7.403880
 20
1.217040
  0
VERTEX
  8
0
  6
CONTINUOUS
 10
7.426320
 20
1.227600
  0
VERTEX
  8
0
  6
CONTINUOUS
 10
7.451840
 20
1.231120
  0
VERTEX
  8
0
  6
CONTINUOUS
 10
7.468560
 20
1.229800
  0
VERTEX
  8
0
  6
CONTINUOUS
 10
7.484400
 20
1.225840
  0
VERTEX
  8
0
  6
CONTINUOUS
 10
7.498480
 20
1.218800
  0
VERTEX
  8
0
  6
CONTINUOUS
 10
7.510800
 20
1.210000
  0
VERTEX
  8
0
  6
CONTINUOUS
 10
7.520920
 20
1.198560
  0
VERTEX
  8
0
  6
CONTINUOUS
 10
7.528840
 20
1.185800
  0
VERTEX
  8
0
  6
CONTINUOUS
 10
7.533680
 20
1.170840
  0
VERTEX
  8
0
  6
CONTINUOUS
 10
7.535440
 20
1.154120
  0
VERTEX
  8
0
  6
CONTINUOUS
 10
7.535440
 20
1.112760
  0
VERTEX
  8
0
  6
CONTINUOUS
 10
7.741800
 20
1.112760
  0
VERTEX
  8
0
  6
CONTINUOUS
 10
7.741800
 20
0.939840
  0
VERTEX
  8
0
  6
CONTINUOUS
 10
6.510240
 20
0.939840
  0
VERTEX
  8
0
  6
CONTINUOUS
 10
6.510240
 20
1.439680
  0
VERTEX
  8
0
  6
CONTINUOUS
 10
6.843760
 20
1.439680
  0
VERTEX
  8
0
  6
CONTINUOUS
 10
6.843760
 20
1.377200
  0
VERTEX
  8
0
  6
CONTINUOUS
 10
6.859160
 20
1.377200
  0
VERTEX
  8
0
  6
CONTINUOUS
 10
6.872800
 20
1.376320
  0
VERTEX
  8
0
  6
CONTINUOUS
 10
6.893920
 20
1.371920
  0
VERTEX
  8
0
  6
CONTINUOUS
 10
6.909760
 20
1.364440
  0
VERTEX
  8
0
  6
CONTINUOUS
 10
6.921200
 20
1.354760
  0
VERTEX
  8
0
  6
CONTINUOUS
 10
6.930440
 20
1.342440
  0
VERTEX
  8
0
  6
CONTINUOUS
 10
6.934400
 20
1.336280
  0
VERTEX
  8
0
  6
CONTINUOUS
 10
6.938800
 20
1.329240
  0
VERTEX
  8
0
  6
CONTINUOUS
 10
6.948040
 20
1.314720
  0
VERTEX
  8
0
  6
CONTINUOUS
 10
6.960360
 20
1.300200
  0
VERTEX
  8
0
  6
CONTINUOUS
 10
6.976640
 20
1.285240
  0
VERTEX
  8
0
  6
CONTINUOUS
 10
6.999080
 20
1.271160
  0
VERTEX
  8
0
  6
CONTINUOUS
 10
7.029440
 20
1.258400
  0
VERTEX
  8
0
  6
CONTINUOUS
 10
7.047920
 20
1.252240
  0
VERTEX
  8
0
  6
CONTINUOUS
 10
7.069040
 20
1.246960
  0
VERTEX
  8
0
  6
CONTINUOUS
 10
7.092800
 20
1.242120
  0
VERTEX
  8
0
  6
CONTINUOUS
 10
7.120080
 20
1.238160
  0
VERTEX
  8
0
  6
CONTINUOUS
 10
7.150000
 20
1.234640
  0
VERTEX
  8
0
  6
CONTINUOUS
 10
7.183440
 20
1.231560
  0
VERTEX
  8
0
  6
CONTINUOUS
 10
7.220840
 20
1.229800
  0
VERTEX
  8
0
  6
CONTINUOUS
 10
7.261760
 20
1.228480
  0
VERTEX
  8
0
  6
CONTINUOUS
 10
7.306640
 20
1.228480
  0
VERTEX
  8
0
  6
CONTINUOUS
 10
7.356360
 20
1.229360
  0
VERTEX
  8
0
  6
CONTINUOUS
 10
7.356360
 20
1.181400
  0
VERTEX
  8
0
  6
CONTINUOUS
 10
7.368680
 20
1.181400
  0
VERTEX
  8
0
  6
CONTINUOUS
 10
7.373080
 20
1.181400
  0
SEQEND
  8
0
  0
TEXT
  8
0
 10
6.831000
 20
0.742720
 40
0.138148
  1
BA  422
 41
1.000000
  7
SN0
 71
     0
 72
     5
 11
7.421013
 21
0.742720
  0
TEXT
  8
0
 10
6.675240
 20
0.551320
 40
0.138148
  1
1/2" x 1-1/4"
 41
1.000000
  7
SN0
 71
     0
 72
     5
 11
7.575355
 21
0.551320
  0
ENDSEC
  0
EOF
