  0
SECTION
  2
HEADER
  9
$ACADVER
  1
AC1006
  9
$EXTMIN
 10
2.304280
 20
0.639760
  9
$EXTMAX
 10
6.974880
 20
3.270960
  9
$LTSCALE
 40
0.044000
  9
$PDMODE
 70
    35
  9
$PDSIZE
 40
0.035200
  0
ENDSEC
  0
SECTION
  2
TABLES
  0
TABLE
  2
LTYPE
 70
     9
  0
LTYPE
  2
CONTINUOUS
 70
    64
  3
Solid line
 72
    65
 73
     0
 40
0.000000
  0
LTYPE
  2
DASHED
 70
    64
  3
__ __ __ __ __ __ __ __ __ __ __ __ __ __ __
 72
    65
 73
     2
 40
0.000330
 49
0.000220
 49
-0.000110
  0
LTYPE
  2
HIDDEN
 70
    64
  3
 _ _ _ _ _ _ _ _ _ _ _ _ _ _ _ _ _ _ _ _ _ _
 72
    65
 73
     2
 40
0.000165
 49
0.000110
 49
-0.000055
  0
LTYPE
  2
CENTER
 70
    64
  3
____ _ ____ _ ____ _ ____ _ ____ _ ____ _ ____
 72
    65
 73
     4
 40
0.000880
 49
0.000550
 49
-0.000110
 49
0.000110
 49
-0.000110
  0
LTYPE
  2
PHANTOM
 70
    64
  3
_____ _ _ _____ _ _ _____ _ _ _____ _ _ ____
 72
    65
 73
     6
 40
0.001100
 49
0.000550
 49
-0.000110
 49
0.000110
 49
-0.000110
 49
0.000110
 49
-0.000110
  0
LTYPE
  2
DOT
 70
    64
  3
...............................................
 72
    65
 73
     2
 40
0.000110
 49
0.000000
 49
-0.000110
  0
LTYPE
  2
DASHDOT
 70
    64
  3
__ . __ . __ . __ . __ . __ . __ . __ . __ . __
 72
    65
 73
     4
 40
0.000440
 49
0.000220
 49
-0.000110
 49
0.000000
 49
-0.000110
  0
LTYPE
  2
BORDER
 70
    64
  3
__ __ . __ __ . __ __ . __ __ . __ __ . __ __
 72
    65
 73
     6
 40
0.000770
 49
0.000220
 49
-0.000110
 49
0.000220
 49
-0.000110
 49
0.000000
 49
-0.000110
  0
LTYPE
  2
DIVIDE
 70
    64
  3
__ . . __ . . __ . . __ . . __ . . __ . . __
 72
    65
 73
     6
 40
0.000550
 49
0.000220
 49
-0.000110
 49
0.000000
 49
-0.000110
 49
0.000000
 49
-0.000110
  0
LTYPE
  2
DOTDOT
 70
    64
  3
 . .  . .  . .  . .  . .  . . 
 72
    65
 73
     5
 40
0.000242
 49
-0.000110
 49
0.000000
 49
-0.000110
 49
0.000000
 49
-0.000110
  0
ENDTAB
  0
TABLE
  2
STYLE
 70
     2
  0
STYLE
 70
     0
  2
SN0
 40
0.000000
 41
0.000440
 50
0.000000
 71
     0
 42
0.000000
  3
ROMAND
  0
STYLE
 70
    68
  2
SV0
 40
0.000000
 41
0.000440
 50
0.000000
 71
     0
 42
0.000000
  3
ROMAND
  0
ENDTAB
  0
TABLE
  2
LAYER
 70
     3
  0
LAYER
  2
FOREGROUND
 70
    64
 62
     7
  6
CONTINUOUS
  0
LAYER
  2
BACKGROUND
 70
    65
 62
    -7
  6
CONTINUOUS
  0
LAYER
  2
0
 70
    64
 62
     7
  6
CONTINUOUS
  0
ENDTAB
  0
ENDSEC
  0
SECTION
  2
ENTITIES
  0
POLYLINE
  8
FOREGROUND
  6
CONTINUOUS
 66
     1
 40
0.000000
 41
0.000000
  0
VERTEX
  8
FOREGROUND
  6
CONTINUOUS
 10
0.000000
 20
3.910720
  0
VERTEX
  8
FOREGROUND
  6
CONTINUOUS
 10
8.499920
 20
3.910720
  0
VERTEX
  8
FOREGROUND
  6
CONTINUOUS
 10
8.499920
 20
-7.089280
  0
VERTEX
  8
FOREGROUND
  6
CONTINUOUS
 10
0.000000
 20
-7.089280
  0
VERTEX
  8
FOREGROUND
  6
CONTINUOUS
 10
0.000000
 20
3.910720
  0
SEQEND
  8
0
  0
POLYLINE
  8
FOREGROUND
  6
CONTINUOUS
 66
     1
 40
0.000000
 41
0.000000
  0
VERTEX
  8
FOREGROUND
  6
CONTINUOUS
 10
0.000000
 20
3.910720
  0
VERTEX
  8
FOREGROUND
  6
CONTINUOUS
 10
8.499920
 20
3.910720
  0
VERTEX
  8
FOREGROUND
  6
CONTINUOUS
 10
8.499920
 20
-7.089280
  0
VERTEX
  8
FOREGROUND
  6
CONTINUOUS
 10
0.000000
 20
-7.089280
  0
VERTEX
  8
FOREGROUND
  6
CONTINUOUS
 10
0.000000
 20
3.910720
  0
SEQEND
  8
0
  0
POLYLINE
  8
0
  6
CONTINUOUS
 66
     1
 40
0.014080
 41
0.014080
  0
VERTEX
  8
0
  6
CONTINUOUS
 10
6.663800
 20
2.998600
  0
VERTEX
  8
0
  6
CONTINUOUS
 10
6.579760
 20
2.996400
  0
VERTEX
  8
0
  6
CONTINUOUS
 10
6.500120
 20
2.990680
  0
VERTEX
  8
0
  6
CONTINUOUS
 10
6.449080
 20
2.984520
  0
VERTEX
  8
0
  6
CONTINUOUS
 10
6.352720
 20
2.967360
  0
VERTEX
  8
0
  6
CONTINUOUS
 10
6.263400
 20
2.944040
  0
VERTEX
  8
0
  6
CONTINUOUS
 10
6.181120
 20
2.915000
  0
VERTEX
  8
0
  6
CONTINUOUS
 10
6.105440
 20
2.880680
  0
VERTEX
  8
0
  6
CONTINUOUS
 10
6.069800
 20
2.861760
  0
VERTEX
  8
0
  6
CONTINUOUS
 10
6.003800
 20
2.820400
  0
VERTEX
  8
0
  6
CONTINUOUS
 10
5.943520
 20
2.774640
  0
VERTEX
  8
0
  6
CONTINUOUS
 10
5.889400
 20
2.725360
  0
VERTEX
  8
0
  6
CONTINUOUS
 10
5.841440
 20
2.672560
  0
VERTEX
  8
0
  6
CONTINUOUS
 10
5.798760
 20
2.616680
  0
VERTEX
  8
0
  6
CONTINUOUS
 10
5.761360
 20
2.558600
  0
VERTEX
  8
0
  6
CONTINUOUS
 10
5.729240
 20
2.498320
  0
VERTEX
  8
0
  6
CONTINUOUS
 10
5.702400
 20
2.436720
  0
VERTEX
  8
0
  6
CONTINUOUS
 10
5.679960
 20
2.373360
  0
VERTEX
  8
0
  6
CONTINUOUS
 10
5.662360
 20
2.309560
  0
VERTEX
  8
0
  6
CONTINUOUS
 10
5.649160
 20
2.245320
  0
VERTEX
  8
0
  6
CONTINUOUS
 10
5.639920
 20
2.181080
  0
VERTEX
  8
0
  6
CONTINUOUS
 10
5.635080
 20
2.117280
  0
VERTEX
  8
0
  6
CONTINUOUS
 10
5.633760
 20
2.054800
  0
VERTEX
  8
0
  6
CONTINUOUS
 10
5.636400
 20
1.993200
  0
VERTEX
  8
0
  6
CONTINUOUS
 10
5.642120
 20
1.933360
  0
VERTEX
  8
0
  6
CONTINUOUS
 10
5.651360
 20
1.876160
  0
VERTEX
  8
0
  6
CONTINUOUS
 10
5.663680
 20
1.821160
  0
VERTEX
  8
0
  6
CONTINUOUS
 10
5.678640
 20
1.769240
  0
VERTEX
  8
0
  6
CONTINUOUS
 10
5.696240
 20
1.721280
  0
VERTEX
  8
0
  6
CONTINUOUS
 10
5.716480
 20
1.676840
  0
VERTEX
  8
0
  6
CONTINUOUS
 10
5.738920
 20
1.636360
  0
VERTEX
  8
0
  6
CONTINUOUS
 10
5.763120
 20
1.601160
  0
VERTEX
  8
0
  6
CONTINUOUS
 10
5.789520
 20
1.571240
  0
VERTEX
  8
0
  6
CONTINUOUS
 10
5.817680
 20
1.546600
  0
VERTEX
  8
0
  6
CONTINUOUS
 10
5.834400
 20
1.534280
  0
VERTEX
  8
0
  6
CONTINUOUS
 10
5.834400
 20
1.484120
  0
VERTEX
  8
0
  6
CONTINUOUS
 10
5.847600
 20
1.482360
  0
VERTEX
  8
0
  6
CONTINUOUS
 10
5.860360
 20
1.477080
  0
VERTEX
  8
0
  6
CONTINUOUS
 10
5.877960
 20
1.463440
  0
VERTEX
  8
0
  6
CONTINUOUS
 10
5.892040
 20
1.444520
  0
VERTEX
  8
0
  6
CONTINUOUS
 10
5.901720
 20
1.421640
  0
VERTEX
  8
0
  6
CONTINUOUS
 10
5.905240
 20
1.396560
  0
VERTEX
  8
0
  6
CONTINUOUS
 10
5.901720
 20
1.371480
  0
VERTEX
  8
0
  6
CONTINUOUS
 10
5.892040
 20
1.349480
  0
VERTEX
  8
0
  6
CONTINUOUS
 10
5.877960
 20
1.331000
  0
VERTEX
  8
0
  6
CONTINUOUS
 10
5.860360
 20
1.318240
  0
VERTEX
  8
0
  6
CONTINUOUS
 10
5.847600
 20
1.312960
  0
VERTEX
  8
0
  6
CONTINUOUS
 10
5.834400
 20
1.311200
  0
VERTEX
  8
0
  6
CONTINUOUS
 10
5.834400
 20
1.246520
  0
VERTEX
  8
0
  6
CONTINUOUS
 10
5.788640
 20
1.246520
  0
VERTEX
  8
0
  6
CONTINUOUS
 10
5.786000
 20
1.216600
  0
VERTEX
  8
0
  6
CONTINUOUS
 10
5.778960
 20
1.192400
  0
VERTEX
  8
0
  6
CONTINUOUS
 10
5.771920
 20
1.179200
  0
VERTEX
  8
0
  6
CONTINUOUS
 10
5.763560
 20
1.167760
  0
VERTEX
  8
0
  6
CONTINUOUS
 10
5.753880
 20
1.158080
  0
VERTEX
  8
0
  6
CONTINUOUS
 10
5.743320
 20
1.150160
  0
VERTEX
  8
0
  6
CONTINUOUS
 10
5.719560
 20
1.139160
  0
VERTEX
  8
0
  6
CONTINUOUS
 10
5.694480
 20
1.132120
  0
VERTEX
  8
0
  6
CONTINUOUS
 10
5.658840
 20
1.127280
  0
VERTEX
  8
0
  6
CONTINUOUS
 10
5.638600
 20
1.125960
  0
VERTEX
  8
0
  6
CONTINUOUS
 10
5.638600
 20
1.071840
  0
VERTEX
  8
0
  6
CONTINUOUS
 10
5.432240
 20
1.071840
  0
VERTEX
  8
0
  6
CONTINUOUS
 10
5.430480
 20
3.263480
  0
VERTEX
  8
0
  6
CONTINUOUS
 10
6.967840
 20
3.263480
  0
VERTEX
  8
0
  6
CONTINUOUS
 10
6.967840
 20
3.186040
  0
VERTEX
  8
0
  6
CONTINUOUS
 10
6.935280
 20
3.183400
  0
VERTEX
  8
0
  6
CONTINUOUS
 10
6.920320
 20
3.179000
  0
VERTEX
  8
0
  6
CONTINUOUS
 10
6.909760
 20
3.172840
  0
VERTEX
  8
0
  6
CONTINUOUS
 10
6.899640
 20
3.160960
  0
VERTEX
  8
0
  6
CONTINUOUS
 10
6.893480
 20
3.142040
  0
VERTEX
  8
0
  6
CONTINUOUS
 10
6.889520
 20
3.122240
  0
VERTEX
  8
0
  6
CONTINUOUS
 10
6.883360
 20
3.108600
  0
VERTEX
  8
0
  6
CONTINUOUS
 10
6.876320
 20
3.100240
  0
VERTEX
  8
0
  6
CONTINUOUS
 10
6.859160
 20
3.090560
  0
VERTEX
  8
0
  6
CONTINUOUS
 10
6.842000
 20
3.086160
  0
VERTEX
  8
0
  6
CONTINUOUS
 10
6.819560
 20
3.083960
  0
VERTEX
  8
0
  6
CONTINUOUS
 10
6.790520
 20
3.084400
  0
VERTEX
  8
0
  6
CONTINUOUS
 10
6.790520
 20
2.998600
  0
VERTEX
  8
0
  6
CONTINUOUS
 10
6.663800
 20
2.998600
  0
SEQEND
  8
0
  0
SOLID
  8
0
 62
    15
 10
2.774200
 20
1.338920
 11
3.417920
 21
0.976360
 12
2.757920
 22
1.311640
 13
3.402080
 23
0.949080
  0
POLYLINE
  8
0
  6
CONTINUOUS
 66
     1
 40
0.000000
 41
0.000000
  0
VERTEX
  8
0
  6
CONTINUOUS
 10
2.774200
 20
1.338920
  0
VERTEX
  8
0
  6
CONTINUOUS
 10
3.417920
 20
0.976360
  0
VERTEX
  8
0
  6
CONTINUOUS
 10
3.402080
 20
0.949080
  0
VERTEX
  8
0
  6
CONTINUOUS
 10
2.757920
 20
1.311640
  0
VERTEX
  8
0
  6
CONTINUOUS
 10
2.774200
 20
1.338920
  0
SEQEND
  8
0
  0
SOLID
  8
0
 62
    15
 10
3.427160
 20
2.970000
 11
4.071320
 21
2.607440
 12
3.323760
 22
2.959440
 13
3.967920
 23
2.596880
  0
POLYLINE
  8
0
  6
CONTINUOUS
 66
     1
 40
0.000000
 41
0.000000
  0
VERTEX
  8
0
  6
CONTINUOUS
 10
3.427160
 20
2.970000
  0
VERTEX
  8
0
  6
CONTINUOUS
 10
4.071320
 20
2.607440
  0
VERTEX
  8
0
  6
CONTINUOUS
 10
3.967920
 20
2.596880
  0
VERTEX
  8
0
  6
CONTINUOUS
 10
3.323760
 20
2.959440
  0
VERTEX
  8
0
  6
CONTINUOUS
 10
3.427160
 20
2.970000
  0
SEQEND
  8
0
  0
SOLID
  8
0
 62
    15
 10
3.323760
 20
2.959440
 11
3.967920
 21
2.596880
 12
3.227400
 22
2.942280
 13
3.871120
 23
2.579280
  0
POLYLINE
  8
0
  6
CONTINUOUS
 66
     1
 40
0.000000
 41
0.000000
  0
VERTEX
  8
0
  6
CONTINUOUS
 10
3.323760
 20
2.959440
  0
VERTEX
  8
0
  6
CONTINUOUS
 10
3.967920
 20
2.596880
  0
VERTEX
  8
0
  6
CONTINUOUS
 10
3.871120
 20
2.579280
  0
VERTEX
  8
0
  6
CONTINUOUS
 10
3.227400
 20
2.942280
  0
VERTEX
  8
0
  6
CONTINUOUS
 10
3.323760
 20
2.959440
  0
SEQEND
  8
0
  0
SOLID
  8
0
 62
    15
 10
3.227400
 20
2.942280
 11
3.871120
 21
2.579280
 12
3.138080
 22
2.918960
 13
3.782240
 23
2.556400
  0
POLYLINE
  8
0
  6
CONTINUOUS
 66
     1
 40
0.000000
 41
0.000000
  0
VERTEX
  8
0
  6
CONTINUOUS
 10
3.227400
 20
2.942280
  0
VERTEX
  8
0
  6
CONTINUOUS
 10
3.871120
 20
2.579280
  0
VERTEX
  8
0
  6
CONTINUOUS
 10
3.782240
 20
2.556400
  0
VERTEX
  8
0
  6
CONTINUOUS
 10
3.138080
 20
2.918960
  0
VERTEX
  8
0
  6
CONTINUOUS
 10
3.227400
 20
2.942280
  0
SEQEND
  8
0
  0
SOLID
  8
0
 62
    15
 10
3.138080
 20
2.918960
 11
3.782240
 21
2.556400
 12
3.055800
 22
2.889920
 13
3.699520
 23
2.527360
  0
POLYLINE
  8
0
  6
CONTINUOUS
 66
     1
 40
0.000000
 41
0.000000
  0
VERTEX
  8
0
  6
CONTINUOUS
 10
3.138080
 20
2.918960
  0
VERTEX
  8
0
  6
CONTINUOUS
 10
3.782240
 20
2.556400
  0
VERTEX
  8
0
  6
CONTINUOUS
 10
3.699520
 20
2.527360
  0
VERTEX
  8
0
  6
CONTINUOUS
 10
3.055800
 20
2.889920
  0
VERTEX
  8
0
  6
CONTINUOUS
 10
3.138080
 20
2.918960
  0
SEQEND
  8
0
  0
SOLID
  8
0
 62
    15
 10
3.055800
 20
2.889920
 11
3.699520
 21
2.527360
 12
2.979680
 22
2.855600
 13
3.623840
 23
2.493040
  0
POLYLINE
  8
0
  6
CONTINUOUS
 66
     1
 40
0.000000
 41
0.000000
  0
VERTEX
  8
0
  6
CONTINUOUS
 10
3.055800
 20
2.889920
  0
VERTEX
  8
0
  6
CONTINUOUS
 10
3.699520
 20
2.527360
  0
VERTEX
  8
0
  6
CONTINUOUS
 10
3.623840
 20
2.493040
  0
VERTEX
  8
0
  6
CONTINUOUS
 10
2.979680
 20
2.855600
  0
VERTEX
  8
0
  6
CONTINUOUS
 10
3.055800
 20
2.889920
  0
SEQEND
  8
0
  0
SOLID
  8
0
 62
    15
 10
2.979680
 20
2.855600
 11
3.623840
 21
2.493040
 12
2.910600
 22
2.816440
 13
3.554320
 23
2.453880
  0
POLYLINE
  8
0
  6
CONTINUOUS
 66
     1
 40
0.000000
 41
0.000000
  0
VERTEX
  8
0
  6
CONTINUOUS
 10
2.979680
 20
2.855600
  0
VERTEX
  8
0
  6
CONTINUOUS
 10
3.623840
 20
2.493040
  0
VERTEX
  8
0
  6
CONTINUOUS
 10
3.554320
 20
2.453880
  0
VERTEX
  8
0
  6
CONTINUOUS
 10
2.910600
 20
2.816440
  0
VERTEX
  8
0
  6
CONTINUOUS
 10
2.979680
 20
2.855600
  0
SEQEND
  8
0
  0
SOLID
  8
0
 62
    15
 10
2.910600
 20
2.816440
 11
3.554320
 21
2.453880
 12
2.847680
 22
2.772880
 13
3.491400
 23
2.410320
  0
POLYLINE
  8
0
  6
CONTINUOUS
 66
     1
 40
0.000000
 41
0.000000
  0
VERTEX
  8
0
  6
CONTINUOUS
 10
2.910600
 20
2.816440
  0
VERTEX
  8
0
  6
CONTINUOUS
 10
3.554320
 20
2.453880
  0
VERTEX
  8
0
  6
CONTINUOUS
 10
3.491400
 20
2.410320
  0
VERTEX
  8
0
  6
CONTINUOUS
 10
2.847680
 20
2.772880
  0
VERTEX
  8
0
  6
CONTINUOUS
 10
2.910600
 20
2.816440
  0
SEQEND
  8
0
  0
SOLID
  8
0
 62
    15
 10
2.847680
 20
2.772880
 11
3.491400
 21
2.410320
 12
2.739440
 22
2.674320
 13
3.383600
 23
2.311760
  0
POLYLINE
  8
0
  6
CONTINUOUS
 66
     1
 40
0.000000
 41
0.000000
  0
VERTEX
  8
0
  6
CONTINUOUS
 10
2.847680
 20
2.772880
  0
VERTEX
  8
0
  6
CONTINUOUS
 10
3.491400
 20
2.410320
  0
VERTEX
  8
0
  6
CONTINUOUS
 10
3.383600
 20
2.311760
  0
VERTEX
  8
0
  6
CONTINUOUS
 10
2.739440
 20
2.674320
  0
VERTEX
  8
0
  6
CONTINUOUS
 10
2.847680
 20
2.772880
  0
SEQEND
  8
0
  0
SOLID
  8
0
 62
    15
 10
2.739440
 20
2.674320
 11
3.383600
 21
2.311760
 12
2.654080
 22
2.563000
 13
3.298240
 23
2.200440
  0
POLYLINE
  8
0
  6
CONTINUOUS
 66
     1
 40
0.000000
 41
0.000000
  0
VERTEX
  8
0
  6
CONTINUOUS
 10
2.739440
 20
2.674320
  0
VERTEX
  8
0
  6
CONTINUOUS
 10
3.383600
 20
2.311760
  0
VERTEX
  8
0
  6
CONTINUOUS
 10
3.298240
 20
2.200440
  0
VERTEX
  8
0
  6
CONTINUOUS
 10
2.654080
 20
2.563000
  0
VERTEX
  8
0
  6
CONTINUOUS
 10
2.739440
 20
2.674320
  0
SEQEND
  8
0
  0
SOLID
  8
0
 62
    15
 10
2.654080
 20
2.563000
 11
3.298240
 21
2.200440
 12
2.589840
 22
2.442880
 13
3.234000
 23
2.079880
  0
POLYLINE
  8
0
  6
CONTINUOUS
 66
     1
 40
0.000000
 41
0.000000
  0
VERTEX
  8
0
  6
CONTINUOUS
 10
2.654080
 20
2.563000
  0
VERTEX
  8
0
  6
CONTINUOUS
 10
3.298240
 20
2.200440
  0
VERTEX
  8
0
  6
CONTINUOUS
 10
3.234000
 20
2.079880
  0
VERTEX
  8
0
  6
CONTINUOUS
 10
2.589840
 20
2.442880
  0
VERTEX
  8
0
  6
CONTINUOUS
 10
2.654080
 20
2.563000
  0
SEQEND
  8
0
  0
SOLID
  8
0
 62
     7
 10
2.589840
 20
2.442880
 11
3.234000
 21
2.079880
 12
2.545400
 22
2.316600
 13
3.189560
 23
1.954040
  0
POLYLINE
  8
0
  6
CONTINUOUS
 66
     1
 40
0.000000
 41
0.000000
  0
VERTEX
  8
0
  6
CONTINUOUS
 10
2.589840
 20
2.442880
  0
VERTEX
  8
0
  6
CONTINUOUS
 10
3.234000
 20
2.079880
  0
VERTEX
  8
0
  6
CONTINUOUS
 10
3.189560
 20
1.954040
  0
VERTEX
  8
0
  6
CONTINUOUS
 10
2.545400
 20
2.316600
  0
VERTEX
  8
0
  6
CONTINUOUS
 10
2.589840
 20
2.442880
  0
SEQEND
  8
0
  0
SOLID
  8
0
 62
     7
 10
2.545400
 20
2.316600
 11
3.189560
 21
1.954040
 12
2.519000
 22
2.188120
 13
3.163160
 23
1.825560
  0
POLYLINE
  8
0
  6
CONTINUOUS
 66
     1
 40
0.000000
 41
0.000000
  0
VERTEX
  8
0
  6
CONTINUOUS
 10
2.545400
 20
2.316600
  0
VERTEX
  8
0
  6
CONTINUOUS
 10
3.189560
 20
1.954040
  0
VERTEX
  8
0
  6
CONTINUOUS
 10
3.163160
 20
1.825560
  0
VERTEX
  8
0
  6
CONTINUOUS
 10
2.519000
 20
2.188120
  0
VERTEX
  8
0
  6
CONTINUOUS
 10
2.545400
 20
2.316600
  0
SEQEND
  8
0
  0
SOLID
  8
0
 62
     7
 10
2.519000
 20
2.188120
 11
3.163160
 21
1.825560
 12
2.508880
 22
2.060960
 13
3.153040
 23
1.697960
  0
POLYLINE
  8
0
  6
CONTINUOUS
 66
     1
 40
0.000000
 41
0.000000
  0
VERTEX
  8
0
  6
CONTINUOUS
 10
2.519000
 20
2.188120
  0
VERTEX
  8
0
  6
CONTINUOUS
 10
3.163160
 20
1.825560
  0
VERTEX
  8
0
  6
CONTINUOUS
 10
3.153040
 20
1.697960
  0
VERTEX
  8
0
  6
CONTINUOUS
 10
2.508880
 20
2.060960
  0
VERTEX
  8
0
  6
CONTINUOUS
 10
2.519000
 20
2.188120
  0
SEQEND
  8
0
  0
SOLID
  8
0
 62
     7
 10
2.508880
 20
2.060960
 11
3.153040
 21
1.697960
 12
2.513720
 22
1.938200
 13
3.157880
 23
1.575200
  0
POLYLINE
  8
0
  6
CONTINUOUS
 66
     1
 40
0.000000
 41
0.000000
  0
VERTEX
  8
0
  6
CONTINUOUS
 10
2.508880
 20
2.060960
  0
VERTEX
  8
0
  6
CONTINUOUS
 10
3.153040
 20
1.697960
  0
VERTEX
  8
0
  6
CONTINUOUS
 10
3.157880
 20
1.575200
  0
VERTEX
  8
0
  6
CONTINUOUS
 10
2.513720
 20
1.938200
  0
VERTEX
  8
0
  6
CONTINUOUS
 10
2.508880
 20
2.060960
  0
SEQEND
  8
0
  0
SOLID
  8
0
 62
    15
 10
2.513720
 20
1.938200
 11
3.157880
 21
1.575200
 12
2.532200
 22
1.823360
 13
3.175920
 23
1.460360
  0
POLYLINE
  8
0
  6
CONTINUOUS
 66
     1
 40
0.000000
 41
0.000000
  0
VERTEX
  8
0
  6
CONTINUOUS
 10
2.513720
 20
1.938200
  0
VERTEX
  8
0
  6
CONTINUOUS
 10
3.157880
 20
1.575200
  0
VERTEX
  8
0
  6
CONTINUOUS
 10
3.175920
 20
1.460360
  0
VERTEX
  8
0
  6
CONTINUOUS
 10
2.532200
 20
1.823360
  0
VERTEX
  8
0
  6
CONTINUOUS
 10
2.513720
 20
1.938200
  0
SEQEND
  8
0
  0
SOLID
  8
0
 62
    15
 10
2.532200
 20
1.823360
 11
3.175920
 21
1.460360
 12
2.562120
 22
1.719520
 13
3.206280
 23
1.356960
  0
POLYLINE
  8
0
  6
CONTINUOUS
 66
     1
 40
0.000000
 41
0.000000
  0
VERTEX
  8
0
  6
CONTINUOUS
 10
2.532200
 20
1.823360
  0
VERTEX
  8
0
  6
CONTINUOUS
 10
3.175920
 20
1.460360
  0
VERTEX
  8
0
  6
CONTINUOUS
 10
3.206280
 20
1.356960
  0
VERTEX
  8
0
  6
CONTINUOUS
 10
2.562120
 20
1.719520
  0
VERTEX
  8
0
  6
CONTINUOUS
 10
2.532200
 20
1.823360
  0
SEQEND
  8
0
  0
SOLID
  8
0
 62
    15
 10
2.562120
 20
1.719520
 11
3.206280
 21
1.356960
 12
2.602160
 22
1.631080
 13
3.246320
 23
1.268080
  0
POLYLINE
  8
0
  6
CONTINUOUS
 66
     1
 40
0.000000
 41
0.000000
  0
VERTEX
  8
0
  6
CONTINUOUS
 10
2.562120
 20
1.719520
  0
VERTEX
  8
0
  6
CONTINUOUS
 10
3.206280
 20
1.356960
  0
VERTEX
  8
0
  6
CONTINUOUS
 10
3.246320
 20
1.268080
  0
VERTEX
  8
0
  6
CONTINUOUS
 10
2.602160
 20
1.631080
  0
VERTEX
  8
0
  6
CONTINUOUS
 10
2.562120
 20
1.719520
  0
SEQEND
  8
0
  0
SOLID
  8
0
 62
    15
 10
2.602160
 20
1.631080
 11
3.246320
 21
1.268080
 12
2.651440
 22
1.560240
 13
3.295160
 23
1.197680
  0
POLYLINE
  8
0
  6
CONTINUOUS
 66
     1
 40
0.000000
 41
0.000000
  0
VERTEX
  8
0
  6
CONTINUOUS
 10
2.602160
 20
1.631080
  0
VERTEX
  8
0
  6
CONTINUOUS
 10
3.246320
 20
1.268080
  0
VERTEX
  8
0
  6
CONTINUOUS
 10
3.295160
 20
1.197680
  0
VERTEX
  8
0
  6
CONTINUOUS
 10
2.651440
 20
1.560240
  0
VERTEX
  8
0
  6
CONTINUOUS
 10
2.602160
 20
1.631080
  0
SEQEND
  8
0
  0
SOLID
  8
0
 62
    15
 10
2.651440
 20
1.560240
 11
3.295160
 21
1.197680
 12
2.707320
 22
1.511400
 13
3.351040
 23
1.148400
  0
POLYLINE
  8
0
  6
CONTINUOUS
 66
     1
 40
0.000000
 41
0.000000
  0
VERTEX
  8
0
  6
CONTINUOUS
 10
2.651440
 20
1.560240
  0
VERTEX
  8
0
  6
CONTINUOUS
 10
3.295160
 20
1.197680
  0
VERTEX
  8
0
  6
CONTINUOUS
 10
3.351040
 20
1.148400
  0
VERTEX
  8
0
  6
CONTINUOUS
 10
2.707320
 20
1.511400
  0
VERTEX
  8
0
  6
CONTINUOUS
 10
2.651440
 20
1.560240
  0
SEQEND
  8
0
  0
SOLID
  8
0
 62
    15
 10
2.707320
 20
1.511400
 11
3.351040
 21
1.148400
 12
2.709080
 22
1.509200
 13
3.353240
 23
1.146200
  0
POLYLINE
  8
0
  6
CONTINUOUS
 66
     1
 40
0.000000
 41
0.000000
  0
VERTEX
  8
0
  6
CONTINUOUS
 10
2.707320
 20
1.511400
  0
VERTEX
  8
0
  6
CONTINUOUS
 10
3.351040
 20
1.148400
  0
VERTEX
  8
0
  6
CONTINUOUS
 10
3.353240
 20
1.146200
  0
VERTEX
  8
0
  6
CONTINUOUS
 10
2.709080
 20
1.509200
  0
VERTEX
  8
0
  6
CONTINUOUS
 10
2.707320
 20
1.511400
  0
SEQEND
  8
0
  0
SOLID
  8
0
 62
     7
 10
2.709080
 20
1.509200
 11
3.353240
 21
1.146200
 12
2.709080
 22
1.459040
 13
3.353240
 23
1.096480
  0
POLYLINE
  8
0
  6
CONTINUOUS
 66
     1
 40
0.000000
 41
0.000000
  0
VERTEX
  8
0
  6
CONTINUOUS
 10
2.709080
 20
1.509200
  0
VERTEX
  8
0
  6
CONTINUOUS
 10
3.353240
 20
1.146200
  0
VERTEX
  8
0
  6
CONTINUOUS
 10
3.353240
 20
1.096480
  0
VERTEX
  8
0
  6
CONTINUOUS
 10
2.709080
 20
1.459040
  0
VERTEX
  8
0
  6
CONTINUOUS
 10
2.709080
 20
1.509200
  0
SEQEND
  8
0
  0
SOLID
  8
0
 62
    15
 10
2.735480
 20
1.452000
 11
3.379200
 21
1.089000
 12
2.757920
 22
1.432640
 13
3.402080
 23
1.069640
  0
POLYLINE
  8
0
  6
CONTINUOUS
 66
     1
 40
0.000000
 41
0.000000
  0
VERTEX
  8
0
  6
CONTINUOUS
 10
2.735480
 20
1.452000
  0
VERTEX
  8
0
  6
CONTINUOUS
 10
3.379200
 20
1.089000
  0
VERTEX
  8
0
  6
CONTINUOUS
 10
3.402080
 20
1.069640
  0
VERTEX
  8
0
  6
CONTINUOUS
 10
2.757920
 20
1.432640
  0
VERTEX
  8
0
  6
CONTINUOUS
 10
2.735480
 20
1.452000
  0
SEQEND
  8
0
  0
SOLID
  8
0
 62
    15
 10
2.757920
 20
1.432640
 11
3.402080
 21
1.069640
 12
2.774200
 22
1.404480
 13
3.417920
 23
1.041920
  0
POLYLINE
  8
0
  6
CONTINUOUS
 66
     1
 40
0.000000
 41
0.000000
  0
VERTEX
  8
0
  6
CONTINUOUS
 10
2.757920
 20
1.432640
  0
VERTEX
  8
0
  6
CONTINUOUS
 10
3.402080
 20
1.069640
  0
VERTEX
  8
0
  6
CONTINUOUS
 10
3.417920
 20
1.041920
  0
VERTEX
  8
0
  6
CONTINUOUS
 10
2.774200
 20
1.404480
  0
VERTEX
  8
0
  6
CONTINUOUS
 10
2.757920
 20
1.432640
  0
SEQEND
  8
0
  0
SOLID
  8
0
 62
    15
 10
2.774200
 20
1.404480
 11
3.417920
 21
1.041920
 12
2.779920
 22
1.371480
 13
3.424080
 23
1.008920
  0
POLYLINE
  8
0
  6
CONTINUOUS
 66
     1
 40
0.000000
 41
0.000000
  0
VERTEX
  8
0
  6
CONTINUOUS
 10
2.774200
 20
1.404480
  0
VERTEX
  8
0
  6
CONTINUOUS
 10
3.417920
 20
1.041920
  0
VERTEX
  8
0
  6
CONTINUOUS
 10
3.424080
 20
1.008920
  0
VERTEX
  8
0
  6
CONTINUOUS
 10
2.779920
 20
1.371480
  0
VERTEX
  8
0
  6
CONTINUOUS
 10
2.774200
 20
1.404480
  0
SEQEND
  8
0
  0
SOLID
  8
0
 62
    15
 10
2.779920
 20
1.371480
 11
3.424080
 21
1.008920
 12
2.774200
 22
1.338920
 13
3.417920
 23
0.976360
  0
POLYLINE
  8
0
  6
CONTINUOUS
 66
     1
 40
0.000000
 41
0.000000
  0
VERTEX
  8
0
  6
CONTINUOUS
 10
2.779920
 20
1.371480
  0
VERTEX
  8
0
  6
CONTINUOUS
 10
3.424080
 20
1.008920
  0
VERTEX
  8
0
  6
CONTINUOUS
 10
3.417920
 20
0.976360
  0
VERTEX
  8
0
  6
CONTINUOUS
 10
2.774200
 20
1.338920
  0
VERTEX
  8
0
  6
CONTINUOUS
 10
2.779920
 20
1.371480
  0
SEQEND
  8
0
  0
SOLID
  8
0
 62
    15
 10
3.538480
 20
2.973960
 11
4.182200
 21
2.610960
 12
3.427160
 22
2.970000
 13
4.071320
 23
2.607440
  0
POLYLINE
  8
0
  6
CONTINUOUS
 66
     1
 40
0.000000
 41
0.000000
  0
VERTEX
  8
0
  6
CONTINUOUS
 10
3.538480
 20
2.973960
  0
VERTEX
  8
0
  6
CONTINUOUS
 10
4.182200
 20
2.610960
  0
VERTEX
  8
0
  6
CONTINUOUS
 10
4.071320
 20
2.607440
  0
VERTEX
  8
0
  6
CONTINUOUS
 10
3.427160
 20
2.970000
  0
VERTEX
  8
0
  6
CONTINUOUS
 10
3.538480
 20
2.973960
  0
SEQEND
  8
0
  0
SOLID
  8
0
 62
    15
 10
2.757920
 20
1.311640
 11
3.402080
 21
0.949080
 12
2.735480
 22
1.293160
 13
3.379200
 23
0.930160
  0
POLYLINE
  8
0
  6
CONTINUOUS
 66
     1
 40
0.000000
 41
0.000000
  0
VERTEX
  8
0
  6
CONTINUOUS
 10
2.757920
 20
1.311640
  0
VERTEX
  8
0
  6
CONTINUOUS
 10
3.402080
 20
0.949080
  0
VERTEX
  8
0
  6
CONTINUOUS
 10
3.379200
 20
0.930160
  0
VERTEX
  8
0
  6
CONTINUOUS
 10
2.735480
 20
1.293160
  0
VERTEX
  8
0
  6
CONTINUOUS
 10
2.757920
 20
1.311640
  0
SEQEND
  8
0
  0
SOLID
  8
0
 62
    15
 10
2.735480
 20
1.293160
 11
3.379200
 21
0.930160
 12
2.709080
 22
1.286120
 13
3.353240
 23
0.923560
  0
POLYLINE
  8
0
  6
CONTINUOUS
 66
     1
 40
0.000000
 41
0.000000
  0
VERTEX
  8
0
  6
CONTINUOUS
 10
2.735480
 20
1.293160
  0
VERTEX
  8
0
  6
CONTINUOUS
 10
3.379200
 20
0.930160
  0
VERTEX
  8
0
  6
CONTINUOUS
 10
3.353240
 20
0.923560
  0
VERTEX
  8
0
  6
CONTINUOUS
 10
2.709080
 20
1.286120
  0
VERTEX
  8
0
  6
CONTINUOUS
 10
2.735480
 20
1.293160
  0
SEQEND
  8
0
  0
SOLID
  8
0
 62
     7
 10
2.709080
 20
1.286120
 11
3.353240
 21
0.923560
 12
2.709080
 22
1.221880
 13
3.353240
 23
0.858880
  0
POLYLINE
  8
0
  6
CONTINUOUS
 66
     1
 40
0.000000
 41
0.000000
  0
VERTEX
  8
0
  6
CONTINUOUS
 10
2.709080
 20
1.286120
  0
VERTEX
  8
0
  6
CONTINUOUS
 10
3.353240
 20
0.923560
  0
VERTEX
  8
0
  6
CONTINUOUS
 10
3.353240
 20
0.858880
  0
VERTEX
  8
0
  6
CONTINUOUS
 10
2.709080
 20
1.221880
  0
VERTEX
  8
0
  6
CONTINUOUS
 10
2.709080
 20
1.286120
  0
SEQEND
  8
0
  0
SOLID
  8
0
 62
    15
 10
2.709080
 20
1.221880
 11
3.353240
 21
0.858880
 12
2.663320
 22
1.221880
 13
3.307480
 23
0.858880
  0
POLYLINE
  8
0
  6
CONTINUOUS
 66
     1
 40
0.000000
 41
0.000000
  0
VERTEX
  8
0
  6
CONTINUOUS
 10
2.709080
 20
1.221880
  0
VERTEX
  8
0
  6
CONTINUOUS
 10
3.353240
 20
0.858880
  0
VERTEX
  8
0
  6
CONTINUOUS
 10
3.307480
 20
0.858880
  0
VERTEX
  8
0
  6
CONTINUOUS
 10
2.663320
 20
1.221880
  0
VERTEX
  8
0
  6
CONTINUOUS
 10
2.709080
 20
1.221880
  0
SEQEND
  8
0
  0
SOLID
  8
0
 62
     7
 10
2.663320
 20
1.221880
 11
3.307480
 21
0.858880
 12
2.658920
 22
1.183160
 13
3.303080
 23
0.820160
  0
POLYLINE
  8
0
  6
CONTINUOUS
 66
     1
 40
0.000000
 41
0.000000
  0
VERTEX
  8
0
  6
CONTINUOUS
 10
2.663320
 20
1.221880
  0
VERTEX
  8
0
  6
CONTINUOUS
 10
3.307480
 20
0.858880
  0
VERTEX
  8
0
  6
CONTINUOUS
 10
3.303080
 20
0.820160
  0
VERTEX
  8
0
  6
CONTINUOUS
 10
2.658920
 20
1.183160
  0
VERTEX
  8
0
  6
CONTINUOUS
 10
2.663320
 20
1.221880
  0
SEQEND
  8
0
  0
SOLID
  8
0
 62
    15
 10
2.658920
 20
1.183160
 11
3.303080
 21
0.820160
 12
2.646600
 22
1.154120
 13
3.290760
 23
0.791120
  0
POLYLINE
  8
0
  6
CONTINUOUS
 66
     1
 40
0.000000
 41
0.000000
  0
VERTEX
  8
0
  6
CONTINUOUS
 10
2.658920
 20
1.183160
  0
VERTEX
  8
0
  6
CONTINUOUS
 10
3.303080
 20
0.820160
  0
VERTEX
  8
0
  6
CONTINUOUS
 10
3.290760
 20
0.791120
  0
VERTEX
  8
0
  6
CONTINUOUS
 10
2.646600
 20
1.154120
  0
VERTEX
  8
0
  6
CONTINUOUS
 10
2.658920
 20
1.183160
  0
SEQEND
  8
0
  0
SOLID
  8
0
 62
    15
 10
2.646600
 20
1.154120
 11
3.290760
 21
0.791120
 12
2.628560
 22
1.133440
 13
3.272720
 23
0.770440
  0
POLYLINE
  8
0
  6
CONTINUOUS
 66
     1
 40
0.000000
 41
0.000000
  0
VERTEX
  8
0
  6
CONTINUOUS
 10
2.646600
 20
1.154120
  0
VERTEX
  8
0
  6
CONTINUOUS
 10
3.290760
 20
0.791120
  0
VERTEX
  8
0
  6
CONTINUOUS
 10
3.272720
 20
0.770440
  0
VERTEX
  8
0
  6
CONTINUOUS
 10
2.628560
 20
1.133440
  0
VERTEX
  8
0
  6
CONTINUOUS
 10
2.646600
 20
1.154120
  0
SEQEND
  8
0
  0
SOLID
  8
0
 62
    15
 10
2.628560
 20
1.133440
 11
3.272720
 21
0.770440
 12
2.606560
 22
1.118920
 13
3.250280
 23
0.756360
  0
POLYLINE
  8
0
  6
CONTINUOUS
 66
     1
 40
0.000000
 41
0.000000
  0
VERTEX
  8
0
  6
CONTINUOUS
 10
2.628560
 20
1.133440
  0
VERTEX
  8
0
  6
CONTINUOUS
 10
3.272720
 20
0.770440
  0
VERTEX
  8
0
  6
CONTINUOUS
 10
3.250280
 20
0.756360
  0
VERTEX
  8
0
  6
CONTINUOUS
 10
2.606560
 20
1.118920
  0
VERTEX
  8
0
  6
CONTINUOUS
 10
2.628560
 20
1.133440
  0
SEQEND
  8
0
  0
SOLID
  8
0
 62
    15
 10
2.606560
 20
1.118920
 11
3.250280
 21
0.756360
 12
2.557280
 22
1.105280
 13
3.201000
 23
0.742280
  0
POLYLINE
  8
0
  6
CONTINUOUS
 66
     1
 40
0.000000
 41
0.000000
  0
VERTEX
  8
0
  6
CONTINUOUS
 10
2.606560
 20
1.118920
  0
VERTEX
  8
0
  6
CONTINUOUS
 10
3.250280
 20
0.756360
  0
VERTEX
  8
0
  6
CONTINUOUS
 10
3.201000
 20
0.742280
  0
VERTEX
  8
0
  6
CONTINUOUS
 10
2.557280
 20
1.105280
  0
VERTEX
  8
0
  6
CONTINUOUS
 10
2.606560
 20
1.118920
  0
SEQEND
  8
0
  0
SOLID
  8
0
 62
    15
 10
2.557280
 20
1.105280
 11
3.201000
 21
0.742280
 12
2.533520
 22
1.102640
 13
3.177680
 23
0.739640
  0
POLYLINE
  8
0
  6
CONTINUOUS
 66
     1
 40
0.000000
 41
0.000000
  0
VERTEX
  8
0
  6
CONTINUOUS
 10
2.557280
 20
1.105280
  0
VERTEX
  8
0
  6
CONTINUOUS
 10
3.201000
 20
0.742280
  0
VERTEX
  8
0
  6
CONTINUOUS
 10
3.177680
 20
0.739640
  0
VERTEX
  8
0
  6
CONTINUOUS
 10
2.533520
 20
1.102640
  0
VERTEX
  8
0
  6
CONTINUOUS
 10
2.557280
 20
1.105280
  0
SEQEND
  8
0
  0
SOLID
  8
0
 62
    15
 10
2.533520
 20
1.102640
 11
3.177680
 21
0.739640
 12
2.513280
 22
1.100880
 13
3.157440
 23
0.737880
  0
POLYLINE
  8
0
  6
CONTINUOUS
 66
     1
 40
0.000000
 41
0.000000
  0
VERTEX
  8
0
  6
CONTINUOUS
 10
2.533520
 20
1.102640
  0
VERTEX
  8
0
  6
CONTINUOUS
 10
3.177680
 20
0.739640
  0
VERTEX
  8
0
  6
CONTINUOUS
 10
3.157440
 20
0.737880
  0
VERTEX
  8
0
  6
CONTINUOUS
 10
2.513280
 20
1.100880
  0
VERTEX
  8
0
  6
CONTINUOUS
 10
2.533520
 20
1.102640
  0
SEQEND
  8
0
  0
SOLID
  8
0
 62
     7
 10
2.513280
 20
1.100880
 11
3.157440
 21
0.737880
 12
2.513280
 22
1.046760
 13
3.157440
 23
0.683760
  0
POLYLINE
  8
0
  6
CONTINUOUS
 66
     1
 40
0.000000
 41
0.000000
  0
VERTEX
  8
0
  6
CONTINUOUS
 10
2.513280
 20
1.100880
  0
VERTEX
  8
0
  6
CONTINUOUS
 10
3.157440
 20
0.737880
  0
VERTEX
  8
0
  6
CONTINUOUS
 10
3.157440
 20
0.683760
  0
VERTEX
  8
0
  6
CONTINUOUS
 10
2.513280
 20
1.046760
  0
VERTEX
  8
0
  6
CONTINUOUS
 10
2.513280
 20
1.100880
  0
SEQEND
  8
0
  0
SOLID
  8
0
 62
    15
 10
2.513280
 20
1.046760
 11
3.157440
 21
0.683760
 12
2.307360
 22
1.046760
 13
2.951080
 23
0.683760
  0
POLYLINE
  8
0
  6
CONTINUOUS
 66
     1
 40
0.000000
 41
0.000000
  0
VERTEX
  8
0
  6
CONTINUOUS
 10
2.513280
 20
1.046760
  0
VERTEX
  8
0
  6
CONTINUOUS
 10
3.157440
 20
0.683760
  0
VERTEX
  8
0
  6
CONTINUOUS
 10
2.951080
 20
0.683760
  0
VERTEX
  8
0
  6
CONTINUOUS
 10
2.307360
 20
1.046760
  0
VERTEX
  8
0
  6
CONTINUOUS
 10
2.513280
 20
1.046760
  0
SEQEND
  8
0
  0
SOLID
  8
0
 62
    15
 10
3.842520
 20
3.238400
 11
4.486680
 21
2.875400
 12
3.842520
 22
3.161400
 13
4.486680
 23
2.798400
  0
POLYLINE
  8
0
  6
CONTINUOUS
 66
     1
 40
0.000000
 41
0.000000
  0
VERTEX
  8
0
  6
CONTINUOUS
 10
3.842520
 20
3.238400
  0
VERTEX
  8
0
  6
CONTINUOUS
 10
4.486680
 20
2.875400
  0
VERTEX
  8
0
  6
CONTINUOUS
 10
4.486680
 20
2.798400
  0
VERTEX
  8
0
  6
CONTINUOUS
 10
3.842520
 20
3.161400
  0
VERTEX
  8
0
  6
CONTINUOUS
 10
3.842520
 20
3.238400
  0
SEQEND
  8
0
  0
SOLID
  8
0
 62
    15
 10
3.842520
 20
3.161400
 11
4.486680
 21
2.798400
 12
3.802040
 22
3.156560
 13
4.445760
 23
2.793560
  0
POLYLINE
  8
0
  6
CONTINUOUS
 66
     1
 40
0.000000
 41
0.000000
  0
VERTEX
  8
0
  6
CONTINUOUS
 10
3.842520
 20
3.161400
  0
VERTEX
  8
0
  6
CONTINUOUS
 10
4.486680
 20
2.798400
  0
VERTEX
  8
0
  6
CONTINUOUS
 10
4.445760
 20
2.793560
  0
VERTEX
  8
0
  6
CONTINUOUS
 10
3.802040
 20
3.156560
  0
VERTEX
  8
0
  6
CONTINUOUS
 10
3.842520
 20
3.161400
  0
SEQEND
  8
0
  0
SOLID
  8
0
 62
    15
 10
3.802040
 20
3.156560
 11
4.445760
 21
2.793560
 12
3.780480
 22
3.144240
 13
4.424200
 23
2.781240
  0
POLYLINE
  8
0
  6
CONTINUOUS
 66
     1
 40
0.000000
 41
0.000000
  0
VERTEX
  8
0
  6
CONTINUOUS
 10
3.802040
 20
3.156560
  0
VERTEX
  8
0
  6
CONTINUOUS
 10
4.445760
 20
2.793560
  0
VERTEX
  8
0
  6
CONTINUOUS
 10
4.424200
 20
2.781240
  0
VERTEX
  8
0
  6
CONTINUOUS
 10
3.780480
 20
3.144240
  0
VERTEX
  8
0
  6
CONTINUOUS
 10
3.802040
 20
3.156560
  0
SEQEND
  8
0
  0
SOLID
  8
0
 62
    15
 10
3.780480
 20
3.144240
 11
4.424200
 21
2.781240
 12
3.770800
 22
3.126640
 13
4.414960
 23
2.764080
  0
POLYLINE
  8
0
  6
CONTINUOUS
 66
     1
 40
0.000000
 41
0.000000
  0
VERTEX
  8
0
  6
CONTINUOUS
 10
3.780480
 20
3.144240
  0
VERTEX
  8
0
  6
CONTINUOUS
 10
4.424200
 20
2.781240
  0
VERTEX
  8
0
  6
CONTINUOUS
 10
4.414960
 20
2.764080
  0
VERTEX
  8
0
  6
CONTINUOUS
 10
3.770800
 20
3.126640
  0
VERTEX
  8
0
  6
CONTINUOUS
 10
3.780480
 20
3.144240
  0
SEQEND
  8
0
  0
SOLID
  8
0
 62
    15
 10
3.770800
 20
3.126640
 11
4.414960
 21
2.764080
 12
3.768600
 22
3.116960
 13
4.412320
 23
2.754400
  0
POLYLINE
  8
0
  6
CONTINUOUS
 66
     1
 40
0.000000
 41
0.000000
  0
VERTEX
  8
0
  6
CONTINUOUS
 10
3.770800
 20
3.126640
  0
VERTEX
  8
0
  6
CONTINUOUS
 10
4.414960
 20
2.764080
  0
VERTEX
  8
0
  6
CONTINUOUS
 10
4.412320
 20
2.754400
  0
VERTEX
  8
0
  6
CONTINUOUS
 10
3.768600
 20
3.116960
  0
VERTEX
  8
0
  6
CONTINUOUS
 10
3.770800
 20
3.126640
  0
SEQEND
  8
0
  0
SOLID
  8
0
 62
    15
 10
3.768600
 20
3.116960
 11
4.412320
 21
2.754400
 12
3.766400
 22
3.106840
 13
4.410560
 23
2.744280
  0
POLYLINE
  8
0
  6
CONTINUOUS
 66
     1
 40
0.000000
 41
0.000000
  0
VERTEX
  8
0
  6
CONTINUOUS
 10
3.768600
 20
3.116960
  0
VERTEX
  8
0
  6
CONTINUOUS
 10
4.412320
 20
2.754400
  0
VERTEX
  8
0
  6
CONTINUOUS
 10
4.410560
 20
2.744280
  0
VERTEX
  8
0
  6
CONTINUOUS
 10
3.766400
 20
3.106840
  0
VERTEX
  8
0
  6
CONTINUOUS
 10
3.768600
 20
3.116960
  0
SEQEND
  8
0
  0
SOLID
  8
0
 62
    15
 10
3.766400
 20
3.106840
 11
4.410560
 21
2.744280
 12
3.760680
 22
3.087920
 13
4.404840
 23
2.724920
  0
POLYLINE
  8
0
  6
CONTINUOUS
 66
     1
 40
0.000000
 41
0.000000
  0
VERTEX
  8
0
  6
CONTINUOUS
 10
3.766400
 20
3.106840
  0
VERTEX
  8
0
  6
CONTINUOUS
 10
4.410560
 20
2.744280
  0
VERTEX
  8
0
  6
CONTINUOUS
 10
4.404840
 20
2.724920
  0
VERTEX
  8
0
  6
CONTINUOUS
 10
3.760680
 20
3.087920
  0
VERTEX
  8
0
  6
CONTINUOUS
 10
3.766400
 20
3.106840
  0
SEQEND
  8
0
  0
SOLID
  8
0
 62
    15
 10
3.760680
 20
3.087920
 11
4.404840
 21
2.724920
 12
3.746600
 22
3.071640
 13
4.390320
 23
2.708640
  0
POLYLINE
  8
0
  6
CONTINUOUS
 66
     1
 40
0.000000
 41
0.000000
  0
VERTEX
  8
0
  6
CONTINUOUS
 10
3.760680
 20
3.087920
  0
VERTEX
  8
0
  6
CONTINUOUS
 10
4.404840
 20
2.724920
  0
VERTEX
  8
0
  6
CONTINUOUS
 10
4.390320
 20
2.708640
  0
VERTEX
  8
0
  6
CONTINUOUS
 10
3.746600
 20
3.071640
  0
VERTEX
  8
0
  6
CONTINUOUS
 10
3.760680
 20
3.087920
  0
SEQEND
  8
0
  0
SOLID
  8
0
 62
    15
 10
3.746600
 20
3.071640
 11
4.390320
 21
2.708640
 12
3.717120
 22
3.061080
 13
4.360840
 23
2.698520
  0
POLYLINE
  8
0
  6
CONTINUOUS
 66
     1
 40
0.000000
 41
0.000000
  0
VERTEX
  8
0
  6
CONTINUOUS
 10
3.746600
 20
3.071640
  0
VERTEX
  8
0
  6
CONTINUOUS
 10
4.390320
 20
2.708640
  0
VERTEX
  8
0
  6
CONTINUOUS
 10
4.360840
 20
2.698520
  0
VERTEX
  8
0
  6
CONTINUOUS
 10
3.717120
 20
3.061080
  0
VERTEX
  8
0
  6
CONTINUOUS
 10
3.746600
 20
3.071640
  0
SEQEND
  8
0
  0
SOLID
  8
0
 62
    15
 10
3.717120
 20
3.061080
 11
4.360840
 21
2.698520
 12
3.665640
 22
3.059320
 13
4.309360
 23
2.696320
  0
POLYLINE
  8
0
  6
CONTINUOUS
 66
     1
 40
0.000000
 41
0.000000
  0
VERTEX
  8
0
  6
CONTINUOUS
 10
3.717120
 20
3.061080
  0
VERTEX
  8
0
  6
CONTINUOUS
 10
4.360840
 20
2.698520
  0
VERTEX
  8
0
  6
CONTINUOUS
 10
4.309360
 20
2.696320
  0
VERTEX
  8
0
  6
CONTINUOUS
 10
3.665640
 20
3.059320
  0
VERTEX
  8
0
  6
CONTINUOUS
 10
3.717120
 20
3.061080
  0
SEQEND
  8
0
  0
SOLID
  8
0
 62
    15
 10
3.665640
 20
3.059320
 11
4.309360
 21
2.696320
 12
3.665640
 22
2.973960
 13
4.309360
 23
2.610960
  0
POLYLINE
  8
0
  6
CONTINUOUS
 66
     1
 40
0.000000
 41
0.000000
  0
VERTEX
  8
0
  6
CONTINUOUS
 10
3.665640
 20
3.059320
  0
VERTEX
  8
0
  6
CONTINUOUS
 10
4.309360
 20
2.696320
  0
VERTEX
  8
0
  6
CONTINUOUS
 10
4.309360
 20
2.610960
  0
VERTEX
  8
0
  6
CONTINUOUS
 10
3.665640
 20
2.973960
  0
VERTEX
  8
0
  6
CONTINUOUS
 10
3.665640
 20
3.059320
  0
SEQEND
  8
0
  0
SOLID
  8
0
 62
    15
 10
3.665640
 20
2.973960
 11
4.309360
 21
2.610960
 12
3.546840
 22
2.973960
 13
4.190560
 23
2.610960
  0
POLYLINE
  8
0
  6
CONTINUOUS
 66
     1
 40
0.000000
 41
0.000000
  0
VERTEX
  8
0
  6
CONTINUOUS
 10
3.665640
 20
2.973960
  0
VERTEX
  8
0
  6
CONTINUOUS
 10
4.309360
 20
2.610960
  0
VERTEX
  8
0
  6
CONTINUOUS
 10
4.190560
 20
2.610960
  0
VERTEX
  8
0
  6
CONTINUOUS
 10
3.546840
 20
2.973960
  0
VERTEX
  8
0
  6
CONTINUOUS
 10
3.665640
 20
2.973960
  0
SEQEND
  8
0
  0
SOLID
  8
0
 62
    15
 10
3.546840
 20
2.973960
 11
4.190560
 21
2.610960
 12
3.538480
 22
2.973960
 13
4.182200
 23
2.610960
  0
POLYLINE
  8
0
  6
CONTINUOUS
 66
     1
 40
0.000000
 41
0.000000
  0
VERTEX
  8
0
  6
CONTINUOUS
 10
3.546840
 20
2.973960
  0
VERTEX
  8
0
  6
CONTINUOUS
 10
4.190560
 20
2.610960
  0
VERTEX
  8
0
  6
CONTINUOUS
 10
4.182200
 20
2.610960
  0
VERTEX
  8
0
  6
CONTINUOUS
 10
3.538480
 20
2.973960
  0
VERTEX
  8
0
  6
CONTINUOUS
 10
3.546840
 20
2.973960
  0
SEQEND
  8
0
  0
POLYLINE
  8
0
  6
CONTINUOUS
 66
     1
 40
0.000000
 41
0.000000
  0
VERTEX
  8
0
  6
CONTINUOUS
 10
3.538480
 20
2.973960
  0
VERTEX
  8
0
  6
CONTINUOUS
 10
3.427160
 20
2.970000
  0
VERTEX
  8
0
  6
CONTINUOUS
 10
3.323760
 20
2.959440
  0
VERTEX
  8
0
  6
CONTINUOUS
 10
3.227400
 20
2.942280
  0
VERTEX
  8
0
  6
CONTINUOUS
 10
3.138080
 20
2.918960
  0
VERTEX
  8
0
  6
CONTINUOUS
 10
3.055800
 20
2.889920
  0
VERTEX
  8
0
  6
CONTINUOUS
 10
2.979680
 20
2.855600
  0
VERTEX
  8
0
  6
CONTINUOUS
 10
2.910600
 20
2.816440
  0
VERTEX
  8
0
  6
CONTINUOUS
 10
2.847680
 20
2.772880
  0
VERTEX
  8
0
  6
CONTINUOUS
 10
2.739440
 20
2.674320
  0
VERTEX
  8
0
  6
CONTINUOUS
 10
2.654080
 20
2.563000
  0
VERTEX
  8
0
  6
CONTINUOUS
 10
2.589840
 20
2.442880
  0
VERTEX
  8
0
  6
CONTINUOUS
 10
2.545400
 20
2.316600
  0
VERTEX
  8
0
  6
CONTINUOUS
 10
2.519000
 20
2.188120
  0
VERTEX
  8
0
  6
CONTINUOUS
 10
2.508880
 20
2.060960
  0
VERTEX
  8
0
  6
CONTINUOUS
 10
2.513720
 20
1.938200
  0
VERTEX
  8
0
  6
CONTINUOUS
 10
2.532200
 20
1.823360
  0
VERTEX
  8
0
  6
CONTINUOUS
 10
2.562120
 20
1.719520
  0
VERTEX
  8
0
  6
CONTINUOUS
 10
2.602160
 20
1.631080
  0
VERTEX
  8
0
  6
CONTINUOUS
 10
2.651440
 20
1.560240
  0
VERTEX
  8
0
  6
CONTINUOUS
 10
2.709080
 20
1.509200
  0
VERTEX
  8
0
  6
CONTINUOUS
 10
2.709080
 20
1.459040
  0
VERTEX
  8
0
  6
CONTINUOUS
 10
2.735480
 20
1.452000
  0
VERTEX
  8
0
  6
CONTINUOUS
 10
2.757920
 20
1.432640
  0
VERTEX
  8
0
  6
CONTINUOUS
 10
2.774200
 20
1.404480
  0
VERTEX
  8
0
  6
CONTINUOUS
 10
2.779920
 20
1.371480
  0
VERTEX
  8
0
  6
CONTINUOUS
 10
2.774200
 20
1.338920
  0
VERTEX
  8
0
  6
CONTINUOUS
 10
2.757920
 20
1.311640
  0
VERTEX
  8
0
  6
CONTINUOUS
 10
2.735480
 20
1.293160
  0
VERTEX
  8
0
  6
CONTINUOUS
 10
2.709080
 20
1.286120
  0
VERTEX
  8
0
  6
CONTINUOUS
 10
2.709080
 20
1.221880
  0
VERTEX
  8
0
  6
CONTINUOUS
 10
2.663320
 20
1.221880
  0
VERTEX
  8
0
  6
CONTINUOUS
 10
2.658920
 20
1.183160
  0
VERTEX
  8
0
  6
CONTINUOUS
 10
2.646600
 20
1.154120
  0
VERTEX
  8
0
  6
CONTINUOUS
 10
2.628560
 20
1.133440
  0
VERTEX
  8
0
  6
CONTINUOUS
 10
2.606560
 20
1.118920
  0
VERTEX
  8
0
  6
CONTINUOUS
 10
2.557280
 20
1.105280
  0
VERTEX
  8
0
  6
CONTINUOUS
 10
2.513280
 20
1.100880
  0
VERTEX
  8
0
  6
CONTINUOUS
 10
2.513280
 20
1.046760
  0
VERTEX
  8
0
  6
CONTINUOUS
 10
2.307360
 20
1.046760
  0
VERTEX
  8
0
  6
CONTINUOUS
 10
2.305160
 20
3.238400
  0
VERTEX
  8
0
  6
CONTINUOUS
 10
3.842520
 20
3.238400
  0
VERTEX
  8
0
  6
CONTINUOUS
 10
3.842520
 20
3.161400
  0
VERTEX
  8
0
  6
CONTINUOUS
 10
3.802040
 20
3.156560
  0
VERTEX
  8
0
  6
CONTINUOUS
 10
3.780480
 20
3.144240
  0
VERTEX
  8
0
  6
CONTINUOUS
 10
3.770800
 20
3.126640
  0
VERTEX
  8
0
  6
CONTINUOUS
 10
3.760680
 20
3.087920
  0
VERTEX
  8
0
  6
CONTINUOUS
 10
3.746600
 20
3.071640
  0
VERTEX
  8
0
  6
CONTINUOUS
 10
3.717120
 20
3.061080
  0
VERTEX
  8
0
  6
CONTINUOUS
 10
3.665640
 20
3.059320
  0
VERTEX
  8
0
  6
CONTINUOUS
 10
3.665640
 20
2.973960
  0
VERTEX
  8
0
  6
CONTINUOUS
 10
3.538480
 20
2.973960
  0
SEQEND
  8
0
  0
TEXT
  8
0
 10
3.893560
 20
0.874720
 40
0.138080
  1
BA  421
 41
1.000000
  7
SN0
 71
     0
 72
     5
 11
4.485091
 21
0.874720
  0
TEXT
  8
0
 10
3.617680
 20
0.682880
 40
0.138080
  1
1-9/16" x 2-1/4"
 41
1.000000
  7
SN0
 71
     0
 72
     5
 11
4.760342
 21
0.682880
  0
ENDSEC
  0
EOF
