  0
SECTION
  2
HEADER
  9
$ACADVER
  1
AC1006
  9
$EXTMIN
 10
2.822600
 20
0.520080
  9
$EXTMAX
 10
7.668320
 20
3.833280
  9
$LTSCALE
 40
0.044000
  9
$PDMODE
 70
    35
  9
$PDSIZE
 40
0.035200
  0
ENDSEC
  0
SECTION
  2
TABLES
  0
TABLE
  2
LTYPE
 70
     9
  0
LTYPE
  2
CONTINUOUS
 70
    64
  3
Solid line
 72
    65
 73
     0
 40
0.000000
  0
LTYPE
  2
DASHED
 70
    64
  3
__ __ __ __ __ __ __ __ __ __ __ __ __ __ __
 72
    65
 73
     2
 40
0.000330
 49
0.000220
 49
-0.000110
  0
LTYPE
  2
HIDDEN
 70
    64
  3
 _ _ _ _ _ _ _ _ _ _ _ _ _ _ _ _ _ _ _ _ _ _
 72
    65
 73
     2
 40
0.000165
 49
0.000110
 49
-0.000055
  0
LTYPE
  2
CENTER
 70
    64
  3
____ _ ____ _ ____ _ ____ _ ____ _ ____ _ ____
 72
    65
 73
     4
 40
0.000880
 49
0.000550
 49
-0.000110
 49
0.000110
 49
-0.000110
  0
LTYPE
  2
PHANTOM
 70
    64
  3
_____ _ _ _____ _ _ _____ _ _ _____ _ _ ____
 72
    65
 73
     6
 40
0.001100
 49
0.000550
 49
-0.000110
 49
0.000110
 49
-0.000110
 49
0.000110
 49
-0.000110
  0
LTYPE
  2
DOT
 70
    64
  3
...............................................
 72
    65
 73
     2
 40
0.000110
 49
0.000000
 49
-0.000110
  0
LTYPE
  2
DASHDOT
 70
    64
  3
__ . __ . __ . __ . __ . __ . __ . __ . __ . __
 72
    65
 73
     4
 40
0.000440
 49
0.000220
 49
-0.000110
 49
0.000000
 49
-0.000110
  0
LTYPE
  2
BORDER
 70
    64
  3
__ __ . __ __ . __ __ . __ __ . __ __ . __ __
 72
    65
 73
     6
 40
0.000770
 49
0.000220
 49
-0.000110
 49
0.000220
 49
-0.000110
 49
0.000000
 49
-0.000110
  0
LTYPE
  2
DIVIDE
 70
    64
  3
__ . . __ . . __ . . __ . . __ . . __ . . __
 72
    65
 73
     6
 40
0.000550
 49
0.000220
 49
-0.000110
 49
0.000000
 49
-0.000110
 49
0.000000
 49
-0.000110
  0
LTYPE
  2
DOTDOT
 70
    64
  3
 . .  . .  . .  . .  . .  . . 
 72
    65
 73
     5
 40
0.000242
 49
-0.000110
 49
0.000000
 49
-0.000110
 49
0.000000
 49
-0.000110
  0
ENDTAB
  0
TABLE
  2
STYLE
 70
     2
  0
STYLE
 70
     0
  2
SN0
 40
0.000000
 41
0.000440
 50
0.000000
 71
     0
 42
0.000000
  3
ROMAND
  0
STYLE
 70
    68
  2
SV0
 40
0.000000
 41
0.000440
 50
0.000000
 71
     0
 42
0.000000
  3
ROMAND
  0
ENDTAB
  0
TABLE
  2
LAYER
 70
     3
  0
LAYER
  2
FOREGROUND
 70
    64
 62
     7
  6
CONTINUOUS
  0
LAYER
  2
BACKGROUND
 70
    65
 62
    -7
  6
CONTINUOUS
  0
LAYER
  2
0
 70
    64
 62
     7
  6
CONTINUOUS
  0
ENDTAB
  0
ENDSEC
  0
SECTION
  2
ENTITIES
  0
POLYLINE
  8
FOREGROUND
  6
CONTINUOUS
 66
     1
 40
0.000000
 41
0.000000
  0
VERTEX
  8
FOREGROUND
  6
CONTINUOUS
 10
0.000000
 20
4.353360
  0
VERTEX
  8
FOREGROUND
  6
CONTINUOUS
 10
8.499920
 20
4.353360
  0
VERTEX
  8
FOREGROUND
  6
CONTINUOUS
 10
8.499920
 20
-6.646640
  0
VERTEX
  8
FOREGROUND
  6
CONTINUOUS
 10
0.000000
 20
-6.646640
  0
VERTEX
  8
FOREGROUND
  6
CONTINUOUS
 10
0.000000
 20
4.353360
  0
SEQEND
  8
0
  0
POLYLINE
  8
0
  6
CONTINUOUS
 66
     1
 40
0.014080
 41
0.014080
  0
VERTEX
  8
0
  6
CONTINUOUS
 10
2.830520
 20
3.013560
  0
VERTEX
  8
0
  6
CONTINUOUS
 10
2.830520
 20
3.741320
  0
VERTEX
  8
0
  6
CONTINUOUS
 10
2.913680
 20
3.824920
  0
VERTEX
  8
0
  6
CONTINUOUS
 10
3.492720
 20
3.824920
  0
VERTEX
  8
0
  6
CONTINUOUS
 10
3.508560
 20
3.673120
  0
VERTEX
  8
0
  6
CONTINUOUS
 10
3.555640
 20
3.672240
  0
VERTEX
  8
0
  6
CONTINUOUS
 10
3.619440
 20
3.666520
  0
VERTEX
  8
0
  6
CONTINUOUS
 10
3.675760
 20
3.656400
  0
VERTEX
  8
0
  6
CONTINUOUS
 10
3.725920
 20
3.642320
  0
VERTEX
  8
0
  6
CONTINUOUS
 10
3.755840
 20
3.630880
  0
VERTEX
  8
0
  6
CONTINUOUS
 10
3.795880
 20
3.610640
  0
VERTEX
  8
0
  6
CONTINUOUS
 10
3.842960
 20
3.582480
  0
VERTEX
  8
0
  6
CONTINUOUS
 10
3.891800
 20
3.559160
  0
VERTEX
  8
0
  6
CONTINUOUS
 10
3.936680
 20
3.547280
  0
VERTEX
  8
0
  6
CONTINUOUS
 10
3.973200
 20
3.542440
  0
VERTEX
  8
0
  6
CONTINUOUS
 10
4.029080
 20
3.540680
  0
VERTEX
  8
0
  6
CONTINUOUS
 10
4.041840
 20
3.541120
  0
VERTEX
  8
0
  6
CONTINUOUS
 10
4.051080
 20
3.583360
  0
VERTEX
  8
0
  6
CONTINUOUS
 10
4.057680
 20
3.602720
  0
VERTEX
  8
0
  6
CONTINUOUS
 10
4.074400
 20
3.637040
  0
VERTEX
  8
0
  6
CONTINUOUS
 10
4.094640
 20
3.666520
  0
VERTEX
  8
0
  6
CONTINUOUS
 10
4.106080
 20
3.679280
  0
VERTEX
  8
0
  6
CONTINUOUS
 10
4.131160
 20
3.700400
  0
VERTEX
  8
0
  6
CONTINUOUS
 10
4.158000
 20
3.716240
  0
VERTEX
  8
0
  6
CONTINUOUS
 10
4.186160
 20
3.726800
  0
VERTEX
  8
0
  6
CONTINUOUS
 10
4.200680
 20
3.729880
  0
VERTEX
  8
0
  6
CONTINUOUS
 10
4.229280
 20
3.731640
  0
VERTEX
  8
0
  6
CONTINUOUS
 10
4.257880
 20
3.727680
  0
VERTEX
  8
0
  6
CONTINUOUS
 10
4.285160
 20
3.718440
  0
VERTEX
  8
0
  6
CONTINUOUS
 10
4.310240
 20
3.703040
  0
VERTEX
  8
0
  6
CONTINUOUS
 10
4.322120
 20
3.693360
  0
VERTEX
  8
0
  6
CONTINUOUS
 10
4.343240
 20
3.668720
  0
VERTEX
  8
0
  6
CONTINUOUS
 10
4.360400
 20
3.638800
  0
VERTEX
  8
0
  6
CONTINUOUS
 10
4.367440
 20
3.621200
  0
VERTEX
  8
0
  6
CONTINUOUS
 10
4.378000
 20
3.581600
  0
VERTEX
  8
0
  6
CONTINUOUS
 10
4.381080
 20
3.559600
  0
VERTEX
  8
0
  6
CONTINUOUS
 10
4.448840
 20
3.575000
  0
VERTEX
  8
0
  6
CONTINUOUS
 10
4.557960
 20
3.593480
  0
VERTEX
  8
0
  6
CONTINUOUS
 10
4.674120
 20
3.607120
  0
VERTEX
  8
0
  6
CONTINUOUS
 10
4.754200
 20
3.613280
  0
VERTEX
  8
0
  6
CONTINUOUS
 10
4.836480
 20
3.617680
  0
VERTEX
  8
0
  6
CONTINUOUS
 10
4.919640
 20
3.619880
  0
VERTEX
  8
0
  6
CONTINUOUS
 10
5.003240
 20
3.620320
  0
VERTEX
  8
0
  6
CONTINUOUS
 10
5.087280
 20
3.619000
  0
VERTEX
  8
0
  6
CONTINUOUS
 10
5.252720
 20
3.611520
  0
VERTEX
  8
0
  6
CONTINUOUS
 10
5.372840
 20
3.601400
  0
VERTEX
  8
0
  6
CONTINUOUS
 10
5.487240
 20
3.588640
  0
VERTEX
  8
0
  6
CONTINUOUS
 10
5.628480
 20
3.566640
  0
VERTEX
  8
0
  6
CONTINUOUS
 10
5.625840
 20
3.565320
  0
VERTEX
  8
0
  6
CONTINUOUS
 10
5.628920
 20
3.587320
  0
VERTEX
  8
0
  6
CONTINUOUS
 10
5.639480
 20
3.626920
  0
VERTEX
  8
0
  6
CONTINUOUS
 10
5.646520
 20
3.644520
  0
VERTEX
  8
0
  6
CONTINUOUS
 10
5.663680
 20
3.674880
  0
VERTEX
  8
0
  6
CONTINUOUS
 10
5.684800
 20
3.699080
  0
VERTEX
  8
0
  6
CONTINUOUS
 10
5.709000
 20
3.717560
  0
VERTEX
  8
0
  6
CONTINUOUS
 10
5.735400
 20
3.729880
  0
VERTEX
  8
0
  6
CONTINUOUS
 10
5.763120
 20
3.736480
  0
VERTEX
  8
0
  6
CONTINUOUS
 10
5.792160
 20
3.737360
  0
VERTEX
  8
0
  6
CONTINUOUS
 10
5.820760
 20
3.732520
  0
VERTEX
  8
0
  6
CONTINUOUS
 10
5.848920
 20
3.721960
  0
VERTEX
  8
0
  6
CONTINUOUS
 10
5.875760
 20
3.706120
  0
VERTEX
  8
0
  6
CONTINUOUS
 10
5.900840
 20
3.685000
  0
VERTEX
  8
0
  6
CONTINUOUS
 10
5.922840
 20
3.658160
  0
VERTEX
  8
0
  6
CONTINUOUS
 10
5.941320
 20
3.626040
  0
VERTEX
  8
0
  6
CONTINUOUS
 10
5.949240
 20
3.608440
  0
VERTEX
  8
0
  6
CONTINUOUS
 10
5.955840
 20
3.589080
  0
VERTEX
  8
0
  6
CONTINUOUS
 10
5.965080
 20
3.546840
  0
VERTEX
  8
0
  6
CONTINUOUS
 10
6.012600
 20
3.546840
  0
VERTEX
  8
0
  6
CONTINUOUS
 10
6.052640
 20
3.549920
  0
VERTEX
  8
0
  6
CONTINUOUS
 10
6.100600
 20
3.560480
  0
VERTEX
  8
0
  6
CONTINUOUS
 10
6.127440
 20
3.570160
  0
VERTEX
  8
0
  6
CONTINUOUS
 10
6.163520
 20
3.588200
  0
VERTEX
  8
0
  6
CONTINUOUS
 10
6.223360
 20
3.623400
  0
VERTEX
  8
0
  6
CONTINUOUS
 10
6.265600
 20
3.642320
  0
VERTEX
  8
0
  6
CONTINUOUS
 10
6.296840
 20
3.653320
  0
VERTEX
  8
0
  6
CONTINUOUS
 10
6.348760
 20
3.666080
  0
VERTEX
  8
0
  6
CONTINUOUS
 10
6.407720
 20
3.674440
  0
VERTEX
  8
0
  6
CONTINUOUS
 10
6.451280
 20
3.677960
  0
VERTEX
  8
0
  6
CONTINUOUS
 10
6.497920
 20
3.678840
  0
VERTEX
  8
0
  6
CONTINUOUS
 10
6.505840
 20
3.825360
  0
VERTEX
  8
0
  6
CONTINUOUS
 10
7.081800
 20
3.825360
  0
VERTEX
  8
0
  6
CONTINUOUS
 10
7.167600
 20
3.740000
  0
VERTEX
  8
0
  6
CONTINUOUS
 10
7.167600
 20
3.007840
  0
VERTEX
  8
0
  6
CONTINUOUS
 10
2.830520
 20
3.007840
  0
VERTEX
  8
0
  6
CONTINUOUS
 10
2.830520
 20
3.024120
  0
VERTEX
  8
0
  6
CONTINUOUS
 10
2.830520
 20
3.013560
  0
SEQEND
  8
0
  0
SOLID
  8
0
 62
    15
 10
5.503080
 20
1.613480
 11
5.504400
 21
2.364560
 12
5.670280
 22
1.609080
 13
5.671600
 23
2.360160
  0
POLYLINE
  8
0
  6
CONTINUOUS
 66
     1
 40
0.000000
 41
0.000000
  0
VERTEX
  8
0
  6
CONTINUOUS
 10
5.503080
 20
1.613480
  0
VERTEX
  8
0
  6
CONTINUOUS
 10
5.504400
 20
2.364560
  0
VERTEX
  8
0
  6
CONTINUOUS
 10
5.671600
 20
2.360160
  0
VERTEX
  8
0
  6
CONTINUOUS
 10
5.670280
 20
1.609080
  0
VERTEX
  8
0
  6
CONTINUOUS
 10
5.503080
 20
1.613480
  0
SEQEND
  8
0
  0
SOLID
  8
0
 62
    15
 10
3.413520
 20
1.817640
 11
3.414840
 21
2.568720
 12
3.992560
 22
1.817640
 13
3.993880
 23
2.568720
  0
POLYLINE
  8
0
  6
CONTINUOUS
 66
     1
 40
0.000000
 41
0.000000
  0
VERTEX
  8
0
  6
CONTINUOUS
 10
3.413520
 20
1.817640
  0
VERTEX
  8
0
  6
CONTINUOUS
 10
3.414840
 20
2.568720
  0
VERTEX
  8
0
  6
CONTINUOUS
 10
3.993880
 20
2.568720
  0
VERTEX
  8
0
  6
CONTINUOUS
 10
3.992560
 20
1.817640
  0
VERTEX
  8
0
  6
CONTINUOUS
 10
3.413520
 20
1.817640
  0
SEQEND
  8
0
  0
SOLID
  8
0
 62
    15
 10
3.992560
 20
1.817640
 11
3.993880
 21
2.568720
 12
4.008400
 22
1.666280
 13
4.009280
 23
2.417360
  0
POLYLINE
  8
0
  6
CONTINUOUS
 66
     1
 40
0.000000
 41
0.000000
  0
VERTEX
  8
0
  6
CONTINUOUS
 10
3.992560
 20
1.817640
  0
VERTEX
  8
0
  6
CONTINUOUS
 10
3.993880
 20
2.568720
  0
VERTEX
  8
0
  6
CONTINUOUS
 10
4.009280
 20
2.417360
  0
VERTEX
  8
0
  6
CONTINUOUS
 10
4.008400
 20
1.666280
  0
VERTEX
  8
0
  6
CONTINUOUS
 10
3.992560
 20
1.817640
  0
SEQEND
  8
0
  0
SOLID
  8
0
 62
    15
 10
4.008400
 20
1.666280
 11
4.009280
 21
2.417360
 12
4.055040
 22
1.665400
 13
4.056360
 23
2.416040
  0
POLYLINE
  8
0
  6
CONTINUOUS
 66
     1
 40
0.000000
 41
0.000000
  0
VERTEX
  8
0
  6
CONTINUOUS
 10
4.008400
 20
1.666280
  0
VERTEX
  8
0
  6
CONTINUOUS
 10
4.009280
 20
2.417360
  0
VERTEX
  8
0
  6
CONTINUOUS
 10
4.056360
 20
2.416040
  0
VERTEX
  8
0
  6
CONTINUOUS
 10
4.055040
 20
1.665400
  0
VERTEX
  8
0
  6
CONTINUOUS
 10
4.008400
 20
1.666280
  0
SEQEND
  8
0
  0
SOLID
  8
0
 62
    15
 10
4.055040
 20
1.665400
 11
4.056360
 21
2.416040
 12
4.098600
 22
1.661880
 13
4.099480
 23
2.412960
  0
POLYLINE
  8
0
  6
CONTINUOUS
 66
     1
 40
0.000000
 41
0.000000
  0
VERTEX
  8
0
  6
CONTINUOUS
 10
4.055040
 20
1.665400
  0
VERTEX
  8
0
  6
CONTINUOUS
 10
4.056360
 20
2.416040
  0
VERTEX
  8
0
  6
CONTINUOUS
 10
4.099480
 20
2.412960
  0
VERTEX
  8
0
  6
CONTINUOUS
 10
4.098600
 20
1.661880
  0
VERTEX
  8
0
  6
CONTINUOUS
 10
4.055040
 20
1.665400
  0
SEQEND
  8
0
  0
SOLID
  8
0
 62
    15
 10
4.098600
 20
1.661880
 11
4.099480
 21
2.412960
 12
4.175600
 22
1.649560
 13
4.176480
 23
2.400640
  0
POLYLINE
  8
0
  6
CONTINUOUS
 66
     1
 40
0.000000
 41
0.000000
  0
VERTEX
  8
0
  6
CONTINUOUS
 10
4.098600
 20
1.661880
  0
VERTEX
  8
0
  6
CONTINUOUS
 10
4.099480
 20
2.412960
  0
VERTEX
  8
0
  6
CONTINUOUS
 10
4.176480
 20
2.400640
  0
VERTEX
  8
0
  6
CONTINUOUS
 10
4.175600
 20
1.649560
  0
VERTEX
  8
0
  6
CONTINUOUS
 10
4.098600
 20
1.661880
  0
SEQEND
  8
0
  0
SOLID
  8
0
 62
    15
 10
4.175600
 20
1.649560
 11
4.176480
 21
2.400640
 12
4.240720
 22
1.629760
 13
4.242040
 23
2.380840
  0
POLYLINE
  8
0
  6
CONTINUOUS
 66
     1
 40
0.000000
 41
0.000000
  0
VERTEX
  8
0
  6
CONTINUOUS
 10
4.175600
 20
1.649560
  0
VERTEX
  8
0
  6
CONTINUOUS
 10
4.176480
 20
2.400640
  0
VERTEX
  8
0
  6
CONTINUOUS
 10
4.242040
 20
2.380840
  0
VERTEX
  8
0
  6
CONTINUOUS
 10
4.240720
 20
1.629760
  0
VERTEX
  8
0
  6
CONTINUOUS
 10
4.175600
 20
1.649560
  0
SEQEND
  8
0
  0
SOLID
  8
0
 62
    15
 10
4.240720
 20
1.629760
 11
4.242040
 21
2.380840
 12
4.295720
 22
1.603800
 13
4.297040
 23
2.354880
  0
POLYLINE
  8
0
  6
CONTINUOUS
 66
     1
 40
0.000000
 41
0.000000
  0
VERTEX
  8
0
  6
CONTINUOUS
 10
4.240720
 20
1.629760
  0
VERTEX
  8
0
  6
CONTINUOUS
 10
4.242040
 20
2.380840
  0
VERTEX
  8
0
  6
CONTINUOUS
 10
4.297040
 20
2.354880
  0
VERTEX
  8
0
  6
CONTINUOUS
 10
4.295720
 20
1.603800
  0
VERTEX
  8
0
  6
CONTINUOUS
 10
4.240720
 20
1.629760
  0
SEQEND
  8
0
  0
SOLID
  8
0
 62
    15
 10
4.295720
 20
1.603800
 11
4.297040
 21
2.354880
 12
4.308040
 22
1.596320
 13
4.309360
 23
2.347400
  0
POLYLINE
  8
0
  6
CONTINUOUS
 66
     1
 40
0.000000
 41
0.000000
  0
VERTEX
  8
0
  6
CONTINUOUS
 10
4.295720
 20
1.603800
  0
VERTEX
  8
0
  6
CONTINUOUS
 10
4.297040
 20
2.354880
  0
VERTEX
  8
0
  6
CONTINUOUS
 10
4.309360
 20
2.347400
  0
VERTEX
  8
0
  6
CONTINUOUS
 10
4.308040
 20
1.596320
  0
VERTEX
  8
0
  6
CONTINUOUS
 10
4.295720
 20
1.603800
  0
SEQEND
  8
0
  0
SOLID
  8
0
 62
    15
 10
4.308040
 20
1.596320
 11
4.309360
 21
2.347400
 12
4.331360
 22
1.582240
 13
4.332680
 23
2.333320
  0
POLYLINE
  8
0
  6
CONTINUOUS
 66
     1
 40
0.000000
 41
0.000000
  0
VERTEX
  8
0
  6
CONTINUOUS
 10
4.308040
 20
1.596320
  0
VERTEX
  8
0
  6
CONTINUOUS
 10
4.309360
 20
2.347400
  0
VERTEX
  8
0
  6
CONTINUOUS
 10
4.332680
 20
2.333320
  0
VERTEX
  8
0
  6
CONTINUOUS
 10
4.331360
 20
1.582240
  0
VERTEX
  8
0
  6
CONTINUOUS
 10
4.308040
 20
1.596320
  0
SEQEND
  8
0
  0
SOLID
  8
0
 62
    15
 10
4.331360
 20
1.582240
 11
4.332680
 21
2.333320
 12
4.342800
 22
1.575640
 13
4.344120
 23
2.326720
  0
POLYLINE
  8
0
  6
CONTINUOUS
 66
     1
 40
0.000000
 41
0.000000
  0
VERTEX
  8
0
  6
CONTINUOUS
 10
4.331360
 20
1.582240
  0
VERTEX
  8
0
  6
CONTINUOUS
 10
4.332680
 20
2.333320
  0
VERTEX
  8
0
  6
CONTINUOUS
 10
4.344120
 20
2.326720
  0
VERTEX
  8
0
  6
CONTINUOUS
 10
4.342800
 20
1.575640
  0
VERTEX
  8
0
  6
CONTINUOUS
 10
4.331360
 20
1.582240
  0
SEQEND
  8
0
  0
SOLID
  8
0
 62
    15
 10
4.342800
 20
1.575640
 11
4.344120
 21
2.326720
 12
4.391640
 22
1.552320
 13
4.392960
 23
2.303400
  0
POLYLINE
  8
0
  6
CONTINUOUS
 66
     1
 40
0.000000
 41
0.000000
  0
VERTEX
  8
0
  6
CONTINUOUS
 10
4.342800
 20
1.575640
  0
VERTEX
  8
0
  6
CONTINUOUS
 10
4.344120
 20
2.326720
  0
VERTEX
  8
0
  6
CONTINUOUS
 10
4.392960
 20
2.303400
  0
VERTEX
  8
0
  6
CONTINUOUS
 10
4.391640
 20
1.552320
  0
VERTEX
  8
0
  6
CONTINUOUS
 10
4.342800
 20
1.575640
  0
SEQEND
  8
0
  0
SOLID
  8
0
 62
    15
 10
4.391640
 20
1.552320
 11
4.392960
 21
2.303400
 12
4.420240
 22
1.543520
 13
4.421560
 23
2.294600
  0
POLYLINE
  8
0
  6
CONTINUOUS
 66
     1
 40
0.000000
 41
0.000000
  0
VERTEX
  8
0
  6
CONTINUOUS
 10
4.391640
 20
1.552320
  0
VERTEX
  8
0
  6
CONTINUOUS
 10
4.392960
 20
2.303400
  0
VERTEX
  8
0
  6
CONTINUOUS
 10
4.421560
 20
2.294600
  0
VERTEX
  8
0
  6
CONTINUOUS
 10
4.420240
 20
1.543520
  0
VERTEX
  8
0
  6
CONTINUOUS
 10
4.391640
 20
1.552320
  0
SEQEND
  8
0
  0
SOLID
  8
0
 62
    15
 10
4.420240
 20
1.543520
 11
4.421560
 21
2.294600
 12
4.453680
 22
1.537360
 13
4.455000
 23
2.288440
  0
POLYLINE
  8
0
  6
CONTINUOUS
 66
     1
 40
0.000000
 41
0.000000
  0
VERTEX
  8
0
  6
CONTINUOUS
 10
4.420240
 20
1.543520
  0
VERTEX
  8
0
  6
CONTINUOUS
 10
4.421560
 20
2.294600
  0
VERTEX
  8
0
  6
CONTINUOUS
 10
4.455000
 20
2.288440
  0
VERTEX
  8
0
  6
CONTINUOUS
 10
4.453680
 20
1.537360
  0
VERTEX
  8
0
  6
CONTINUOUS
 10
4.420240
 20
1.543520
  0
SEQEND
  8
0
  0
SOLID
  8
0
 62
    15
 10
4.453680
 20
1.537360
 11
4.455000
 21
2.288440
 12
4.493720
 22
1.534280
 13
4.495040
 23
2.284920
  0
POLYLINE
  8
0
  6
CONTINUOUS
 66
     1
 40
0.000000
 41
0.000000
  0
VERTEX
  8
0
  6
CONTINUOUS
 10
4.453680
 20
1.537360
  0
VERTEX
  8
0
  6
CONTINUOUS
 10
4.455000
 20
2.288440
  0
VERTEX
  8
0
  6
CONTINUOUS
 10
4.495040
 20
2.284920
  0
VERTEX
  8
0
  6
CONTINUOUS
 10
4.493720
 20
1.534280
  0
VERTEX
  8
0
  6
CONTINUOUS
 10
4.453680
 20
1.537360
  0
SEQEND
  8
0
  0
SOLID
  8
0
 62
    15
 10
4.493720
 20
1.534280
 11
4.495040
 21
2.284920
 12
4.541240
 22
1.534280
 13
4.542560
 23
2.285360
  0
POLYLINE
  8
0
  6
CONTINUOUS
 66
     1
 40
0.000000
 41
0.000000
  0
VERTEX
  8
0
  6
CONTINUOUS
 10
4.493720
 20
1.534280
  0
VERTEX
  8
0
  6
CONTINUOUS
 10
4.495040
 20
2.284920
  0
VERTEX
  8
0
  6
CONTINUOUS
 10
4.542560
 20
2.285360
  0
VERTEX
  8
0
  6
CONTINUOUS
 10
4.541240
 20
1.534280
  0
VERTEX
  8
0
  6
CONTINUOUS
 10
4.493720
 20
1.534280
  0
SEQEND
  8
0
  0
SOLID
  8
0
 62
    15
 10
4.541240
 20
1.534280
 11
4.542560
 21
2.285360
 12
4.550920
 22
1.576520
 13
4.551800
 23
2.327600
  0
POLYLINE
  8
0
  6
CONTINUOUS
 66
     1
 40
0.000000
 41
0.000000
  0
VERTEX
  8
0
  6
CONTINUOUS
 10
4.541240
 20
1.534280
  0
VERTEX
  8
0
  6
CONTINUOUS
 10
4.542560
 20
2.285360
  0
VERTEX
  8
0
  6
CONTINUOUS
 10
4.551800
 20
2.327600
  0
VERTEX
  8
0
  6
CONTINUOUS
 10
4.550920
 20
1.576520
  0
VERTEX
  8
0
  6
CONTINUOUS
 10
4.541240
 20
1.534280
  0
SEQEND
  8
0
  0
SOLID
  8
0
 62
    15
 10
4.550920
 20
1.576520
 11
4.551800
 21
2.327600
 12
4.565000
 22
1.613480
 13
4.566320
 23
2.364560
  0
POLYLINE
  8
0
  6
CONTINUOUS
 66
     1
 40
0.000000
 41
0.000000
  0
VERTEX
  8
0
  6
CONTINUOUS
 10
4.550920
 20
1.576520
  0
VERTEX
  8
0
  6
CONTINUOUS
 10
4.551800
 20
2.327600
  0
VERTEX
  8
0
  6
CONTINUOUS
 10
4.566320
 20
2.364560
  0
VERTEX
  8
0
  6
CONTINUOUS
 10
4.565000
 20
1.613480
  0
VERTEX
  8
0
  6
CONTINUOUS
 10
4.550920
 20
1.576520
  0
SEQEND
  8
0
  0
SOLID
  8
0
 62
    15
 10
4.565000
 20
1.613480
 11
4.566320
 21
2.364560
 12
4.583480
 22
1.645600
 13
4.584800
 23
2.396680
  0
POLYLINE
  8
0
  6
CONTINUOUS
 66
     1
 40
0.000000
 41
0.000000
  0
VERTEX
  8
0
  6
CONTINUOUS
 10
4.565000
 20
1.613480
  0
VERTEX
  8
0
  6
CONTINUOUS
 10
4.566320
 20
2.364560
  0
VERTEX
  8
0
  6
CONTINUOUS
 10
4.584800
 20
2.396680
  0
VERTEX
  8
0
  6
CONTINUOUS
 10
4.583480
 20
1.645600
  0
VERTEX
  8
0
  6
CONTINUOUS
 10
4.565000
 20
1.613480
  0
SEQEND
  8
0
  0
SOLID
  8
0
 62
    15
 10
4.583480
 20
1.645600
 11
4.584800
 21
2.396680
 12
4.605920
 22
1.672000
 13
4.606800
 23
2.423080
  0
POLYLINE
  8
0
  6
CONTINUOUS
 66
     1
 40
0.000000
 41
0.000000
  0
VERTEX
  8
0
  6
CONTINUOUS
 10
4.583480
 20
1.645600
  0
VERTEX
  8
0
  6
CONTINUOUS
 10
4.584800
 20
2.396680
  0
VERTEX
  8
0
  6
CONTINUOUS
 10
4.606800
 20
2.423080
  0
VERTEX
  8
0
  6
CONTINUOUS
 10
4.605920
 20
1.672000
  0
VERTEX
  8
0
  6
CONTINUOUS
 10
4.583480
 20
1.645600
  0
SEQEND
  8
0
  0
SOLID
  8
0
 62
    15
 10
4.605920
 20
1.672000
 11
4.606800
 21
2.423080
 12
4.630560
 22
1.693560
 13
4.631880
 23
2.444200
  0
POLYLINE
  8
0
  6
CONTINUOUS
 66
     1
 40
0.000000
 41
0.000000
  0
VERTEX
  8
0
  6
CONTINUOUS
 10
4.605920
 20
1.672000
  0
VERTEX
  8
0
  6
CONTINUOUS
 10
4.606800
 20
2.423080
  0
VERTEX
  8
0
  6
CONTINUOUS
 10
4.631880
 20
2.444200
  0
VERTEX
  8
0
  6
CONTINUOUS
 10
4.630560
 20
1.693560
  0
VERTEX
  8
0
  6
CONTINUOUS
 10
4.605920
 20
1.672000
  0
SEQEND
  8
0
  0
SOLID
  8
0
 62
    15
 10
4.630560
 20
1.693560
 11
4.631880
 21
2.444200
 12
4.657400
 22
1.709400
 13
4.658720
 23
2.460040
  0
POLYLINE
  8
0
  6
CONTINUOUS
 66
     1
 40
0.000000
 41
0.000000
  0
VERTEX
  8
0
  6
CONTINUOUS
 10
4.630560
 20
1.693560
  0
VERTEX
  8
0
  6
CONTINUOUS
 10
4.631880
 20
2.444200
  0
VERTEX
  8
0
  6
CONTINUOUS
 10
4.658720
 20
2.460040
  0
VERTEX
  8
0
  6
CONTINUOUS
 10
4.657400
 20
1.709400
  0
VERTEX
  8
0
  6
CONTINUOUS
 10
4.630560
 20
1.693560
  0
SEQEND
  8
0
  0
SOLID
  8
0
 62
    15
 10
4.657400
 20
1.709400
 11
4.658720
 21
2.460040
 12
4.685560
 22
1.719520
 13
4.686880
 23
2.470600
  0
POLYLINE
  8
0
  6
CONTINUOUS
 66
     1
 40
0.000000
 41
0.000000
  0
VERTEX
  8
0
  6
CONTINUOUS
 10
4.657400
 20
1.709400
  0
VERTEX
  8
0
  6
CONTINUOUS
 10
4.658720
 20
2.460040
  0
VERTEX
  8
0
  6
CONTINUOUS
 10
4.686880
 20
2.470600
  0
VERTEX
  8
0
  6
CONTINUOUS
 10
4.685560
 20
1.719520
  0
VERTEX
  8
0
  6
CONTINUOUS
 10
4.657400
 20
1.709400
  0
SEQEND
  8
0
  0
SOLID
  8
0
 62
    15
 10
4.685560
 20
1.719520
 11
4.686880
 21
2.470600
 12
4.714600
 22
1.724360
 13
4.715480
 23
2.475440
  0
POLYLINE
  8
0
  6
CONTINUOUS
 66
     1
 40
0.000000
 41
0.000000
  0
VERTEX
  8
0
  6
CONTINUOUS
 10
4.685560
 20
1.719520
  0
VERTEX
  8
0
  6
CONTINUOUS
 10
4.686880
 20
2.470600
  0
VERTEX
  8
0
  6
CONTINUOUS
 10
4.715480
 20
2.475440
  0
VERTEX
  8
0
  6
CONTINUOUS
 10
4.714600
 20
1.724360
  0
VERTEX
  8
0
  6
CONTINUOUS
 10
4.685560
 20
1.719520
  0
SEQEND
  8
0
  0
SOLID
  8
0
 62
    15
 10
4.714600
 20
1.724360
 11
4.715480
 21
2.475440
 12
4.743200
 22
1.723480
 13
4.744520
 23
2.474560
  0
POLYLINE
  8
0
  6
CONTINUOUS
 66
     1
 40
0.000000
 41
0.000000
  0
VERTEX
  8
0
  6
CONTINUOUS
 10
4.714600
 20
1.724360
  0
VERTEX
  8
0
  6
CONTINUOUS
 10
4.715480
 20
2.475440
  0
VERTEX
  8
0
  6
CONTINUOUS
 10
4.744520
 20
2.474560
  0
VERTEX
  8
0
  6
CONTINUOUS
 10
4.743200
 20
1.723480
  0
VERTEX
  8
0
  6
CONTINUOUS
 10
4.714600
 20
1.724360
  0
SEQEND
  8
0
  0
SOLID
  8
0
 62
    15
 10
4.743200
 20
1.723480
 11
4.744520
 21
2.474560
 12
4.770920
 22
1.716880
 13
4.772240
 23
2.467960
  0
POLYLINE
  8
0
  6
CONTINUOUS
 66
     1
 40
0.000000
 41
0.000000
  0
VERTEX
  8
0
  6
CONTINUOUS
 10
4.743200
 20
1.723480
  0
VERTEX
  8
0
  6
CONTINUOUS
 10
4.744520
 20
2.474560
  0
VERTEX
  8
0
  6
CONTINUOUS
 10
4.772240
 20
2.467960
  0
VERTEX
  8
0
  6
CONTINUOUS
 10
4.770920
 20
1.716880
  0
VERTEX
  8
0
  6
CONTINUOUS
 10
4.743200
 20
1.723480
  0
SEQEND
  8
0
  0
SOLID
  8
0
 62
    15
 10
4.770920
 20
1.716880
 11
4.772240
 21
2.467960
 12
4.797320
 22
1.704560
 13
4.798640
 23
2.455640
  0
POLYLINE
  8
0
  6
CONTINUOUS
 66
     1
 40
0.000000
 41
0.000000
  0
VERTEX
  8
0
  6
CONTINUOUS
 10
4.770920
 20
1.716880
  0
VERTEX
  8
0
  6
CONTINUOUS
 10
4.772240
 20
2.467960
  0
VERTEX
  8
0
  6
CONTINUOUS
 10
4.798640
 20
2.455640
  0
VERTEX
  8
0
  6
CONTINUOUS
 10
4.797320
 20
1.704560
  0
VERTEX
  8
0
  6
CONTINUOUS
 10
4.770920
 20
1.716880
  0
SEQEND
  8
0
  0
SOLID
  8
0
 62
    15
 10
4.797320
 20
1.704560
 11
4.798640
 21
2.455640
 12
4.821520
 22
1.686080
 13
4.822840
 23
2.437160
  0
POLYLINE
  8
0
  6
CONTINUOUS
 66
     1
 40
0.000000
 41
0.000000
  0
VERTEX
  8
0
  6
CONTINUOUS
 10
4.797320
 20
1.704560
  0
VERTEX
  8
0
  6
CONTINUOUS
 10
4.798640
 20
2.455640
  0
VERTEX
  8
0
  6
CONTINUOUS
 10
4.822840
 20
2.437160
  0
VERTEX
  8
0
  6
CONTINUOUS
 10
4.821520
 20
1.686080
  0
VERTEX
  8
0
  6
CONTINUOUS
 10
4.797320
 20
1.704560
  0
SEQEND
  8
0
  0
SOLID
  8
0
 62
    15
 10
4.821520
 20
1.686080
 11
4.822840
 21
2.437160
 12
4.842640
 22
1.661880
 13
4.843960
 23
2.412960
  0
POLYLINE
  8
0
  6
CONTINUOUS
 66
     1
 40
0.000000
 41
0.000000
  0
VERTEX
  8
0
  6
CONTINUOUS
 10
4.821520
 20
1.686080
  0
VERTEX
  8
0
  6
CONTINUOUS
 10
4.822840
 20
2.437160
  0
VERTEX
  8
0
  6
CONTINUOUS
 10
4.843960
 20
2.412960
  0
VERTEX
  8
0
  6
CONTINUOUS
 10
4.842640
 20
1.661880
  0
VERTEX
  8
0
  6
CONTINUOUS
 10
4.821520
 20
1.686080
  0
SEQEND
  8
0
  0
SOLID
  8
0
 62
    15
 10
4.842640
 20
1.661880
 11
4.843960
 21
2.412960
 12
4.859800
 22
1.631960
 13
4.861120
 23
2.382600
  0
POLYLINE
  8
0
  6
CONTINUOUS
 66
     1
 40
0.000000
 41
0.000000
  0
VERTEX
  8
0
  6
CONTINUOUS
 10
4.842640
 20
1.661880
  0
VERTEX
  8
0
  6
CONTINUOUS
 10
4.843960
 20
2.412960
  0
VERTEX
  8
0
  6
CONTINUOUS
 10
4.861120
 20
2.382600
  0
VERTEX
  8
0
  6
CONTINUOUS
 10
4.859800
 20
1.631960
  0
VERTEX
  8
0
  6
CONTINUOUS
 10
4.842640
 20
1.661880
  0
SEQEND
  8
0
  0
SOLID
  8
0
 62
    15
 10
4.859800
 20
1.631960
 11
4.861120
 21
2.382600
 12
4.873000
 22
1.595440
 13
4.873880
 23
2.346520
  0
POLYLINE
  8
0
  6
CONTINUOUS
 66
     1
 40
0.000000
 41
0.000000
  0
VERTEX
  8
0
  6
CONTINUOUS
 10
4.859800
 20
1.631960
  0
VERTEX
  8
0
  6
CONTINUOUS
 10
4.861120
 20
2.382600
  0
VERTEX
  8
0
  6
CONTINUOUS
 10
4.873880
 20
2.346520
  0
VERTEX
  8
0
  6
CONTINUOUS
 10
4.873000
 20
1.595440
  0
VERTEX
  8
0
  6
CONTINUOUS
 10
4.859800
 20
1.631960
  0
SEQEND
  8
0
  0
SOLID
  8
0
 62
    15
 10
4.873000
 20
1.595440
 11
4.873880
 21
2.346520
 12
4.880480
 22
1.552760
 13
4.881800
 23
2.303840
  0
POLYLINE
  8
0
  6
CONTINUOUS
 66
     1
 40
0.000000
 41
0.000000
  0
VERTEX
  8
0
  6
CONTINUOUS
 10
4.873000
 20
1.595440
  0
VERTEX
  8
0
  6
CONTINUOUS
 10
4.873880
 20
2.346520
  0
VERTEX
  8
0
  6
CONTINUOUS
 10
4.881800
 20
2.303840
  0
VERTEX
  8
0
  6
CONTINUOUS
 10
4.880480
 20
1.552760
  0
VERTEX
  8
0
  6
CONTINUOUS
 10
4.873000
 20
1.595440
  0
SEQEND
  8
0
  0
SOLID
  8
0
 62
    15
 10
4.880480
 20
1.552760
 11
4.881800
 21
2.303840
 12
4.948680
 22
1.568160
 13
4.949560
 23
2.319240
  0
POLYLINE
  8
0
  6
CONTINUOUS
 66
     1
 40
0.000000
 41
0.000000
  0
VERTEX
  8
0
  6
CONTINUOUS
 10
4.880480
 20
1.552760
  0
VERTEX
  8
0
  6
CONTINUOUS
 10
4.881800
 20
2.303840
  0
VERTEX
  8
0
  6
CONTINUOUS
 10
4.949560
 20
2.319240
  0
VERTEX
  8
0
  6
CONTINUOUS
 10
4.948680
 20
1.568160
  0
VERTEX
  8
0
  6
CONTINUOUS
 10
4.880480
 20
1.552760
  0
SEQEND
  8
0
  0
SOLID
  8
0
 62
    15
 10
4.948680
 20
1.568160
 11
4.949560
 21
2.319240
 12
5.020400
 22
1.580920
 13
5.021720
 23
2.332000
  0
POLYLINE
  8
0
  6
CONTINUOUS
 66
     1
 40
0.000000
 41
0.000000
  0
VERTEX
  8
0
  6
CONTINUOUS
 10
4.948680
 20
1.568160
  0
VERTEX
  8
0
  6
CONTINUOUS
 10
4.949560
 20
2.319240
  0
VERTEX
  8
0
  6
CONTINUOUS
 10
5.021720
 20
2.332000
  0
VERTEX
  8
0
  6
CONTINUOUS
 10
5.020400
 20
1.580920
  0
VERTEX
  8
0
  6
CONTINUOUS
 10
4.948680
 20
1.568160
  0
SEQEND
  8
0
  0
SOLID
  8
0
 62
    15
 10
5.020400
 20
1.580920
 11
5.021720
 21
2.332000
 12
5.173960
 22
1.600280
 13
5.174840
 23
2.350920
  0
POLYLINE
  8
0
  6
CONTINUOUS
 66
     1
 40
0.000000
 41
0.000000
  0
VERTEX
  8
0
  6
CONTINUOUS
 10
5.020400
 20
1.580920
  0
VERTEX
  8
0
  6
CONTINUOUS
 10
5.021720
 20
2.332000
  0
VERTEX
  8
0
  6
CONTINUOUS
 10
5.174840
 20
2.350920
  0
VERTEX
  8
0
  6
CONTINUOUS
 10
5.173960
 20
1.600280
  0
VERTEX
  8
0
  6
CONTINUOUS
 10
5.020400
 20
1.580920
  0
SEQEND
  8
0
  0
SOLID
  8
0
 62
    15
 10
5.173960
 20
1.600280
 11
5.174840
 21
2.350920
 12
5.336320
 22
1.610840
 13
5.337200
 23
2.361920
  0
POLYLINE
  8
0
  6
CONTINUOUS
 66
     1
 40
0.000000
 41
0.000000
  0
VERTEX
  8
0
  6
CONTINUOUS
 10
5.173960
 20
1.600280
  0
VERTEX
  8
0
  6
CONTINUOUS
 10
5.174840
 20
2.350920
  0
VERTEX
  8
0
  6
CONTINUOUS
 10
5.337200
 20
2.361920
  0
VERTEX
  8
0
  6
CONTINUOUS
 10
5.336320
 20
1.610840
  0
VERTEX
  8
0
  6
CONTINUOUS
 10
5.173960
 20
1.600280
  0
SEQEND
  8
0
  0
SOLID
  8
0
 62
    15
 10
5.336320
 20
1.610840
 11
5.337200
 21
2.361920
 12
5.503080
 22
1.613480
 13
5.504400
 23
2.364560
  0
POLYLINE
  8
0
  6
CONTINUOUS
 66
     1
 40
0.000000
 41
0.000000
  0
VERTEX
  8
0
  6
CONTINUOUS
 10
5.336320
 20
1.610840
  0
VERTEX
  8
0
  6
CONTINUOUS
 10
5.337200
 20
2.361920
  0
VERTEX
  8
0
  6
CONTINUOUS
 10
5.504400
 20
2.364560
  0
VERTEX
  8
0
  6
CONTINUOUS
 10
5.503080
 20
1.613480
  0
VERTEX
  8
0
  6
CONTINUOUS
 10
5.336320
 20
1.610840
  0
SEQEND
  8
0
  0
SOLID
  8
0
 62
    15
 10
3.329920
 20
1.734480
 11
3.331240
 21
2.485560
 12
3.413520
 22
1.817640
 13
3.414840
 23
2.568720
  0
POLYLINE
  8
0
  6
CONTINUOUS
 66
     1
 40
0.000000
 41
0.000000
  0
VERTEX
  8
0
  6
CONTINUOUS
 10
3.329920
 20
1.734480
  0
VERTEX
  8
0
  6
CONTINUOUS
 10
3.331240
 20
2.485560
  0
VERTEX
  8
0
  6
CONTINUOUS
 10
3.414840
 20
2.568720
  0
VERTEX
  8
0
  6
CONTINUOUS
 10
3.413520
 20
1.817640
  0
VERTEX
  8
0
  6
CONTINUOUS
 10
3.329920
 20
1.734480
  0
SEQEND
  8
0
  0
SOLID
  8
0
 62
    15
 10
5.670280
 20
1.609080
 11
5.671600
 21
2.360160
 12
5.833080
 22
1.598520
 13
5.834400
 23
2.349160
  0
POLYLINE
  8
0
  6
CONTINUOUS
 66
     1
 40
0.000000
 41
0.000000
  0
VERTEX
  8
0
  6
CONTINUOUS
 10
5.670280
 20
1.609080
  0
VERTEX
  8
0
  6
CONTINUOUS
 10
5.671600
 20
2.360160
  0
VERTEX
  8
0
  6
CONTINUOUS
 10
5.834400
 20
2.349160
  0
VERTEX
  8
0
  6
CONTINUOUS
 10
5.833080
 20
1.598520
  0
VERTEX
  8
0
  6
CONTINUOUS
 10
5.670280
 20
1.609080
  0
SEQEND
  8
0
  0
SOLID
  8
0
 62
    15
 10
5.833080
 20
1.598520
 11
5.834400
 21
2.349160
 12
5.987520
 22
1.581800
 13
5.988400
 23
2.332440
  0
POLYLINE
  8
0
  6
CONTINUOUS
 66
     1
 40
0.000000
 41
0.000000
  0
VERTEX
  8
0
  6
CONTINUOUS
 10
5.833080
 20
1.598520
  0
VERTEX
  8
0
  6
CONTINUOUS
 10
5.834400
 20
2.349160
  0
VERTEX
  8
0
  6
CONTINUOUS
 10
5.988400
 20
2.332440
  0
VERTEX
  8
0
  6
CONTINUOUS
 10
5.987520
 20
1.581800
  0
VERTEX
  8
0
  6
CONTINUOUS
 10
5.833080
 20
1.598520
  0
SEQEND
  8
0
  0
SOLID
  8
0
 62
    15
 10
5.987520
 20
1.581800
 11
5.988400
 21
2.332440
 12
6.059680
 22
1.571240
 13
6.061000
 23
2.322320
  0
POLYLINE
  8
0
  6
CONTINUOUS
 66
     1
 40
0.000000
 41
0.000000
  0
VERTEX
  8
0
  6
CONTINUOUS
 10
5.987520
 20
1.581800
  0
VERTEX
  8
0
  6
CONTINUOUS
 10
5.988400
 20
2.332440
  0
VERTEX
  8
0
  6
CONTINUOUS
 10
6.061000
 20
2.322320
  0
VERTEX
  8
0
  6
CONTINUOUS
 10
6.059680
 20
1.571240
  0
VERTEX
  8
0
  6
CONTINUOUS
 10
5.987520
 20
1.581800
  0
SEQEND
  8
0
  0
SOLID
  8
0
 62
    15
 10
6.127000
 20
2.311320
 11
6.129640
 21
2.310880
 12
6.125680
 22
1.560240
 13
6.128320
 23
1.559800
  0
POLYLINE
  8
0
  6
CONTINUOUS
 66
     1
 40
0.000000
 41
0.000000
  0
VERTEX
  8
0
  6
CONTINUOUS
 10
6.127000
 20
2.311320
  0
VERTEX
  8
0
  6
CONTINUOUS
 10
6.129640
 20
2.310880
  0
VERTEX
  8
0
  6
CONTINUOUS
 10
6.128320
 20
1.559800
  0
VERTEX
  8
0
  6
CONTINUOUS
 10
6.125680
 20
1.560240
  0
VERTEX
  8
0
  6
CONTINUOUS
 10
6.127000
 20
2.311320
  0
SEQEND
  8
0
  0
SOLID
  8
0
 62
    15
 10
6.125240
 20
1.558480
 11
6.126560
 21
2.309560
 12
6.133160
 22
1.601160
 13
6.134480
 23
2.352240
  0
POLYLINE
  8
0
  6
CONTINUOUS
 66
     1
 40
0.000000
 41
0.000000
  0
VERTEX
  8
0
  6
CONTINUOUS
 10
6.125240
 20
1.558480
  0
VERTEX
  8
0
  6
CONTINUOUS
 10
6.126560
 20
2.309560
  0
VERTEX
  8
0
  6
CONTINUOUS
 10
6.134480
 20
2.352240
  0
VERTEX
  8
0
  6
CONTINUOUS
 10
6.133160
 20
1.601160
  0
VERTEX
  8
0
  6
CONTINUOUS
 10
6.125240
 20
1.558480
  0
SEQEND
  8
0
  0
SOLID
  8
0
 62
    15
 10
6.059680
 20
1.571240
 11
6.061000
 21
2.322320
 12
6.125680
 22
1.560240
 13
6.127000
 23
2.311320
  0
POLYLINE
  8
0
  6
CONTINUOUS
 66
     1
 40
0.000000
 41
0.000000
  0
VERTEX
  8
0
  6
CONTINUOUS
 10
6.059680
 20
1.571240
  0
VERTEX
  8
0
  6
CONTINUOUS
 10
6.061000
 20
2.322320
  0
VERTEX
  8
0
  6
CONTINUOUS
 10
6.127000
 20
2.311320
  0
VERTEX
  8
0
  6
CONTINUOUS
 10
6.125680
 20
1.560240
  0
VERTEX
  8
0
  6
CONTINUOUS
 10
6.059680
 20
1.571240
  0
SEQEND
  8
0
  0
SOLID
  8
0
 62
    15
 10
6.133160
 20
1.601160
 11
6.134480
 21
2.352240
 12
6.145920
 22
1.637680
 13
6.147240
 23
2.388320
  0
POLYLINE
  8
0
  6
CONTINUOUS
 66
     1
 40
0.000000
 41
0.000000
  0
VERTEX
  8
0
  6
CONTINUOUS
 10
6.133160
 20
1.601160
  0
VERTEX
  8
0
  6
CONTINUOUS
 10
6.134480
 20
2.352240
  0
VERTEX
  8
0
  6
CONTINUOUS
 10
6.147240
 20
2.388320
  0
VERTEX
  8
0
  6
CONTINUOUS
 10
6.145920
 20
1.637680
  0
VERTEX
  8
0
  6
CONTINUOUS
 10
6.133160
 20
1.601160
  0
SEQEND
  8
0
  0
SOLID
  8
0
 62
    15
 10
6.145920
 20
1.637680
 11
6.147240
 21
2.388320
 12
6.163520
 22
1.667600
 13
6.164400
 23
2.418680
  0
POLYLINE
  8
0
  6
CONTINUOUS
 66
     1
 40
0.000000
 41
0.000000
  0
VERTEX
  8
0
  6
CONTINUOUS
 10
6.145920
 20
1.637680
  0
VERTEX
  8
0
  6
CONTINUOUS
 10
6.147240
 20
2.388320
  0
VERTEX
  8
0
  6
CONTINUOUS
 10
6.164400
 20
2.418680
  0
VERTEX
  8
0
  6
CONTINUOUS
 10
6.163520
 20
1.667600
  0
VERTEX
  8
0
  6
CONTINUOUS
 10
6.145920
 20
1.637680
  0
SEQEND
  8
0
  0
SOLID
  8
0
 62
    15
 10
6.163520
 20
1.667600
 11
6.164400
 21
2.418680
 12
6.184640
 22
1.692240
 13
6.185520
 23
2.442880
  0
POLYLINE
  8
0
  6
CONTINUOUS
 66
     1
 40
0.000000
 41
0.000000
  0
VERTEX
  8
0
  6
CONTINUOUS
 10
6.163520
 20
1.667600
  0
VERTEX
  8
0
  6
CONTINUOUS
 10
6.164400
 20
2.418680
  0
VERTEX
  8
0
  6
CONTINUOUS
 10
6.185520
 20
2.442880
  0
VERTEX
  8
0
  6
CONTINUOUS
 10
6.184640
 20
1.692240
  0
VERTEX
  8
0
  6
CONTINUOUS
 10
6.163520
 20
1.667600
  0
SEQEND
  8
0
  0
SOLID
  8
0
 62
    15
 10
6.184640
 20
1.692240
 11
6.185520
 21
2.442880
 12
6.208840
 22
1.710280
 13
6.209720
 23
2.461360
  0
POLYLINE
  8
0
  6
CONTINUOUS
 66
     1
 40
0.000000
 41
0.000000
  0
VERTEX
  8
0
  6
CONTINUOUS
 10
6.184640
 20
1.692240
  0
VERTEX
  8
0
  6
CONTINUOUS
 10
6.185520
 20
2.442880
  0
VERTEX
  8
0
  6
CONTINUOUS
 10
6.209720
 20
2.461360
  0
VERTEX
  8
0
  6
CONTINUOUS
 10
6.208840
 20
1.710280
  0
VERTEX
  8
0
  6
CONTINUOUS
 10
6.184640
 20
1.692240
  0
SEQEND
  8
0
  0
SOLID
  8
0
 62
    15
 10
6.208840
 20
1.710280
 11
6.209720
 21
2.461360
 12
6.234800
 22
1.722600
 13
6.236120
 23
2.473680
  0
POLYLINE
  8
0
  6
CONTINUOUS
 66
     1
 40
0.000000
 41
0.000000
  0
VERTEX
  8
0
  6
CONTINUOUS
 10
6.208840
 20
1.710280
  0
VERTEX
  8
0
  6
CONTINUOUS
 10
6.209720
 20
2.461360
  0
VERTEX
  8
0
  6
CONTINUOUS
 10
6.236120
 20
2.473680
  0
VERTEX
  8
0
  6
CONTINUOUS
 10
6.234800
 20
1.722600
  0
VERTEX
  8
0
  6
CONTINUOUS
 10
6.208840
 20
1.710280
  0
SEQEND
  8
0
  0
SOLID
  8
0
 62
    15
 10
6.234800
 20
1.722600
 11
6.236120
 21
2.473680
 12
6.262960
 22
1.729200
 13
6.263840
 23
2.480280
  0
POLYLINE
  8
0
  6
CONTINUOUS
 66
     1
 40
0.000000
 41
0.000000
  0
VERTEX
  8
0
  6
CONTINUOUS
 10
6.234800
 20
1.722600
  0
VERTEX
  8
0
  6
CONTINUOUS
 10
6.236120
 20
2.473680
  0
VERTEX
  8
0
  6
CONTINUOUS
 10
6.263840
 20
2.480280
  0
VERTEX
  8
0
  6
CONTINUOUS
 10
6.262960
 20
1.729200
  0
VERTEX
  8
0
  6
CONTINUOUS
 10
6.234800
 20
1.722600
  0
SEQEND
  8
0
  0
SOLID
  8
0
 62
    15
 10
6.262960
 20
1.729200
 11
6.263840
 21
2.480280
 12
6.291560
 22
1.730080
 13
6.292880
 23
2.481160
  0
POLYLINE
  8
0
  6
CONTINUOUS
 66
     1
 40
0.000000
 41
0.000000
  0
VERTEX
  8
0
  6
CONTINUOUS
 10
6.262960
 20
1.729200
  0
VERTEX
  8
0
  6
CONTINUOUS
 10
6.263840
 20
2.480280
  0
VERTEX
  8
0
  6
CONTINUOUS
 10
6.292880
 20
2.481160
  0
VERTEX
  8
0
  6
CONTINUOUS
 10
6.291560
 20
1.730080
  0
VERTEX
  8
0
  6
CONTINUOUS
 10
6.262960
 20
1.729200
  0
SEQEND
  8
0
  0
SOLID
  8
0
 62
    15
 10
6.291560
 20
1.730080
 11
6.292880
 21
2.481160
 12
6.320600
 22
1.725240
 13
6.321480
 23
2.476320
  0
POLYLINE
  8
0
  6
CONTINUOUS
 66
     1
 40
0.000000
 41
0.000000
  0
VERTEX
  8
0
  6
CONTINUOUS
 10
6.291560
 20
1.730080
  0
VERTEX
  8
0
  6
CONTINUOUS
 10
6.292880
 20
2.481160
  0
VERTEX
  8
0
  6
CONTINUOUS
 10
6.321480
 20
2.476320
  0
VERTEX
  8
0
  6
CONTINUOUS
 10
6.320600
 20
1.725240
  0
VERTEX
  8
0
  6
CONTINUOUS
 10
6.291560
 20
1.730080
  0
SEQEND
  8
0
  0
SOLID
  8
0
 62
    15
 10
6.320600
 20
1.725240
 11
6.321480
 21
2.476320
 12
6.348760
 22
1.715120
 13
6.349640
 23
2.466200
  0
POLYLINE
  8
0
  6
CONTINUOUS
 66
     1
 40
0.000000
 41
0.000000
  0
VERTEX
  8
0
  6
CONTINUOUS
 10
6.320600
 20
1.725240
  0
VERTEX
  8
0
  6
CONTINUOUS
 10
6.321480
 20
2.476320
  0
VERTEX
  8
0
  6
CONTINUOUS
 10
6.349640
 20
2.466200
  0
VERTEX
  8
0
  6
CONTINUOUS
 10
6.348760
 20
1.715120
  0
VERTEX
  8
0
  6
CONTINUOUS
 10
6.320600
 20
1.725240
  0
SEQEND
  8
0
  0
SOLID
  8
0
 62
    15
 10
6.348760
 20
1.715120
 11
6.349640
 21
2.466200
 12
6.375600
 22
1.699280
 13
6.376480
 23
2.450360
  0
POLYLINE
  8
0
  6
CONTINUOUS
 66
     1
 40
0.000000
 41
0.000000
  0
VERTEX
  8
0
  6
CONTINUOUS
 10
6.348760
 20
1.715120
  0
VERTEX
  8
0
  6
CONTINUOUS
 10
6.349640
 20
2.466200
  0
VERTEX
  8
0
  6
CONTINUOUS
 10
6.376480
 20
2.450360
  0
VERTEX
  8
0
  6
CONTINUOUS
 10
6.375600
 20
1.699280
  0
VERTEX
  8
0
  6
CONTINUOUS
 10
6.348760
 20
1.715120
  0
SEQEND
  8
0
  0
SOLID
  8
0
 62
    15
 10
6.375600
 20
1.699280
 11
6.376480
 21
2.450360
 12
6.400240
 22
1.677720
 13
6.401560
 23
2.428800
  0
POLYLINE
  8
0
  6
CONTINUOUS
 66
     1
 40
0.000000
 41
0.000000
  0
VERTEX
  8
0
  6
CONTINUOUS
 10
6.375600
 20
1.699280
  0
VERTEX
  8
0
  6
CONTINUOUS
 10
6.376480
 20
2.450360
  0
VERTEX
  8
0
  6
CONTINUOUS
 10
6.401560
 20
2.428800
  0
VERTEX
  8
0
  6
CONTINUOUS
 10
6.400240
 20
1.677720
  0
VERTEX
  8
0
  6
CONTINUOUS
 10
6.375600
 20
1.699280
  0
SEQEND
  8
0
  0
SOLID
  8
0
 62
    15
 10
6.400240
 20
1.677720
 11
6.401560
 21
2.428800
 12
6.422240
 22
1.651320
 13
6.423560
 23
2.402400
  0
POLYLINE
  8
0
  6
CONTINUOUS
 66
     1
 40
0.000000
 41
0.000000
  0
VERTEX
  8
0
  6
CONTINUOUS
 10
6.400240
 20
1.677720
  0
VERTEX
  8
0
  6
CONTINUOUS
 10
6.401560
 20
2.428800
  0
VERTEX
  8
0
  6
CONTINUOUS
 10
6.423560
 20
2.402400
  0
VERTEX
  8
0
  6
CONTINUOUS
 10
6.422240
 20
1.651320
  0
VERTEX
  8
0
  6
CONTINUOUS
 10
6.400240
 20
1.677720
  0
SEQEND
  8
0
  0
SOLID
  8
0
 62
    15
 10
6.422240
 20
1.651320
 11
6.423560
 21
2.402400
 12
6.441160
 22
1.619200
 13
6.442040
 23
2.370280
  0
POLYLINE
  8
0
  6
CONTINUOUS
 66
     1
 40
0.000000
 41
0.000000
  0
VERTEX
  8
0
  6
CONTINUOUS
 10
6.422240
 20
1.651320
  0
VERTEX
  8
0
  6
CONTINUOUS
 10
6.423560
 20
2.402400
  0
VERTEX
  8
0
  6
CONTINUOUS
 10
6.442040
 20
2.370280
  0
VERTEX
  8
0
  6
CONTINUOUS
 10
6.441160
 20
1.619200
  0
VERTEX
  8
0
  6
CONTINUOUS
 10
6.422240
 20
1.651320
  0
SEQEND
  8
0
  0
SOLID
  8
0
 62
    15
 10
6.441160
 20
1.619200
 11
6.442040
 21
2.370280
 12
6.455240
 22
1.582240
 13
6.456560
 23
2.333320
  0
POLYLINE
  8
0
  6
CONTINUOUS
 66
     1
 40
0.000000
 41
0.000000
  0
VERTEX
  8
0
  6
CONTINUOUS
 10
6.441160
 20
1.619200
  0
VERTEX
  8
0
  6
CONTINUOUS
 10
6.442040
 20
2.370280
  0
VERTEX
  8
0
  6
CONTINUOUS
 10
6.456560
 20
2.333320
  0
VERTEX
  8
0
  6
CONTINUOUS
 10
6.455240
 20
1.582240
  0
VERTEX
  8
0
  6
CONTINUOUS
 10
6.441160
 20
1.619200
  0
SEQEND
  8
0
  0
SOLID
  8
0
 62
    15
 10
6.455240
 20
1.582240
 11
6.456560
 21
2.333320
 12
6.464480
 22
1.540000
 13
6.465800
 23
2.291080
  0
POLYLINE
  8
0
  6
CONTINUOUS
 66
     1
 40
0.000000
 41
0.000000
  0
VERTEX
  8
0
  6
CONTINUOUS
 10
6.455240
 20
1.582240
  0
VERTEX
  8
0
  6
CONTINUOUS
 10
6.456560
 20
2.333320
  0
VERTEX
  8
0
  6
CONTINUOUS
 10
6.465800
 20
2.291080
  0
VERTEX
  8
0
  6
CONTINUOUS
 10
6.464480
 20
1.540000
  0
VERTEX
  8
0
  6
CONTINUOUS
 10
6.455240
 20
1.582240
  0
SEQEND
  8
0
  0
SOLID
  8
0
 62
    15
 10
6.464480
 20
1.540000
 11
6.465800
 21
2.291080
 12
6.512440
 22
1.540000
 13
6.513320
 23
2.290640
  0
POLYLINE
  8
0
  6
CONTINUOUS
 66
     1
 40
0.000000
 41
0.000000
  0
VERTEX
  8
0
  6
CONTINUOUS
 10
6.464480
 20
1.540000
  0
VERTEX
  8
0
  6
CONTINUOUS
 10
6.465800
 20
2.291080
  0
VERTEX
  8
0
  6
CONTINUOUS
 10
6.513320
 20
2.290640
  0
VERTEX
  8
0
  6
CONTINUOUS
 10
6.512440
 20
1.540000
  0
VERTEX
  8
0
  6
CONTINUOUS
 10
6.464480
 20
1.540000
  0
SEQEND
  8
0
  0
SOLID
  8
0
 62
    15
 10
6.512440
 20
1.540000
 11
6.513320
 21
2.290640
 12
6.552040
 22
1.543080
 13
6.553360
 23
2.294160
  0
POLYLINE
  8
0
  6
CONTINUOUS
 66
     1
 40
0.000000
 41
0.000000
  0
VERTEX
  8
0
  6
CONTINUOUS
 10
6.512440
 20
1.540000
  0
VERTEX
  8
0
  6
CONTINUOUS
 10
6.513320
 20
2.290640
  0
VERTEX
  8
0
  6
CONTINUOUS
 10
6.553360
 20
2.294160
  0
VERTEX
  8
0
  6
CONTINUOUS
 10
6.552040
 20
1.543080
  0
VERTEX
  8
0
  6
CONTINUOUS
 10
6.512440
 20
1.540000
  0
SEQEND
  8
0
  0
SOLID
  8
0
 62
    15
 10
6.552040
 20
1.543080
 11
6.553360
 21
2.294160
 12
6.585920
 22
1.549240
 13
6.586800
 23
2.300320
  0
POLYLINE
  8
0
  6
CONTINUOUS
 66
     1
 40
0.000000
 41
0.000000
  0
VERTEX
  8
0
  6
CONTINUOUS
 10
6.552040
 20
1.543080
  0
VERTEX
  8
0
  6
CONTINUOUS
 10
6.553360
 20
2.294160
  0
VERTEX
  8
0
  6
CONTINUOUS
 10
6.586800
 20
2.300320
  0
VERTEX
  8
0
  6
CONTINUOUS
 10
6.585920
 20
1.549240
  0
VERTEX
  8
0
  6
CONTINUOUS
 10
6.552040
 20
1.543080
  0
SEQEND
  8
0
  0
SOLID
  8
0
 62
    15
 10
6.585920
 20
1.549240
 11
6.586800
 21
2.300320
 12
6.614520
 22
1.558040
 13
6.615400
 23
2.309120
  0
POLYLINE
  8
0
  6
CONTINUOUS
 66
     1
 40
0.000000
 41
0.000000
  0
VERTEX
  8
0
  6
CONTINUOUS
 10
6.585920
 20
1.549240
  0
VERTEX
  8
0
  6
CONTINUOUS
 10
6.586800
 20
2.300320
  0
VERTEX
  8
0
  6
CONTINUOUS
 10
6.615400
 20
2.309120
  0
VERTEX
  8
0
  6
CONTINUOUS
 10
6.614520
 20
1.558040
  0
VERTEX
  8
0
  6
CONTINUOUS
 10
6.585920
 20
1.549240
  0
SEQEND
  8
0
  0
SOLID
  8
0
 62
    15
 10
6.614520
 20
1.558040
 11
6.615400
 21
2.309120
 12
6.662920
 22
1.581360
 13
6.664240
 23
2.332440
  0
POLYLINE
  8
0
  6
CONTINUOUS
 66
     1
 40
0.000000
 41
0.000000
  0
VERTEX
  8
0
  6
CONTINUOUS
 10
6.614520
 20
1.558040
  0
VERTEX
  8
0
  6
CONTINUOUS
 10
6.615400
 20
2.309120
  0
VERTEX
  8
0
  6
CONTINUOUS
 10
6.664240
 20
2.332440
  0
VERTEX
  8
0
  6
CONTINUOUS
 10
6.662920
 20
1.581360
  0
VERTEX
  8
0
  6
CONTINUOUS
 10
6.614520
 20
1.558040
  0
SEQEND
  8
0
  0
SOLID
  8
0
 62
    15
 10
6.662920
 20
1.581360
 11
6.664240
 21
2.332440
 12
6.674800
 22
1.588400
 13
6.675680
 23
2.339040
  0
POLYLINE
  8
0
  6
CONTINUOUS
 66
     1
 40
0.000000
 41
0.000000
  0
VERTEX
  8
0
  6
CONTINUOUS
 10
6.662920
 20
1.581360
  0
VERTEX
  8
0
  6
CONTINUOUS
 10
6.664240
 20
2.332440
  0
VERTEX
  8
0
  6
CONTINUOUS
 10
6.675680
 20
2.339040
  0
VERTEX
  8
0
  6
CONTINUOUS
 10
6.674800
 20
1.588400
  0
VERTEX
  8
0
  6
CONTINUOUS
 10
6.662920
 20
1.581360
  0
SEQEND
  8
0
  0
SOLID
  8
0
 62
    15
 10
6.674800
 20
1.588400
 11
6.675680
 21
2.339040
 12
6.698120
 22
1.602480
 13
6.699000
 23
2.353120
  0
POLYLINE
  8
0
  6
CONTINUOUS
 66
     1
 40
0.000000
 41
0.000000
  0
VERTEX
  8
0
  6
CONTINUOUS
 10
6.674800
 20
1.588400
  0
VERTEX
  8
0
  6
CONTINUOUS
 10
6.675680
 20
2.339040
  0
VERTEX
  8
0
  6
CONTINUOUS
 10
6.699000
 20
2.353120
  0
VERTEX
  8
0
  6
CONTINUOUS
 10
6.698120
 20
1.602480
  0
VERTEX
  8
0
  6
CONTINUOUS
 10
6.674800
 20
1.588400
  0
SEQEND
  8
0
  0
SOLID
  8
0
 62
    15
 10
6.698120
 20
1.602480
 11
6.699000
 21
2.353120
 12
6.710440
 22
1.609520
 13
6.711320
 23
2.360600
  0
POLYLINE
  8
0
  6
CONTINUOUS
 66
     1
 40
0.000000
 41
0.000000
  0
VERTEX
  8
0
  6
CONTINUOUS
 10
6.698120
 20
1.602480
  0
VERTEX
  8
0
  6
CONTINUOUS
 10
6.699000
 20
2.353120
  0
VERTEX
  8
0
  6
CONTINUOUS
 10
6.711320
 20
2.360600
  0
VERTEX
  8
0
  6
CONTINUOUS
 10
6.710440
 20
1.609520
  0
VERTEX
  8
0
  6
CONTINUOUS
 10
6.698120
 20
1.602480
  0
SEQEND
  8
0
  0
SOLID
  8
0
 62
    15
 10
6.710440
 20
1.609520
 11
6.711320
 21
2.360600
 12
6.765440
 22
1.635920
 13
6.766320
 23
2.386560
  0
POLYLINE
  8
0
  6
CONTINUOUS
 66
     1
 40
0.000000
 41
0.000000
  0
VERTEX
  8
0
  6
CONTINUOUS
 10
6.710440
 20
1.609520
  0
VERTEX
  8
0
  6
CONTINUOUS
 10
6.711320
 20
2.360600
  0
VERTEX
  8
0
  6
CONTINUOUS
 10
6.766320
 20
2.386560
  0
VERTEX
  8
0
  6
CONTINUOUS
 10
6.765440
 20
1.635920
  0
VERTEX
  8
0
  6
CONTINUOUS
 10
6.710440
 20
1.609520
  0
SEQEND
  8
0
  0
SOLID
  8
0
 62
    15
 10
6.765440
 20
1.635920
 11
6.766320
 21
2.386560
 12
6.830560
 22
1.655280
 13
6.831440
 23
2.406360
  0
POLYLINE
  8
0
  6
CONTINUOUS
 66
     1
 40
0.000000
 41
0.000000
  0
VERTEX
  8
0
  6
CONTINUOUS
 10
6.765440
 20
1.635920
  0
VERTEX
  8
0
  6
CONTINUOUS
 10
6.766320
 20
2.386560
  0
VERTEX
  8
0
  6
CONTINUOUS
 10
6.831440
 20
2.406360
  0
VERTEX
  8
0
  6
CONTINUOUS
 10
6.830560
 20
1.655280
  0
VERTEX
  8
0
  6
CONTINUOUS
 10
6.765440
 20
1.635920
  0
SEQEND
  8
0
  0
SOLID
  8
0
 62
    15
 10
6.830560
 20
1.655280
 11
6.831440
 21
2.406360
 12
6.907560
 22
1.667600
 13
6.908440
 23
2.418680
  0
POLYLINE
  8
0
  6
CONTINUOUS
 66
     1
 40
0.000000
 41
0.000000
  0
VERTEX
  8
0
  6
CONTINUOUS
 10
6.830560
 20
1.655280
  0
VERTEX
  8
0
  6
CONTINUOUS
 10
6.831440
 20
2.406360
  0
VERTEX
  8
0
  6
CONTINUOUS
 10
6.908440
 20
2.418680
  0
VERTEX
  8
0
  6
CONTINUOUS
 10
6.907560
 20
1.667600
  0
VERTEX
  8
0
  6
CONTINUOUS
 10
6.830560
 20
1.655280
  0
SEQEND
  8
0
  0
SOLID
  8
0
 62
    15
 10
6.907560
 20
1.667600
 11
6.908440
 21
2.418680
 12
6.950680
 22
1.671120
 13
6.952000
 23
2.422200
  0
POLYLINE
  8
0
  6
CONTINUOUS
 66
     1
 40
0.000000
 41
0.000000
  0
VERTEX
  8
0
  6
CONTINUOUS
 10
6.907560
 20
1.667600
  0
VERTEX
  8
0
  6
CONTINUOUS
 10
6.908440
 20
2.418680
  0
VERTEX
  8
0
  6
CONTINUOUS
 10
6.952000
 20
2.422200
  0
VERTEX
  8
0
  6
CONTINUOUS
 10
6.950680
 20
1.671120
  0
VERTEX
  8
0
  6
CONTINUOUS
 10
6.907560
 20
1.667600
  0
SEQEND
  8
0
  0
SOLID
  8
0
 62
    15
 10
6.950680
 20
1.671120
 11
6.952000
 21
2.422200
 12
6.997760
 22
1.672000
 13
6.998640
 23
2.423080
  0
POLYLINE
  8
0
  6
CONTINUOUS
 66
     1
 40
0.000000
 41
0.000000
  0
VERTEX
  8
0
  6
CONTINUOUS
 10
6.950680
 20
1.671120
  0
VERTEX
  8
0
  6
CONTINUOUS
 10
6.952000
 20
2.422200
  0
VERTEX
  8
0
  6
CONTINUOUS
 10
6.998640
 20
2.423080
  0
VERTEX
  8
0
  6
CONTINUOUS
 10
6.997760
 20
1.672000
  0
VERTEX
  8
0
  6
CONTINUOUS
 10
6.950680
 20
1.671120
  0
SEQEND
  8
0
  0
SOLID
  8
0
 62
    15
 10
6.997760
 20
1.672000
 11
6.998640
 21
2.423080
 12
7.005680
 22
1.818520
 13
7.006560
 23
2.569600
  0
POLYLINE
  8
0
  6
CONTINUOUS
 66
     1
 40
0.000000
 41
0.000000
  0
VERTEX
  8
0
  6
CONTINUOUS
 10
6.997760
 20
1.672000
  0
VERTEX
  8
0
  6
CONTINUOUS
 10
6.998640
 20
2.423080
  0
VERTEX
  8
0
  6
CONTINUOUS
 10
7.006560
 20
2.569600
  0
VERTEX
  8
0
  6
CONTINUOUS
 10
7.005680
 20
1.818520
  0
VERTEX
  8
0
  6
CONTINUOUS
 10
6.997760
 20
1.672000
  0
SEQEND
  8
0
  0
SOLID
  8
0
 62
    15
 10
7.005680
 20
1.818520
 11
7.006560
 21
2.569600
 12
7.581640
 22
1.818520
 13
7.582960
 23
2.569600
  0
POLYLINE
  8
0
  6
CONTINUOUS
 66
     1
 40
0.000000
 41
0.000000
  0
VERTEX
  8
0
  6
CONTINUOUS
 10
7.005680
 20
1.818520
  0
VERTEX
  8
0
  6
CONTINUOUS
 10
7.006560
 20
2.569600
  0
VERTEX
  8
0
  6
CONTINUOUS
 10
7.582960
 20
2.569600
  0
VERTEX
  8
0
  6
CONTINUOUS
 10
7.581640
 20
1.818520
  0
VERTEX
  8
0
  6
CONTINUOUS
 10
7.005680
 20
1.818520
  0
SEQEND
  8
0
  0
SOLID
  8
0
 62
    15
 10
7.667000
 20
1.733160
 11
7.668320
 21
2.483800
 12
7.667000
 22
1.001000
 13
7.668320
 23
1.752080
  0
POLYLINE
  8
0
  6
CONTINUOUS
 66
     1
 40
0.000000
 41
0.000000
  0
VERTEX
  8
0
  6
CONTINUOUS
 10
7.667000
 20
1.733160
  0
VERTEX
  8
0
  6
CONTINUOUS
 10
7.668320
 20
2.483800
  0
VERTEX
  8
0
  6
CONTINUOUS
 10
7.668320
 20
1.752080
  0
VERTEX
  8
0
  6
CONTINUOUS
 10
7.667000
 20
1.001000
  0
VERTEX
  8
0
  6
CONTINUOUS
 10
7.667000
 20
1.733160
  0
SEQEND
  8
0
  0
SOLID
  8
0
 62
    15
 10
7.581640
 20
1.818520
 11
7.582960
 21
2.569600
 12
7.667000
 22
1.733160
 13
7.668320
 23
2.483800
  0
POLYLINE
  8
0
  6
CONTINUOUS
 66
     1
 40
0.000000
 41
0.000000
  0
VERTEX
  8
0
  6
CONTINUOUS
 10
7.581640
 20
1.818520
  0
VERTEX
  8
0
  6
CONTINUOUS
 10
7.582960
 20
2.569600
  0
VERTEX
  8
0
  6
CONTINUOUS
 10
7.668320
 20
2.483800
  0
VERTEX
  8
0
  6
CONTINUOUS
 10
7.667000
 20
1.733160
  0
VERTEX
  8
0
  6
CONTINUOUS
 10
7.581640
 20
1.818520
  0
SEQEND
  8
0
  0
POLYLINE
  8
0
  6
CONTINUOUS
 66
     1
 40
0.000000
 41
0.000000
  0
VERTEX
  8
0
  6
CONTINUOUS
 10
3.329920
 20
1.006720
  0
VERTEX
  8
0
  6
CONTINUOUS
 10
3.329920
 20
1.734480
  0
VERTEX
  8
0
  6
CONTINUOUS
 10
3.413520
 20
1.817640
  0
VERTEX
  8
0
  6
CONTINUOUS
 10
3.992560
 20
1.817640
  0
VERTEX
  8
0
  6
CONTINUOUS
 10
4.008400
 20
1.666280
  0
VERTEX
  8
0
  6
CONTINUOUS
 10
4.055040
 20
1.665400
  0
VERTEX
  8
0
  6
CONTINUOUS
 10
4.098600
 20
1.661880
  0
VERTEX
  8
0
  6
CONTINUOUS
 10
4.175600
 20
1.649560
  0
VERTEX
  8
0
  6
CONTINUOUS
 10
4.240720
 20
1.629760
  0
VERTEX
  8
0
  6
CONTINUOUS
 10
4.295720
 20
1.603800
  0
VERTEX
  8
0
  6
CONTINUOUS
 10
4.342800
 20
1.575640
  0
VERTEX
  8
0
  6
CONTINUOUS
 10
4.391640
 20
1.552320
  0
VERTEX
  8
0
  6
CONTINUOUS
 10
4.420240
 20
1.543520
  0
VERTEX
  8
0
  6
CONTINUOUS
 10
4.453680
 20
1.537360
  0
VERTEX
  8
0
  6
CONTINUOUS
 10
4.493720
 20
1.534280
  0
VERTEX
  8
0
  6
CONTINUOUS
 10
4.541240
 20
1.534280
  0
VERTEX
  8
0
  6
CONTINUOUS
 10
4.550920
 20
1.576520
  0
VERTEX
  8
0
  6
CONTINUOUS
 10
4.565000
 20
1.613480
  0
VERTEX
  8
0
  6
CONTINUOUS
 10
4.583480
 20
1.645600
  0
VERTEX
  8
0
  6
CONTINUOUS
 10
4.605920
 20
1.672000
  0
VERTEX
  8
0
  6
CONTINUOUS
 10
4.630560
 20
1.693560
  0
VERTEX
  8
0
  6
CONTINUOUS
 10
4.657400
 20
1.709400
  0
VERTEX
  8
0
  6
CONTINUOUS
 10
4.685560
 20
1.719520
  0
VERTEX
  8
0
  6
CONTINUOUS
 10
4.714600
 20
1.724360
  0
VERTEX
  8
0
  6
CONTINUOUS
 10
4.743200
 20
1.723480
  0
VERTEX
  8
0
  6
CONTINUOUS
 10
4.770920
 20
1.716880
  0
VERTEX
  8
0
  6
CONTINUOUS
 10
4.797320
 20
1.704560
  0
VERTEX
  8
0
  6
CONTINUOUS
 10
4.821520
 20
1.686080
  0
VERTEX
  8
0
  6
CONTINUOUS
 10
4.842640
 20
1.661880
  0
VERTEX
  8
0
  6
CONTINUOUS
 10
4.859800
 20
1.631960
  0
VERTEX
  8
0
  6
CONTINUOUS
 10
4.873000
 20
1.595440
  0
VERTEX
  8
0
  6
CONTINUOUS
 10
4.880480
 20
1.552760
  0
VERTEX
  8
0
  6
CONTINUOUS
 10
4.948680
 20
1.568160
  0
VERTEX
  8
0
  6
CONTINUOUS
 10
5.020400
 20
1.580920
  0
VERTEX
  8
0
  6
CONTINUOUS
 10
5.173960
 20
1.600280
  0
VERTEX
  8
0
  6
CONTINUOUS
 10
5.336320
 20
1.610840
  0
VERTEX
  8
0
  6
CONTINUOUS
 10
5.503080
 20
1.613480
  0
VERTEX
  8
0
  6
CONTINUOUS
 10
5.670280
 20
1.609080
  0
VERTEX
  8
0
  6
CONTINUOUS
 10
5.833080
 20
1.598520
  0
VERTEX
  8
0
  6
CONTINUOUS
 10
5.987520
 20
1.581800
  0
VERTEX
  8
0
  6
CONTINUOUS
 10
6.128320
 20
1.559800
  0
VERTEX
  8
0
  6
CONTINUOUS
 10
6.125240
 20
1.558480
  0
VERTEX
  8
0
  6
CONTINUOUS
 10
6.133160
 20
1.601160
  0
VERTEX
  8
0
  6
CONTINUOUS
 10
6.145920
 20
1.637680
  0
VERTEX
  8
0
  6
CONTINUOUS
 10
6.163520
 20
1.667600
  0
VERTEX
  8
0
  6
CONTINUOUS
 10
6.184640
 20
1.692240
  0
VERTEX
  8
0
  6
CONTINUOUS
 10
6.208840
 20
1.710280
  0
VERTEX
  8
0
  6
CONTINUOUS
 10
6.234800
 20
1.722600
  0
VERTEX
  8
0
  6
CONTINUOUS
 10
6.262960
 20
1.729200
  0
VERTEX
  8
0
  6
CONTINUOUS
 10
6.291560
 20
1.730080
  0
VERTEX
  8
0
  6
CONTINUOUS
 10
6.320600
 20
1.725240
  0
VERTEX
  8
0
  6
CONTINUOUS
 10
6.348760
 20
1.715120
  0
VERTEX
  8
0
  6
CONTINUOUS
 10
6.375600
 20
1.699280
  0
VERTEX
  8
0
  6
CONTINUOUS
 10
6.400240
 20
1.677720
  0
VERTEX
  8
0
  6
CONTINUOUS
 10
6.422240
 20
1.651320
  0
VERTEX
  8
0
  6
CONTINUOUS
 10
6.441160
 20
1.619200
  0
VERTEX
  8
0
  6
CONTINUOUS
 10
6.455240
 20
1.582240
  0
VERTEX
  8
0
  6
CONTINUOUS
 10
6.464480
 20
1.540000
  0
VERTEX
  8
0
  6
CONTINUOUS
 10
6.512440
 20
1.540000
  0
VERTEX
  8
0
  6
CONTINUOUS
 10
6.552040
 20
1.543080
  0
VERTEX
  8
0
  6
CONTINUOUS
 10
6.585920
 20
1.549240
  0
VERTEX
  8
0
  6
CONTINUOUS
 10
6.614520
 20
1.558040
  0
VERTEX
  8
0
  6
CONTINUOUS
 10
6.662920
 20
1.581360
  0
VERTEX
  8
0
  6
CONTINUOUS
 10
6.710440
 20
1.609520
  0
VERTEX
  8
0
  6
CONTINUOUS
 10
6.765440
 20
1.635920
  0
VERTEX
  8
0
  6
CONTINUOUS
 10
6.830560
 20
1.655280
  0
VERTEX
  8
0
  6
CONTINUOUS
 10
6.907560
 20
1.667600
  0
VERTEX
  8
0
  6
CONTINUOUS
 10
6.950680
 20
1.671120
  0
VERTEX
  8
0
  6
CONTINUOUS
 10
6.997760
 20
1.672000
  0
VERTEX
  8
0
  6
CONTINUOUS
 10
7.005680
 20
1.818520
  0
VERTEX
  8
0
  6
CONTINUOUS
 10
7.581640
 20
1.818520
  0
VERTEX
  8
0
  6
CONTINUOUS
 10
7.667000
 20
1.733160
  0
VERTEX
  8
0
  6
CONTINUOUS
 10
7.667000
 20
1.001000
  0
VERTEX
  8
0
  6
CONTINUOUS
 10
3.330360
 20
1.001000
  0
VERTEX
  8
0
  6
CONTINUOUS
 10
3.330360
 20
1.017280
  0
VERTEX
  8
0
  6
CONTINUOUS
 10
3.329920
 20
1.006720
  0
SEQEND
  8
0
  0
TEXT
  8
0
 10
5.202120
 20
0.755040
 40
0.138148
  1
BA  420
 41
1.000000
  7
SN0
 71
     0
 72
     5
 11
5.792813
 21
0.755040
  0
TEXT
  8
0
 10
5.046360
 20
0.563640
 40
0.138148
  1
3/4" x 4-3/8"
 41
1.000000
  7
SN0
 71
     0
 72
     5
 11
5.948391
 21
0.563640
  0
ENDSEC
  0
EOF
