  0
SECTION
  2
HEADER
  9
$ACADVER
  1
AC1006
  9
$EXTMIN
 10
3.514280
 20
0.570240
  9
$EXTMAX
 10
6.510240
 20
3.197480
  9
$LTSCALE
 40
0.044000
  9
$PDMODE
 70
    35
  9
$PDSIZE
 40
0.035200
  0
ENDSEC
  0
SECTION
  2
TABLES
  0
TABLE
  2
LTYPE
 70
     9
  0
LTYPE
  2
CONTINUOUS
 70
    64
  3
Solid line
 72
    65
 73
     0
 40
0.000000
  0
LTYPE
  2
DASHED
 70
    64
  3
__ __ __ __ __ __ __ __ __ __ __ __ __ __ __
 72
    65
 73
     2
 40
0.000330
 49
0.000220
 49
-0.000110
  0
LTYPE
  2
HIDDEN
 70
    64
  3
 _ _ _ _ _ _ _ _ _ _ _ _ _ _ _ _ _ _ _ _ _ _
 72
    65
 73
     2
 40
0.000165
 49
0.000110
 49
-0.000055
  0
LTYPE
  2
CENTER
 70
    64
  3
____ _ ____ _ ____ _ ____ _ ____ _ ____ _ ____
 72
    65
 73
     4
 40
0.000880
 49
0.000550
 49
-0.000110
 49
0.000110
 49
-0.000110
  0
LTYPE
  2
PHANTOM
 70
    64
  3
_____ _ _ _____ _ _ _____ _ _ _____ _ _ ____
 72
    65
 73
     6
 40
0.001100
 49
0.000550
 49
-0.000110
 49
0.000110
 49
-0.000110
 49
0.000110
 49
-0.000110
  0
LTYPE
  2
DOT
 70
    64
  3
...............................................
 72
    65
 73
     2
 40
0.000110
 49
0.000000
 49
-0.000110
  0
LTYPE
  2
DASHDOT
 70
    64
  3
__ . __ . __ . __ . __ . __ . __ . __ . __ . __
 72
    65
 73
     4
 40
0.000440
 49
0.000220
 49
-0.000110
 49
0.000000
 49
-0.000110
  0
LTYPE
  2
BORDER
 70
    64
  3
__ __ . __ __ . __ __ . __ __ . __ __ . __ __
 72
    65
 73
     6
 40
0.000770
 49
0.000220
 49
-0.000110
 49
0.000220
 49
-0.000110
 49
0.000000
 49
-0.000110
  0
LTYPE
  2
DIVIDE
 70
    64
  3
__ . . __ . . __ . . __ . . __ . . __ . . __
 72
    65
 73
     6
 40
0.000550
 49
0.000220
 49
-0.000110
 49
0.000000
 49
-0.000110
 49
0.000000
 49
-0.000110
  0
LTYPE
  2
DOTDOT
 70
    64
  3
 . .  . .  . .  . .  . .  . . 
 72
    65
 73
     5
 40
0.000242
 49
-0.000110
 49
0.000000
 49
-0.000110
 49
0.000000
 49
-0.000110
  0
ENDTAB
  0
TABLE
  2
STYLE
 70
     2
  0
STYLE
 70
     0
  2
SN0
 40
0.000000
 41
0.000440
 50
0.000000
 71
     0
 42
0.000000
  3
ROMAND
  0
STYLE
 70
    68
  2
SV0
 40
0.000000
 41
0.000440
 50
0.000000
 71
     0
 42
0.000000
  3
ROMAND
  0
ENDTAB
  0
TABLE
  2
LAYER
 70
     3
  0
LAYER
  2
FOREGROUND
 70
    64
 62
     7
  6
CONTINUOUS
  0
LAYER
  2
BACKGROUND
 70
    65
 62
    -7
  6
CONTINUOUS
  0
LAYER
  2
0
 70
    64
 62
     7
  6
CONTINUOUS
  0
ENDTAB
  0
ENDSEC
  0
SECTION
  2
ENTITIES
  0
POLYLINE
  8
FOREGROUND
  6
CONTINUOUS
 66
     1
 40
0.000000
 41
0.000000
  0
VERTEX
  8
FOREGROUND
  6
CONTINUOUS
 10
0.000000
 20
3.767720
  0
VERTEX
  8
FOREGROUND
  6
CONTINUOUS
 10
8.499920
 20
3.767720
  0
VERTEX
  8
FOREGROUND
  6
CONTINUOUS
 10
8.499920
 20
-7.232280
  0
VERTEX
  8
FOREGROUND
  6
CONTINUOUS
 10
0.000000
 20
-7.232280
  0
VERTEX
  8
FOREGROUND
  6
CONTINUOUS
 10
0.000000
 20
3.767720
  0
SEQEND
  8
0
  0
POLYLINE
  8
0
  6
CONTINUOUS
 66
     1
 40
0.014080
 41
0.014080
  0
VERTEX
  8
0
  6
CONTINUOUS
 10
5.800520
 20
3.060200
  0
VERTEX
  8
0
  6
CONTINUOUS
 10
5.816360
 20
3.059320
  0
VERTEX
  8
0
  6
CONTINUOUS
 10
5.848920
 20
3.052280
  0
VERTEX
  8
0
  6
CONTINUOUS
 10
5.882360
 20
3.038200
  0
VERTEX
  8
0
  6
CONTINUOUS
 10
5.899080
 20
3.028520
  0
VERTEX
  8
0
  6
CONTINUOUS
 10
5.914920
 20
3.017080
  0
VERTEX
  8
0
  6
CONTINUOUS
 10
5.944400
 20
2.988480
  0
VERTEX
  8
0
  6
CONTINUOUS
 10
5.969040
 20
2.952840
  0
VERTEX
  8
0
  6
CONTINUOUS
 10
5.983560
 20
2.921160
  0
VERTEX
  8
0
  6
CONTINUOUS
 10
5.993240
 20
2.885520
  0
VERTEX
  8
0
  6
CONTINUOUS
 10
5.997200
 20
2.859560
  0
VERTEX
  8
0
  6
CONTINUOUS
 10
5.998520
 20
2.831400
  0
VERTEX
  8
0
  6
CONTINUOUS
 10
5.998520
 20
2.748240
  0
VERTEX
  8
0
  6
CONTINUOUS
 10
6.037680
 20
2.741200
  0
VERTEX
  8
0
  6
CONTINUOUS
 10
6.072880
 20
2.730200
  0
VERTEX
  8
0
  6
CONTINUOUS
 10
6.089160
 20
2.723600
  0
VERTEX
  8
0
  6
CONTINUOUS
 10
6.117760
 20
2.707320
  0
VERTEX
  8
0
  6
CONTINUOUS
 10
6.141960
 20
2.688400
  0
VERTEX
  8
0
  6
CONTINUOUS
 10
6.161760
 20
2.667280
  0
VERTEX
  8
0
  6
CONTINUOUS
 10
6.176720
 20
2.644400
  0
VERTEX
  8
0
  6
CONTINUOUS
 10
6.186840
 20
2.620200
  0
VERTEX
  8
0
  6
CONTINUOUS
 10
6.192120
 20
2.595120
  0
VERTEX
  8
0
  6
CONTINUOUS
 10
6.192120
 20
2.570040
  0
VERTEX
  8
0
  6
CONTINUOUS
 10
6.190360
 20
2.557720
  0
VERTEX
  8
0
  6
CONTINUOUS
 10
6.182440
 20
2.533520
  0
VERTEX
  8
0
  6
CONTINUOUS
 10
6.169680
 20
2.510640
  0
VERTEX
  8
0
  6
CONTINUOUS
 10
6.150760
 20
2.489080
  0
VERTEX
  8
0
  6
CONTINUOUS
 10
6.126560
 20
2.470160
  0
VERTEX
  8
0
  6
CONTINUOUS
 10
6.112480
 20
2.461360
  0
VERTEX
  8
0
  6
CONTINUOUS
 10
6.079480
 20
2.446840
  0
VERTEX
  8
0
  6
CONTINUOUS
 10
6.061000
 20
2.440680
  0
VERTEX
  8
0
  6
CONTINUOUS
 10
6.058360
 20
2.431880
  0
VERTEX
  8
0
  6
CONTINUOUS
 10
6.059240
 20
2.420000
  0
VERTEX
  8
0
  6
CONTINUOUS
 10
6.079920
 20
2.352240
  0
VERTEX
  8
0
  6
CONTINUOUS
 10
6.110280
 20
2.295920
  0
VERTEX
  8
0
  6
CONTINUOUS
 10
6.150760
 20
2.233880
  0
VERTEX
  8
0
  6
CONTINUOUS
 10
6.357560
 20
1.954920
  0
VERTEX
  8
0
  6
CONTINUOUS
 10
6.420920
 20
1.859880
  0
VERTEX
  8
0
  6
CONTINUOUS
 10
6.459640
 20
1.790800
  0
VERTEX
  8
0
  6
CONTINUOUS
 10
6.479880
 20
1.746800
  0
VERTEX
  8
0
  6
CONTINUOUS
 10
6.493960
 20
1.705000
  0
VERTEX
  8
0
  6
CONTINUOUS
 10
6.498800
 20
1.684760
  0
VERTEX
  8
0
  6
CONTINUOUS
 10
6.501880
 20
1.664960
  0
VERTEX
  8
0
  6
CONTINUOUS
 10
6.503200
 20
1.628000
  0
VERTEX
  8
0
  6
CONTINUOUS
 10
6.500560
 20
1.594560
  0
VERTEX
  8
0
  6
CONTINUOUS
 10
6.491320
 20
1.551880
  0
VERTEX
  8
0
  6
CONTINUOUS
 10
6.477240
 20
1.516680
  0
VERTEX
  8
0
  6
CONTINUOUS
 10
6.460080
 20
1.488960
  0
VERTEX
  8
0
  6
CONTINUOUS
 10
6.447760
 20
1.473560
  0
VERTEX
  8
0
  6
CONTINUOUS
 10
6.422680
 20
1.451560
  0
VERTEX
  8
0
  6
CONTINUOUS
 10
6.399800
 20
1.437920
  0
VERTEX
  8
0
  6
CONTINUOUS
 10
6.380440
 20
1.431320
  0
VERTEX
  8
0
  6
CONTINUOUS
 10
6.376480
 20
1.431760
  0
VERTEX
  8
0
  6
CONTINUOUS
 10
6.377800
 20
1.433080
  0
VERTEX
  8
0
  6
CONTINUOUS
 10
6.377800
 20
1.266320
  0
VERTEX
  8
0
  6
CONTINUOUS
 10
5.662800
 20
1.266320
  0
VERTEX
  8
0
  6
CONTINUOUS
 10
5.662800
 20
3.060200
  0
VERTEX
  8
0
  6
CONTINUOUS
 10
5.800520
 20
3.060200
  0
SEQEND
  8
0
  0
SOLID
  8
0
 62
    15
 10
3.910720
 20
2.197360
 11
4.565000
 21
2.568280
 12
3.911600
 22
2.185480
 13
4.565880
 23
2.556400
  0
POLYLINE
  8
0
  6
CONTINUOUS
 66
     1
 40
0.000000
 41
0.000000
  0
VERTEX
  8
0
  6
CONTINUOUS
 10
3.910720
 20
2.197360
  0
VERTEX
  8
0
  6
CONTINUOUS
 10
4.565000
 20
2.568280
  0
VERTEX
  8
0
  6
CONTINUOUS
 10
4.565880
 20
2.556400
  0
VERTEX
  8
0
  6
CONTINUOUS
 10
3.911600
 20
2.185480
  0
VERTEX
  8
0
  6
CONTINUOUS
 10
3.910720
 20
2.197360
  0
SEQEND
  8
0
  0
SOLID
  8
0
 62
    15
 10
3.684560
 20
2.822600
 11
4.338840
 21
3.193080
 12
3.718000
 22
2.812040
 13
4.372280
 23
3.182520
  0
POLYLINE
  8
0
  6
CONTINUOUS
 66
     1
 40
0.000000
 41
0.000000
  0
VERTEX
  8
0
  6
CONTINUOUS
 10
3.684560
 20
2.822600
  0
VERTEX
  8
0
  6
CONTINUOUS
 10
4.338840
 20
3.193080
  0
VERTEX
  8
0
  6
CONTINUOUS
 10
4.372280
 20
3.182520
  0
VERTEX
  8
0
  6
CONTINUOUS
 10
3.718000
 20
2.812040
  0
VERTEX
  8
0
  6
CONTINUOUS
 10
3.684560
 20
2.822600
  0
SEQEND
  8
0
  0
SOLID
  8
0
 62
    15
 10
3.718000
 20
2.812040
 11
4.372280
 21
3.182520
 12
3.751000
 22
2.794000
 13
4.405280
 23
3.164920
  0
POLYLINE
  8
0
  6
CONTINUOUS
 66
     1
 40
0.000000
 41
0.000000
  0
VERTEX
  8
0
  6
CONTINUOUS
 10
3.718000
 20
2.812040
  0
VERTEX
  8
0
  6
CONTINUOUS
 10
4.372280
 20
3.182520
  0
VERTEX
  8
0
  6
CONTINUOUS
 10
4.405280
 20
3.164920
  0
VERTEX
  8
0
  6
CONTINUOUS
 10
3.751000
 20
2.794000
  0
VERTEX
  8
0
  6
CONTINUOUS
 10
3.718000
 20
2.812040
  0
SEQEND
  8
0
  0
SOLID
  8
0
 62
    15
 10
3.751000
 20
2.794000
 11
4.405280
 21
3.164920
 12
3.782240
 22
2.769360
 13
4.436520
 23
3.139840
  0
POLYLINE
  8
0
  6
CONTINUOUS
 66
     1
 40
0.000000
 41
0.000000
  0
VERTEX
  8
0
  6
CONTINUOUS
 10
3.751000
 20
2.794000
  0
VERTEX
  8
0
  6
CONTINUOUS
 10
4.405280
 20
3.164920
  0
VERTEX
  8
0
  6
CONTINUOUS
 10
4.436520
 20
3.139840
  0
VERTEX
  8
0
  6
CONTINUOUS
 10
3.782240
 20
2.769360
  0
VERTEX
  8
0
  6
CONTINUOUS
 10
3.751000
 20
2.794000
  0
SEQEND
  8
0
  0
SOLID
  8
0
 62
     7
 10
3.782240
 20
2.769360
 11
4.436520
 21
3.139840
 12
3.809520
 22
2.737240
 13
4.463800
 23
3.107720
  0
POLYLINE
  8
0
  6
CONTINUOUS
 66
     1
 40
0.000000
 41
0.000000
  0
VERTEX
  8
0
  6
CONTINUOUS
 10
3.782240
 20
2.769360
  0
VERTEX
  8
0
  6
CONTINUOUS
 10
4.436520
 20
3.139840
  0
VERTEX
  8
0
  6
CONTINUOUS
 10
4.463800
 20
3.107720
  0
VERTEX
  8
0
  6
CONTINUOUS
 10
3.809520
 20
2.737240
  0
VERTEX
  8
0
  6
CONTINUOUS
 10
3.782240
 20
2.769360
  0
SEQEND
  8
0
  0
SOLID
  8
0
 62
     7
 10
3.809520
 20
2.737240
 11
4.463800
 21
3.107720
 12
3.831080
 22
2.697640
 13
4.485360
 23
3.068560
  0
POLYLINE
  8
0
  6
CONTINUOUS
 66
     1
 40
0.000000
 41
0.000000
  0
VERTEX
  8
0
  6
CONTINUOUS
 10
3.809520
 20
2.737240
  0
VERTEX
  8
0
  6
CONTINUOUS
 10
4.463800
 20
3.107720
  0
VERTEX
  8
0
  6
CONTINUOUS
 10
4.485360
 20
3.068560
  0
VERTEX
  8
0
  6
CONTINUOUS
 10
3.831080
 20
2.697640
  0
VERTEX
  8
0
  6
CONTINUOUS
 10
3.809520
 20
2.737240
  0
SEQEND
  8
0
  0
SOLID
  8
0
 62
     7
 10
3.831080
 20
2.697640
 11
4.485360
 21
3.068560
 12
3.845600
 22
2.651000
 13
4.499880
 23
3.021920
  0
POLYLINE
  8
0
  6
CONTINUOUS
 66
     1
 40
0.000000
 41
0.000000
  0
VERTEX
  8
0
  6
CONTINUOUS
 10
3.831080
 20
2.697640
  0
VERTEX
  8
0
  6
CONTINUOUS
 10
4.485360
 20
3.068560
  0
VERTEX
  8
0
  6
CONTINUOUS
 10
4.499880
 20
3.021920
  0
VERTEX
  8
0
  6
CONTINUOUS
 10
3.845600
 20
2.651000
  0
VERTEX
  8
0
  6
CONTINUOUS
 10
3.831080
 20
2.697640
  0
SEQEND
  8
0
  0
SOLID
  8
0
 62
    15
 10
3.845600
 20
2.651000
 11
4.499880
 21
3.021920
 12
3.850440
 22
2.596880
 13
4.504720
 23
2.967800
  0
POLYLINE
  8
0
  6
CONTINUOUS
 66
     1
 40
0.000000
 41
0.000000
  0
VERTEX
  8
0
  6
CONTINUOUS
 10
3.845600
 20
2.651000
  0
VERTEX
  8
0
  6
CONTINUOUS
 10
4.499880
 20
3.021920
  0
VERTEX
  8
0
  6
CONTINUOUS
 10
4.504720
 20
2.967800
  0
VERTEX
  8
0
  6
CONTINUOUS
 10
3.850440
 20
2.596880
  0
VERTEX
  8
0
  6
CONTINUOUS
 10
3.845600
 20
2.651000
  0
SEQEND
  8
0
  0
SOLID
  8
0
 62
    15
 10
3.850440
 20
2.596880
 11
4.504720
 21
2.967800
 12
3.850440
 22
2.513720
 13
4.504720
 23
2.884640
  0
POLYLINE
  8
0
  6
CONTINUOUS
 66
     1
 40
0.000000
 41
0.000000
  0
VERTEX
  8
0
  6
CONTINUOUS
 10
3.850440
 20
2.596880
  0
VERTEX
  8
0
  6
CONTINUOUS
 10
4.504720
 20
2.967800
  0
VERTEX
  8
0
  6
CONTINUOUS
 10
4.504720
 20
2.884640
  0
VERTEX
  8
0
  6
CONTINUOUS
 10
3.850440
 20
2.513720
  0
VERTEX
  8
0
  6
CONTINUOUS
 10
3.850440
 20
2.596880
  0
SEQEND
  8
0
  0
SOLID
  8
0
 62
    15
 10
3.850440
 20
2.513720
 11
4.504720
 21
2.884640
 12
3.890040
 22
2.507120
 13
4.544320
 23
2.877600
  0
POLYLINE
  8
0
  6
CONTINUOUS
 66
     1
 40
0.000000
 41
0.000000
  0
VERTEX
  8
0
  6
CONTINUOUS
 10
3.850440
 20
2.513720
  0
VERTEX
  8
0
  6
CONTINUOUS
 10
4.504720
 20
2.884640
  0
VERTEX
  8
0
  6
CONTINUOUS
 10
4.544320
 20
2.877600
  0
VERTEX
  8
0
  6
CONTINUOUS
 10
3.890040
 20
2.507120
  0
VERTEX
  8
0
  6
CONTINUOUS
 10
3.850440
 20
2.513720
  0
SEQEND
  8
0
  0
SOLID
  8
0
 62
    15
 10
3.890040
 20
2.507120
 11
4.544320
 21
2.877600
 12
3.925240
 22
2.496120
 13
4.579520
 23
2.866600
  0
POLYLINE
  8
0
  6
CONTINUOUS
 66
     1
 40
0.000000
 41
0.000000
  0
VERTEX
  8
0
  6
CONTINUOUS
 10
3.890040
 20
2.507120
  0
VERTEX
  8
0
  6
CONTINUOUS
 10
4.544320
 20
2.877600
  0
VERTEX
  8
0
  6
CONTINUOUS
 10
4.579520
 20
2.866600
  0
VERTEX
  8
0
  6
CONTINUOUS
 10
3.925240
 20
2.496120
  0
VERTEX
  8
0
  6
CONTINUOUS
 10
3.890040
 20
2.507120
  0
SEQEND
  8
0
  0
SOLID
  8
0
 62
    15
 10
3.925240
 20
2.496120
 11
4.579520
 21
2.866600
 12
3.956040
 22
2.481600
 13
4.610320
 23
2.852080
  0
POLYLINE
  8
0
  6
CONTINUOUS
 66
     1
 40
0.000000
 41
0.000000
  0
VERTEX
  8
0
  6
CONTINUOUS
 10
3.925240
 20
2.496120
  0
VERTEX
  8
0
  6
CONTINUOUS
 10
4.579520
 20
2.866600
  0
VERTEX
  8
0
  6
CONTINUOUS
 10
4.610320
 20
2.852080
  0
VERTEX
  8
0
  6
CONTINUOUS
 10
3.956040
 20
2.481600
  0
VERTEX
  8
0
  6
CONTINUOUS
 10
3.925240
 20
2.496120
  0
SEQEND
  8
0
  0
SOLID
  8
0
 62
    15
 10
3.956040
 20
2.481600
 11
4.610320
 21
2.852080
 12
3.982440
 22
2.464000
 13
4.636720
 23
2.834480
  0
POLYLINE
  8
0
  6
CONTINUOUS
 66
     1
 40
0.000000
 41
0.000000
  0
VERTEX
  8
0
  6
CONTINUOUS
 10
3.956040
 20
2.481600
  0
VERTEX
  8
0
  6
CONTINUOUS
 10
4.610320
 20
2.852080
  0
VERTEX
  8
0
  6
CONTINUOUS
 10
4.636720
 20
2.834480
  0
VERTEX
  8
0
  6
CONTINUOUS
 10
3.982440
 20
2.464000
  0
VERTEX
  8
0
  6
CONTINUOUS
 10
3.956040
 20
2.481600
  0
SEQEND
  8
0
  0
SOLID
  8
0
 62
     7
 10
3.982440
 20
2.464000
 11
4.636720
 21
2.834480
 12
4.004440
 22
2.443760
 13
4.658720
 23
2.814240
  0
POLYLINE
  8
0
  6
CONTINUOUS
 66
     1
 40
0.000000
 41
0.000000
  0
VERTEX
  8
0
  6
CONTINUOUS
 10
3.982440
 20
2.464000
  0
VERTEX
  8
0
  6
CONTINUOUS
 10
4.636720
 20
2.834480
  0
VERTEX
  8
0
  6
CONTINUOUS
 10
4.658720
 20
2.814240
  0
VERTEX
  8
0
  6
CONTINUOUS
 10
4.004440
 20
2.443760
  0
VERTEX
  8
0
  6
CONTINUOUS
 10
3.982440
 20
2.464000
  0
SEQEND
  8
0
  0
SOLID
  8
0
 62
     7
 10
4.004440
 20
2.443760
 11
4.658720
 21
2.814240
 12
4.022040
 22
2.421760
 13
4.676320
 23
2.792240
  0
POLYLINE
  8
0
  6
CONTINUOUS
 66
     1
 40
0.000000
 41
0.000000
  0
VERTEX
  8
0
  6
CONTINUOUS
 10
4.004440
 20
2.443760
  0
VERTEX
  8
0
  6
CONTINUOUS
 10
4.658720
 20
2.814240
  0
VERTEX
  8
0
  6
CONTINUOUS
 10
4.676320
 20
2.792240
  0
VERTEX
  8
0
  6
CONTINUOUS
 10
4.022040
 20
2.421760
  0
VERTEX
  8
0
  6
CONTINUOUS
 10
4.004440
 20
2.443760
  0
SEQEND
  8
0
  0
SOLID
  8
0
 62
     7
 10
4.022040
 20
2.421760
 11
4.676320
 21
2.792240
 12
4.034360
 22
2.398000
 13
4.688640
 23
2.768480
  0
POLYLINE
  8
0
  6
CONTINUOUS
 66
     1
 40
0.000000
 41
0.000000
  0
VERTEX
  8
0
  6
CONTINUOUS
 10
4.022040
 20
2.421760
  0
VERTEX
  8
0
  6
CONTINUOUS
 10
4.676320
 20
2.792240
  0
VERTEX
  8
0
  6
CONTINUOUS
 10
4.688640
 20
2.768480
  0
VERTEX
  8
0
  6
CONTINUOUS
 10
4.034360
 20
2.398000
  0
VERTEX
  8
0
  6
CONTINUOUS
 10
4.022040
 20
2.421760
  0
SEQEND
  8
0
  0
SOLID
  8
0
 62
    15
 10
4.034360
 20
2.398000
 11
4.688640
 21
2.768480
 12
4.042280
 22
2.373360
 13
4.696560
 23
2.743840
  0
POLYLINE
  8
0
  6
CONTINUOUS
 66
     1
 40
0.000000
 41
0.000000
  0
VERTEX
  8
0
  6
CONTINUOUS
 10
4.034360
 20
2.398000
  0
VERTEX
  8
0
  6
CONTINUOUS
 10
4.688640
 20
2.768480
  0
VERTEX
  8
0
  6
CONTINUOUS
 10
4.696560
 20
2.743840
  0
VERTEX
  8
0
  6
CONTINUOUS
 10
4.042280
 20
2.373360
  0
VERTEX
  8
0
  6
CONTINUOUS
 10
4.034360
 20
2.398000
  0
SEQEND
  8
0
  0
SOLID
  8
0
 62
    15
 10
4.042280
 20
2.373360
 11
4.696560
 21
2.743840
 12
4.044920
 22
2.348280
 13
4.699200
 23
2.719200
  0
POLYLINE
  8
0
  6
CONTINUOUS
 66
     1
 40
0.000000
 41
0.000000
  0
VERTEX
  8
0
  6
CONTINUOUS
 10
4.042280
 20
2.373360
  0
VERTEX
  8
0
  6
CONTINUOUS
 10
4.696560
 20
2.743840
  0
VERTEX
  8
0
  6
CONTINUOUS
 10
4.699200
 20
2.719200
  0
VERTEX
  8
0
  6
CONTINUOUS
 10
4.044920
 20
2.348280
  0
VERTEX
  8
0
  6
CONTINUOUS
 10
4.042280
 20
2.373360
  0
SEQEND
  8
0
  0
SOLID
  8
0
 62
    15
 10
4.044920
 20
2.348280
 11
4.699200
 21
2.719200
 12
4.042280
 22
2.323640
 13
4.696560
 23
2.694120
  0
POLYLINE
  8
0
  6
CONTINUOUS
 66
     1
 40
0.000000
 41
0.000000
  0
VERTEX
  8
0
  6
CONTINUOUS
 10
4.044920
 20
2.348280
  0
VERTEX
  8
0
  6
CONTINUOUS
 10
4.699200
 20
2.719200
  0
VERTEX
  8
0
  6
CONTINUOUS
 10
4.696560
 20
2.694120
  0
VERTEX
  8
0
  6
CONTINUOUS
 10
4.042280
 20
2.323640
  0
VERTEX
  8
0
  6
CONTINUOUS
 10
4.044920
 20
2.348280
  0
SEQEND
  8
0
  0
SOLID
  8
0
 62
    15
 10
4.042280
 20
2.323640
 11
4.696560
 21
2.694120
 12
4.034800
 22
2.299440
 13
4.689080
 23
2.669920
  0
POLYLINE
  8
0
  6
CONTINUOUS
 66
     1
 40
0.000000
 41
0.000000
  0
VERTEX
  8
0
  6
CONTINUOUS
 10
4.042280
 20
2.323640
  0
VERTEX
  8
0
  6
CONTINUOUS
 10
4.696560
 20
2.694120
  0
VERTEX
  8
0
  6
CONTINUOUS
 10
4.689080
 20
2.669920
  0
VERTEX
  8
0
  6
CONTINUOUS
 10
4.034800
 20
2.299440
  0
VERTEX
  8
0
  6
CONTINUOUS
 10
4.042280
 20
2.323640
  0
SEQEND
  8
0
  0
SOLID
  8
0
 62
    15
 10
4.034800
 20
2.299440
 11
4.689080
 21
2.669920
 12
4.021600
 22
2.276120
 13
4.675880
 23
2.647040
  0
POLYLINE
  8
0
  6
CONTINUOUS
 66
     1
 40
0.000000
 41
0.000000
  0
VERTEX
  8
0
  6
CONTINUOUS
 10
4.034800
 20
2.299440
  0
VERTEX
  8
0
  6
CONTINUOUS
 10
4.689080
 20
2.669920
  0
VERTEX
  8
0
  6
CONTINUOUS
 10
4.675880
 20
2.647040
  0
VERTEX
  8
0
  6
CONTINUOUS
 10
4.021600
 20
2.276120
  0
VERTEX
  8
0
  6
CONTINUOUS
 10
4.034800
 20
2.299440
  0
SEQEND
  8
0
  0
SOLID
  8
0
 62
    15
 10
3.912920
 20
2.206600
 11
4.567200
 21
2.577080
 12
3.911600
 22
2.201760
 13
4.565880
 23
2.572240
  0
POLYLINE
  8
0
  6
CONTINUOUS
 66
     1
 40
0.000000
 41
0.000000
  0
VERTEX
  8
0
  6
CONTINUOUS
 10
3.912920
 20
2.206600
  0
VERTEX
  8
0
  6
CONTINUOUS
 10
4.567200
 20
2.577080
  0
VERTEX
  8
0
  6
CONTINUOUS
 10
4.565880
 20
2.572240
  0
VERTEX
  8
0
  6
CONTINUOUS
 10
3.911600
 20
2.201760
  0
VERTEX
  8
0
  6
CONTINUOUS
 10
3.912920
 20
2.206600
  0
SEQEND
  8
0
  0
SOLID
  8
0
 62
    15
 10
3.911600
 20
2.201760
 11
4.565880
 21
2.572240
 12
3.910720
 22
2.197360
 13
4.565000
 23
2.568280
  0
POLYLINE
  8
0
  6
CONTINUOUS
 66
     1
 40
0.000000
 41
0.000000
  0
VERTEX
  8
0
  6
CONTINUOUS
 10
3.911600
 20
2.201760
  0
VERTEX
  8
0
  6
CONTINUOUS
 10
4.565880
 20
2.572240
  0
VERTEX
  8
0
  6
CONTINUOUS
 10
4.565000
 20
2.568280
  0
VERTEX
  8
0
  6
CONTINUOUS
 10
3.910720
 20
2.197360
  0
VERTEX
  8
0
  6
CONTINUOUS
 10
3.911600
 20
2.201760
  0
SEQEND
  8
0
  0
SOLID
  8
0
 62
    15
 10
4.021600
 20
2.276120
 11
4.675880
 21
2.647040
 12
4.003120
 22
2.255000
 13
4.657400
 23
2.625480
  0
POLYLINE
  8
0
  6
CONTINUOUS
 66
     1
 40
0.000000
 41
0.000000
  0
VERTEX
  8
0
  6
CONTINUOUS
 10
4.021600
 20
2.276120
  0
VERTEX
  8
0
  6
CONTINUOUS
 10
4.675880
 20
2.647040
  0
VERTEX
  8
0
  6
CONTINUOUS
 10
4.657400
 20
2.625480
  0
VERTEX
  8
0
  6
CONTINUOUS
 10
4.003120
 20
2.255000
  0
VERTEX
  8
0
  6
CONTINUOUS
 10
4.021600
 20
2.276120
  0
SEQEND
  8
0
  0
SOLID
  8
0
 62
    15
 10
4.003120
 20
2.255000
 11
4.657400
 21
2.625480
 12
3.978920
 22
2.235640
 13
4.633200
 23
2.606560
  0
POLYLINE
  8
0
  6
CONTINUOUS
 66
     1
 40
0.000000
 41
0.000000
  0
VERTEX
  8
0
  6
CONTINUOUS
 10
4.003120
 20
2.255000
  0
VERTEX
  8
0
  6
CONTINUOUS
 10
4.657400
 20
2.625480
  0
VERTEX
  8
0
  6
CONTINUOUS
 10
4.633200
 20
2.606560
  0
VERTEX
  8
0
  6
CONTINUOUS
 10
3.978920
 20
2.235640
  0
VERTEX
  8
0
  6
CONTINUOUS
 10
4.003120
 20
2.255000
  0
SEQEND
  8
0
  0
SOLID
  8
0
 62
    15
 10
3.652880
 20
2.826120
 11
4.307160
 21
3.196600
 12
3.684560
 22
2.822600
 13
4.338840
 23
3.193080
  0
POLYLINE
  8
0
  6
CONTINUOUS
 66
     1
 40
0.000000
 41
0.000000
  0
VERTEX
  8
0
  6
CONTINUOUS
 10
3.652880
 20
2.826120
  0
VERTEX
  8
0
  6
CONTINUOUS
 10
4.307160
 20
3.196600
  0
VERTEX
  8
0
  6
CONTINUOUS
 10
4.338840
 20
3.193080
  0
VERTEX
  8
0
  6
CONTINUOUS
 10
3.684560
 20
2.822600
  0
VERTEX
  8
0
  6
CONTINUOUS
 10
3.652880
 20
2.826120
  0
SEQEND
  8
0
  0
SOLID
  8
0
 62
    15
 10
3.911600
 20
2.185480
 11
4.565880
 21
2.556400
 12
3.913800
 22
2.175800
 13
4.568520
 23
2.546280
  0
POLYLINE
  8
0
  6
CONTINUOUS
 66
     1
 40
0.000000
 41
0.000000
  0
VERTEX
  8
0
  6
CONTINUOUS
 10
3.911600
 20
2.185480
  0
VERTEX
  8
0
  6
CONTINUOUS
 10
4.565880
 20
2.556400
  0
VERTEX
  8
0
  6
CONTINUOUS
 10
4.568520
 20
2.546280
  0
VERTEX
  8
0
  6
CONTINUOUS
 10
3.913800
 20
2.175800
  0
VERTEX
  8
0
  6
CONTINUOUS
 10
3.911600
 20
2.185480
  0
SEQEND
  8
0
  0
SOLID
  8
0
 62
     7
 10
3.913800
 20
2.175800
 11
4.568520
 21
2.546280
 12
3.918200
 22
2.162160
 13
4.572480
 23
2.532640
  0
POLYLINE
  8
0
  6
CONTINUOUS
 66
     1
 40
0.000000
 41
0.000000
  0
VERTEX
  8
0
  6
CONTINUOUS
 10
3.913800
 20
2.175800
  0
VERTEX
  8
0
  6
CONTINUOUS
 10
4.568520
 20
2.546280
  0
VERTEX
  8
0
  6
CONTINUOUS
 10
4.572480
 20
2.532640
  0
VERTEX
  8
0
  6
CONTINUOUS
 10
3.918200
 20
2.162160
  0
VERTEX
  8
0
  6
CONTINUOUS
 10
3.913800
 20
2.175800
  0
SEQEND
  8
0
  0
SOLID
  8
0
 62
     7
 10
3.918200
 20
2.162160
 11
4.572480
 21
2.532640
 12
3.923920
 22
2.143240
 13
4.578200
 23
2.513720
  0
POLYLINE
  8
0
  6
CONTINUOUS
 66
     1
 40
0.000000
 41
0.000000
  0
VERTEX
  8
0
  6
CONTINUOUS
 10
3.918200
 20
2.162160
  0
VERTEX
  8
0
  6
CONTINUOUS
 10
4.572480
 20
2.532640
  0
VERTEX
  8
0
  6
CONTINUOUS
 10
4.578200
 20
2.513720
  0
VERTEX
  8
0
  6
CONTINUOUS
 10
3.923920
 20
2.143240
  0
VERTEX
  8
0
  6
CONTINUOUS
 10
3.918200
 20
2.162160
  0
SEQEND
  8
0
  0
SOLID
  8
0
 62
     7
 10
3.923920
 20
2.143240
 11
4.578200
 21
2.513720
 12
3.932280
 22
2.117720
 13
4.586560
 23
2.488640
  0
POLYLINE
  8
0
  6
CONTINUOUS
 66
     1
 40
0.000000
 41
0.000000
  0
VERTEX
  8
0
  6
CONTINUOUS
 10
3.923920
 20
2.143240
  0
VERTEX
  8
0
  6
CONTINUOUS
 10
4.578200
 20
2.513720
  0
VERTEX
  8
0
  6
CONTINUOUS
 10
4.586560
 20
2.488640
  0
VERTEX
  8
0
  6
CONTINUOUS
 10
3.932280
 20
2.117720
  0
VERTEX
  8
0
  6
CONTINUOUS
 10
3.923920
 20
2.143240
  0
SEQEND
  8
0
  0
SOLID
  8
0
 62
     7
 10
3.932280
 20
2.117720
 11
4.586560
 21
2.488640
 12
3.951200
 22
2.081200
 13
4.605480
 23
2.451680
  0
POLYLINE
  8
0
  6
CONTINUOUS
 66
     1
 40
0.000000
 41
0.000000
  0
VERTEX
  8
0
  6
CONTINUOUS
 10
3.932280
 20
2.117720
  0
VERTEX
  8
0
  6
CONTINUOUS
 10
4.586560
 20
2.488640
  0
VERTEX
  8
0
  6
CONTINUOUS
 10
4.605480
 20
2.451680
  0
VERTEX
  8
0
  6
CONTINUOUS
 10
3.951200
 20
2.081200
  0
VERTEX
  8
0
  6
CONTINUOUS
 10
3.932280
 20
2.117720
  0
SEQEND
  8
0
  0
SOLID
  8
0
 62
     7
 10
3.951200
 20
2.081200
 11
4.605480
 21
2.451680
 12
3.974960
 22
2.041600
 13
4.629240
 23
2.412080
  0
POLYLINE
  8
0
  6
CONTINUOUS
 66
     1
 40
0.000000
 41
0.000000
  0
VERTEX
  8
0
  6
CONTINUOUS
 10
3.951200
 20
2.081200
  0
VERTEX
  8
0
  6
CONTINUOUS
 10
4.605480
 20
2.451680
  0
VERTEX
  8
0
  6
CONTINUOUS
 10
4.629240
 20
2.412080
  0
VERTEX
  8
0
  6
CONTINUOUS
 10
3.974960
 20
2.041600
  0
VERTEX
  8
0
  6
CONTINUOUS
 10
3.951200
 20
2.081200
  0
SEQEND
  8
0
  0
SOLID
  8
0
 62
     7
 10
3.974960
 20
2.041600
 11
4.629240
 21
2.412080
 12
4.034360
 22
1.955800
 13
4.688640
 23
2.326280
  0
POLYLINE
  8
0
  6
CONTINUOUS
 66
     1
 40
0.000000
 41
0.000000
  0
VERTEX
  8
0
  6
CONTINUOUS
 10
3.974960
 20
2.041600
  0
VERTEX
  8
0
  6
CONTINUOUS
 10
4.629240
 20
2.412080
  0
VERTEX
  8
0
  6
CONTINUOUS
 10
4.688640
 20
2.326280
  0
VERTEX
  8
0
  6
CONTINUOUS
 10
4.034360
 20
1.955800
  0
VERTEX
  8
0
  6
CONTINUOUS
 10
3.974960
 20
2.041600
  0
SEQEND
  8
0
  0
SOLID
  8
0
 62
     7
 10
4.034360
 20
1.955800
 11
4.688640
 21
2.326280
 12
4.103440
 22
1.863840
 13
4.757720
 23
2.234320
  0
POLYLINE
  8
0
  6
CONTINUOUS
 66
     1
 40
0.000000
 41
0.000000
  0
VERTEX
  8
0
  6
CONTINUOUS
 10
4.034360
 20
1.955800
  0
VERTEX
  8
0
  6
CONTINUOUS
 10
4.688640
 20
2.326280
  0
VERTEX
  8
0
  6
CONTINUOUS
 10
4.757720
 20
2.234320
  0
VERTEX
  8
0
  6
CONTINUOUS
 10
4.103440
 20
1.863840
  0
VERTEX
  8
0
  6
CONTINUOUS
 10
4.034360
 20
1.955800
  0
SEQEND
  8
0
  0
SOLID
  8
0
 62
     7
 10
4.103440
 20
1.863840
 11
4.757720
 21
2.234320
 12
4.139080
 22
1.816320
 13
4.793360
 23
2.186800
  0
POLYLINE
  8
0
  6
CONTINUOUS
 66
     1
 40
0.000000
 41
0.000000
  0
VERTEX
  8
0
  6
CONTINUOUS
 10
4.103440
 20
1.863840
  0
VERTEX
  8
0
  6
CONTINUOUS
 10
4.757720
 20
2.234320
  0
VERTEX
  8
0
  6
CONTINUOUS
 10
4.793360
 20
2.186800
  0
VERTEX
  8
0
  6
CONTINUOUS
 10
4.139080
 20
1.816320
  0
VERTEX
  8
0
  6
CONTINUOUS
 10
4.103440
 20
1.863840
  0
SEQEND
  8
0
  0
SOLID
  8
0
 62
     7
 10
4.139080
 20
1.816320
 11
4.793360
 21
2.186800
 12
4.175160
 22
1.768360
 13
4.829440
 23
2.138840
  0
POLYLINE
  8
0
  6
CONTINUOUS
 66
     1
 40
0.000000
 41
0.000000
  0
VERTEX
  8
0
  6
CONTINUOUS
 10
4.139080
 20
1.816320
  0
VERTEX
  8
0
  6
CONTINUOUS
 10
4.793360
 20
2.186800
  0
VERTEX
  8
0
  6
CONTINUOUS
 10
4.829440
 20
2.138840
  0
VERTEX
  8
0
  6
CONTINUOUS
 10
4.175160
 20
1.768360
  0
VERTEX
  8
0
  6
CONTINUOUS
 10
4.139080
 20
1.816320
  0
SEQEND
  8
0
  0
SOLID
  8
0
 62
     7
 10
4.175160
 20
1.768360
 11
4.829440
 21
2.138840
 12
4.242920
 22
1.672440
 13
4.897200
 23
2.043360
  0
POLYLINE
  8
0
  6
CONTINUOUS
 66
     1
 40
0.000000
 41
0.000000
  0
VERTEX
  8
0
  6
CONTINUOUS
 10
4.175160
 20
1.768360
  0
VERTEX
  8
0
  6
CONTINUOUS
 10
4.829440
 20
2.138840
  0
VERTEX
  8
0
  6
CONTINUOUS
 10
4.897200
 20
2.043360
  0
VERTEX
  8
0
  6
CONTINUOUS
 10
4.242920
 20
1.672440
  0
VERTEX
  8
0
  6
CONTINUOUS
 10
4.175160
 20
1.768360
  0
SEQEND
  8
0
  0
SOLID
  8
0
 62
     7
 10
4.242920
 20
1.672440
 11
4.897200
 21
2.043360
 12
4.300120
 22
1.579160
 13
4.954400
 23
1.949640
  0
POLYLINE
  8
0
  6
CONTINUOUS
 66
     1
 40
0.000000
 41
0.000000
  0
VERTEX
  8
0
  6
CONTINUOUS
 10
4.242920
 20
1.672440
  0
VERTEX
  8
0
  6
CONTINUOUS
 10
4.897200
 20
2.043360
  0
VERTEX
  8
0
  6
CONTINUOUS
 10
4.954400
 20
1.949640
  0
VERTEX
  8
0
  6
CONTINUOUS
 10
4.300120
 20
1.579160
  0
VERTEX
  8
0
  6
CONTINUOUS
 10
4.242920
 20
1.672440
  0
SEQEND
  8
0
  0
SOLID
  8
0
 62
     7
 10
4.300120
 20
1.579160
 11
4.954400
 21
1.949640
 12
4.322560
 22
1.534280
 13
4.976840
 23
1.905200
  0
POLYLINE
  8
0
  6
CONTINUOUS
 66
     1
 40
0.000000
 41
0.000000
  0
VERTEX
  8
0
  6
CONTINUOUS
 10
4.300120
 20
1.579160
  0
VERTEX
  8
0
  6
CONTINUOUS
 10
4.954400
 20
1.949640
  0
VERTEX
  8
0
  6
CONTINUOUS
 10
4.976840
 20
1.905200
  0
VERTEX
  8
0
  6
CONTINUOUS
 10
4.322560
 20
1.534280
  0
VERTEX
  8
0
  6
CONTINUOUS
 10
4.300120
 20
1.579160
  0
SEQEND
  8
0
  0
SOLID
  8
0
 62
     7
 10
4.322560
 20
1.534280
 11
4.976840
 21
1.905200
 12
4.339720
 22
1.491160
 13
4.994000
 23
1.862080
  0
POLYLINE
  8
0
  6
CONTINUOUS
 66
     1
 40
0.000000
 41
0.000000
  0
VERTEX
  8
0
  6
CONTINUOUS
 10
4.322560
 20
1.534280
  0
VERTEX
  8
0
  6
CONTINUOUS
 10
4.976840
 20
1.905200
  0
VERTEX
  8
0
  6
CONTINUOUS
 10
4.994000
 20
1.862080
  0
VERTEX
  8
0
  6
CONTINUOUS
 10
4.339720
 20
1.491160
  0
VERTEX
  8
0
  6
CONTINUOUS
 10
4.322560
 20
1.534280
  0
SEQEND
  8
0
  0
SOLID
  8
0
 62
    15
 10
4.339720
 20
1.491160
 11
4.994000
 21
1.862080
 12
4.351160
 22
1.450240
 13
5.005440
 23
1.820720
  0
POLYLINE
  8
0
  6
CONTINUOUS
 66
     1
 40
0.000000
 41
0.000000
  0
VERTEX
  8
0
  6
CONTINUOUS
 10
4.339720
 20
1.491160
  0
VERTEX
  8
0
  6
CONTINUOUS
 10
4.994000
 20
1.862080
  0
VERTEX
  8
0
  6
CONTINUOUS
 10
5.005440
 20
1.820720
  0
VERTEX
  8
0
  6
CONTINUOUS
 10
4.351160
 20
1.450240
  0
VERTEX
  8
0
  6
CONTINUOUS
 10
4.339720
 20
1.491160
  0
SEQEND
  8
0
  0
SOLID
  8
0
 62
    15
 10
4.351160
 20
1.450240
 11
5.005440
 21
1.820720
 12
4.355560
 22
1.411520
 13
5.009840
 23
1.782440
  0
POLYLINE
  8
0
  6
CONTINUOUS
 66
     1
 40
0.000000
 41
0.000000
  0
VERTEX
  8
0
  6
CONTINUOUS
 10
4.351160
 20
1.450240
  0
VERTEX
  8
0
  6
CONTINUOUS
 10
5.005440
 20
1.820720
  0
VERTEX
  8
0
  6
CONTINUOUS
 10
5.009840
 20
1.782440
  0
VERTEX
  8
0
  6
CONTINUOUS
 10
4.355560
 20
1.411520
  0
VERTEX
  8
0
  6
CONTINUOUS
 10
4.351160
 20
1.450240
  0
SEQEND
  8
0
  0
SOLID
  8
0
 62
    15
 10
4.355560
 20
1.411520
 11
5.009840
 21
1.782440
 12
4.354240
 22
1.376320
 13
5.008520
 23
1.747240
  0
POLYLINE
  8
0
  6
CONTINUOUS
 66
     1
 40
0.000000
 41
0.000000
  0
VERTEX
  8
0
  6
CONTINUOUS
 10
4.355560
 20
1.411520
  0
VERTEX
  8
0
  6
CONTINUOUS
 10
5.009840
 20
1.782440
  0
VERTEX
  8
0
  6
CONTINUOUS
 10
5.008520
 20
1.747240
  0
VERTEX
  8
0
  6
CONTINUOUS
 10
4.354240
 20
1.376320
  0
VERTEX
  8
0
  6
CONTINUOUS
 10
4.355560
 20
1.411520
  0
SEQEND
  8
0
  0
SOLID
  8
0
 62
    15
 10
4.354240
 20
1.376320
 11
5.008520
 21
1.747240
 12
4.350280
 22
1.345080
 13
5.004560
 23
1.715560
  0
POLYLINE
  8
0
  6
CONTINUOUS
 66
     1
 40
0.000000
 41
0.000000
  0
VERTEX
  8
0
  6
CONTINUOUS
 10
4.354240
 20
1.376320
  0
VERTEX
  8
0
  6
CONTINUOUS
 10
5.008520
 20
1.747240
  0
VERTEX
  8
0
  6
CONTINUOUS
 10
5.004560
 20
1.715560
  0
VERTEX
  8
0
  6
CONTINUOUS
 10
4.350280
 20
1.345080
  0
VERTEX
  8
0
  6
CONTINUOUS
 10
4.354240
 20
1.376320
  0
SEQEND
  8
0
  0
SOLID
  8
0
 62
    15
 10
4.350280
 20
1.345080
 11
5.004560
 21
1.715560
 12
4.343240
 22
1.317360
 13
4.997520
 23
1.687840
  0
POLYLINE
  8
0
  6
CONTINUOUS
 66
     1
 40
0.000000
 41
0.000000
  0
VERTEX
  8
0
  6
CONTINUOUS
 10
4.350280
 20
1.345080
  0
VERTEX
  8
0
  6
CONTINUOUS
 10
5.004560
 20
1.715560
  0
VERTEX
  8
0
  6
CONTINUOUS
 10
4.997520
 20
1.687840
  0
VERTEX
  8
0
  6
CONTINUOUS
 10
4.343240
 20
1.317360
  0
VERTEX
  8
0
  6
CONTINUOUS
 10
4.350280
 20
1.345080
  0
SEQEND
  8
0
  0
SOLID
  8
0
 62
    15
 10
4.343240
 20
1.317360
 11
4.997520
 21
1.687840
 12
4.334440
 22
1.293160
 13
4.988720
 23
1.664080
  0
POLYLINE
  8
0
  6
CONTINUOUS
 66
     1
 40
0.000000
 41
0.000000
  0
VERTEX
  8
0
  6
CONTINUOUS
 10
4.343240
 20
1.317360
  0
VERTEX
  8
0
  6
CONTINUOUS
 10
4.997520
 20
1.687840
  0
VERTEX
  8
0
  6
CONTINUOUS
 10
4.988720
 20
1.664080
  0
VERTEX
  8
0
  6
CONTINUOUS
 10
4.334440
 20
1.293160
  0
VERTEX
  8
0
  6
CONTINUOUS
 10
4.343240
 20
1.317360
  0
SEQEND
  8
0
  0
SOLID
  8
0
 62
    15
 10
4.334440
 20
1.293160
 11
4.988720
 21
1.664080
 12
4.312440
 22
1.254440
 13
4.966720
 23
1.624920
  0
POLYLINE
  8
0
  6
CONTINUOUS
 66
     1
 40
0.000000
 41
0.000000
  0
VERTEX
  8
0
  6
CONTINUOUS
 10
4.334440
 20
1.293160
  0
VERTEX
  8
0
  6
CONTINUOUS
 10
4.988720
 20
1.664080
  0
VERTEX
  8
0
  6
CONTINUOUS
 10
4.966720
 20
1.624920
  0
VERTEX
  8
0
  6
CONTINUOUS
 10
4.312440
 20
1.254440
  0
VERTEX
  8
0
  6
CONTINUOUS
 10
4.334440
 20
1.293160
  0
SEQEND
  8
0
  0
SOLID
  8
0
 62
    15
 10
4.230160
 20
1.199000
 11
4.884440
 21
1.569480
 12
4.230160
 22
1.032240
 13
4.884440
 23
1.402720
  0
POLYLINE
  8
0
  6
CONTINUOUS
 66
     1
 40
0.000000
 41
0.000000
  0
VERTEX
  8
0
  6
CONTINUOUS
 10
4.230160
 20
1.199000
  0
VERTEX
  8
0
  6
CONTINUOUS
 10
4.884440
 20
1.569480
  0
VERTEX
  8
0
  6
CONTINUOUS
 10
4.884440
 20
1.402720
  0
VERTEX
  8
0
  6
CONTINUOUS
 10
4.230160
 20
1.032240
  0
VERTEX
  8
0
  6
CONTINUOUS
 10
4.230160
 20
1.199000
  0
SEQEND
  8
0
  0
SOLID
  8
0
 62
    15
 10
4.287360
 20
1.227160
 11
4.941640
 21
1.597640
 12
4.262720
 22
1.209560
 13
4.917000
 23
1.580040
  0
POLYLINE
  8
0
  6
CONTINUOUS
 66
     1
 40
0.000000
 41
0.000000
  0
VERTEX
  8
0
  6
CONTINUOUS
 10
4.287360
 20
1.227160
  0
VERTEX
  8
0
  6
CONTINUOUS
 10
4.941640
 20
1.597640
  0
VERTEX
  8
0
  6
CONTINUOUS
 10
4.917000
 20
1.580040
  0
VERTEX
  8
0
  6
CONTINUOUS
 10
4.262720
 20
1.209560
  0
VERTEX
  8
0
  6
CONTINUOUS
 10
4.287360
 20
1.227160
  0
SEQEND
  8
0
  0
SOLID
  8
0
 62
    15
 10
4.312440
 20
1.254440
 11
4.966720
 21
1.624920
 12
4.287360
 22
1.227160
 13
4.941640
 23
1.597640
  0
POLYLINE
  8
0
  6
CONTINUOUS
 66
     1
 40
0.000000
 41
0.000000
  0
VERTEX
  8
0
  6
CONTINUOUS
 10
4.312440
 20
1.254440
  0
VERTEX
  8
0
  6
CONTINUOUS
 10
4.966720
 20
1.624920
  0
VERTEX
  8
0
  6
CONTINUOUS
 10
4.941640
 20
1.597640
  0
VERTEX
  8
0
  6
CONTINUOUS
 10
4.287360
 20
1.227160
  0
VERTEX
  8
0
  6
CONTINUOUS
 10
4.312440
 20
1.254440
  0
SEQEND
  8
0
  0
SOLID
  8
0
 62
    15
 10
3.515160
 20
2.826120
 11
4.169440
 21
3.196600
 12
3.652880
 22
2.826120
 13
4.307160
 23
3.196600
  0
POLYLINE
  8
0
  6
CONTINUOUS
 66
     1
 40
0.000000
 41
0.000000
  0
VERTEX
  8
0
  6
CONTINUOUS
 10
3.515160
 20
2.826120
  0
VERTEX
  8
0
  6
CONTINUOUS
 10
4.169440
 20
3.196600
  0
VERTEX
  8
0
  6
CONTINUOUS
 10
4.307160
 20
3.196600
  0
VERTEX
  8
0
  6
CONTINUOUS
 10
3.652880
 20
2.826120
  0
VERTEX
  8
0
  6
CONTINUOUS
 10
3.515160
 20
2.826120
  0
SEQEND
  8
0
  0
POLYLINE
  8
0
  6
CONTINUOUS
 66
     1
 40
0.000000
 41
0.000000
  0
VERTEX
  8
0
  6
CONTINUOUS
 10
3.652880
 20
2.826120
  0
VERTEX
  8
0
  6
CONTINUOUS
 10
3.684560
 20
2.822600
  0
VERTEX
  8
0
  6
CONTINUOUS
 10
3.718000
 20
2.812040
  0
VERTEX
  8
0
  6
CONTINUOUS
 10
3.751000
 20
2.794000
  0
VERTEX
  8
0
  6
CONTINUOUS
 10
3.782240
 20
2.769360
  0
VERTEX
  8
0
  6
CONTINUOUS
 10
3.809520
 20
2.737240
  0
VERTEX
  8
0
  6
CONTINUOUS
 10
3.831080
 20
2.697640
  0
VERTEX
  8
0
  6
CONTINUOUS
 10
3.845600
 20
2.651000
  0
VERTEX
  8
0
  6
CONTINUOUS
 10
3.850440
 20
2.596880
  0
VERTEX
  8
0
  6
CONTINUOUS
 10
3.850440
 20
2.513720
  0
VERTEX
  8
0
  6
CONTINUOUS
 10
3.890040
 20
2.507120
  0
VERTEX
  8
0
  6
CONTINUOUS
 10
3.925240
 20
2.496120
  0
VERTEX
  8
0
  6
CONTINUOUS
 10
3.956040
 20
2.481600
  0
VERTEX
  8
0
  6
CONTINUOUS
 10
3.982440
 20
2.464000
  0
VERTEX
  8
0
  6
CONTINUOUS
 10
4.004440
 20
2.443760
  0
VERTEX
  8
0
  6
CONTINUOUS
 10
4.022040
 20
2.421760
  0
VERTEX
  8
0
  6
CONTINUOUS
 10
4.034360
 20
2.398000
  0
VERTEX
  8
0
  6
CONTINUOUS
 10
4.042280
 20
2.373360
  0
VERTEX
  8
0
  6
CONTINUOUS
 10
4.044920
 20
2.348280
  0
VERTEX
  8
0
  6
CONTINUOUS
 10
4.042280
 20
2.323640
  0
VERTEX
  8
0
  6
CONTINUOUS
 10
4.034800
 20
2.299440
  0
VERTEX
  8
0
  6
CONTINUOUS
 10
4.021600
 20
2.276120
  0
VERTEX
  8
0
  6
CONTINUOUS
 10
4.003120
 20
2.255000
  0
VERTEX
  8
0
  6
CONTINUOUS
 10
3.978920
 20
2.235640
  0
VERTEX
  8
0
  6
CONTINUOUS
 10
3.949000
 20
2.219360
  0
VERTEX
  8
0
  6
CONTINUOUS
 10
3.912920
 20
2.206600
  0
VERTEX
  8
0
  6
CONTINUOUS
 10
3.910720
 20
2.197360
  0
VERTEX
  8
0
  6
CONTINUOUS
 10
3.911600
 20
2.185480
  0
VERTEX
  8
0
  6
CONTINUOUS
 10
3.932280
 20
2.117720
  0
VERTEX
  8
0
  6
CONTINUOUS
 10
3.951200
 20
2.081200
  0
VERTEX
  8
0
  6
CONTINUOUS
 10
3.974960
 20
2.041600
  0
VERTEX
  8
0
  6
CONTINUOUS
 10
4.034360
 20
1.955800
  0
VERTEX
  8
0
  6
CONTINUOUS
 10
4.175160
 20
1.768360
  0
VERTEX
  8
0
  6
CONTINUOUS
 10
4.242920
 20
1.672440
  0
VERTEX
  8
0
  6
CONTINUOUS
 10
4.300120
 20
1.579160
  0
VERTEX
  8
0
  6
CONTINUOUS
 10
4.322560
 20
1.534280
  0
VERTEX
  8
0
  6
CONTINUOUS
 10
4.339720
 20
1.491160
  0
VERTEX
  8
0
  6
CONTINUOUS
 10
4.351160
 20
1.450240
  0
VERTEX
  8
0
  6
CONTINUOUS
 10
4.355560
 20
1.411520
  0
VERTEX
  8
0
  6
CONTINUOUS
 10
4.354240
 20
1.376320
  0
VERTEX
  8
0
  6
CONTINUOUS
 10
4.350280
 20
1.345080
  0
VERTEX
  8
0
  6
CONTINUOUS
 10
4.343240
 20
1.317360
  0
VERTEX
  8
0
  6
CONTINUOUS
 10
4.334440
 20
1.293160
  0
VERTEX
  8
0
  6
CONTINUOUS
 10
4.312440
 20
1.254440
  0
VERTEX
  8
0
  6
CONTINUOUS
 10
4.287360
 20
1.227160
  0
VERTEX
  8
0
  6
CONTINUOUS
 10
4.262720
 20
1.209560
  0
VERTEX
  8
0
  6
CONTINUOUS
 10
4.242480
 20
1.199880
  0
VERTEX
  8
0
  6
CONTINUOUS
 10
4.230600
 20
1.196800
  0
VERTEX
  8
0
  6
CONTINUOUS
 10
4.230160
 20
1.199000
  0
VERTEX
  8
0
  6
CONTINUOUS
 10
4.230160
 20
1.032240
  0
VERTEX
  8
0
  6
CONTINUOUS
 10
3.515160
 20
1.032240
  0
VERTEX
  8
0
  6
CONTINUOUS
 10
3.515160
 20
2.826120
  0
VERTEX
  8
0
  6
CONTINUOUS
 10
3.652880
 20
2.826120
  0
SEQEND
  8
0
  0
TEXT
  8
0
 10
3.965280
 20
0.804760
 40
0.138144
  1
BA  419
 41
1.000000
  7
SN0
 71
     0
 72
     5
 11
4.555784
 21
0.804760
  0
TEXT
  8
0
 10
3.717120
 20
0.612920
 40
0.138144
  1
7/8" x 1-13/16"
 41
1.000000
  7
SN0
 71
     0
 72
     5
 11
4.802856
 21
0.612920
  0
ENDSEC
  0
EOF
