  0
SECTION
  2
HEADER
  9
$ACADVER
  1
AC1006
  9
$EXTMIN
 10
6.824840
 20
0.400400
  9
$EXTMAX
 10
8.072680
 20
2.709080
  9
$LTSCALE
 40
0.044000
  9
$PDMODE
 70
    35
  9
$PDSIZE
 40
0.035200
  0
ENDSEC
  0
SECTION
  2
TABLES
  0
TABLE
  2
LTYPE
 70
     9
  0
LTYPE
  2
CONTINUOUS
 70
    64
  3
Solid line
 72
    65
 73
     0
 40
0.000000
  0
LTYPE
  2
DASHED
 70
    64
  3
__ __ __ __ __ __ __ __ __ __ __ __ __ __ __
 72
    65
 73
     2
 40
0.000330
 49
0.000220
 49
-0.000110
  0
LTYPE
  2
HIDDEN
 70
    64
  3
 _ _ _ _ _ _ _ _ _ _ _ _ _ _ _ _ _ _ _ _ _ _
 72
    65
 73
     2
 40
0.000165
 49
0.000110
 49
-0.000055
  0
LTYPE
  2
CENTER
 70
    64
  3
____ _ ____ _ ____ _ ____ _ ____ _ ____ _ ____
 72
    65
 73
     4
 40
0.000880
 49
0.000550
 49
-0.000110
 49
0.000110
 49
-0.000110
  0
LTYPE
  2
PHANTOM
 70
    64
  3
_____ _ _ _____ _ _ _____ _ _ _____ _ _ ____
 72
    65
 73
     6
 40
0.001100
 49
0.000550
 49
-0.000110
 49
0.000110
 49
-0.000110
 49
0.000110
 49
-0.000110
  0
LTYPE
  2
DOT
 70
    64
  3
...............................................
 72
    65
 73
     2
 40
0.000110
 49
0.000000
 49
-0.000110
  0
LTYPE
  2
DASHDOT
 70
    64
  3
__ . __ . __ . __ . __ . __ . __ . __ . __ . __
 72
    65
 73
     4
 40
0.000440
 49
0.000220
 49
-0.000110
 49
0.000000
 49
-0.000110
  0
LTYPE
  2
BORDER
 70
    64
  3
__ __ . __ __ . __ __ . __ __ . __ __ . __ __
 72
    65
 73
     6
 40
0.000770
 49
0.000220
 49
-0.000110
 49
0.000220
 49
-0.000110
 49
0.000000
 49
-0.000110
  0
LTYPE
  2
DIVIDE
 70
    64
  3
__ . . __ . . __ . . __ . . __ . . __ . . __
 72
    65
 73
     6
 40
0.000550
 49
0.000220
 49
-0.000110
 49
0.000000
 49
-0.000110
 49
0.000000
 49
-0.000110
  0
LTYPE
  2
DOTDOT
 70
    64
  3
 . .  . .  . .  . .  . .  . . 
 72
    65
 73
     5
 40
0.000242
 49
-0.000110
 49
0.000000
 49
-0.000110
 49
0.000000
 49
-0.000110
  0
ENDTAB
  0
TABLE
  2
STYLE
 70
     2
  0
STYLE
 70
     0
  2
SN0
 40
0.000000
 41
0.000440
 50
0.000000
 71
     0
 42
0.000000
  3
ROMAND
  0
STYLE
 70
    68
  2
SV0
 40
0.000000
 41
0.000440
 50
0.000000
 71
     0
 42
0.000000
  3
ROMAND
  0
ENDTAB
  0
TABLE
  2
LAYER
 70
     3
  0
LAYER
  2
FOREGROUND
 70
    64
 62
     7
  6
CONTINUOUS
  0
LAYER
  2
BACKGROUND
 70
    65
 62
    -7
  6
CONTINUOUS
  0
LAYER
  2
0
 70
    64
 62
     7
  6
CONTINUOUS
  0
ENDTAB
  0
ENDSEC
  0
SECTION
  2
ENTITIES
  0
POLYLINE
  8
FOREGROUND
  6
CONTINUOUS
 66
     1
 40
0.000000
 41
0.000000
  0
VERTEX
  8
FOREGROUND
  6
CONTINUOUS
 10
0.000000
 20
3.109480
  0
VERTEX
  8
FOREGROUND
  6
CONTINUOUS
 10
8.499920
 20
3.109480
  0
VERTEX
  8
FOREGROUND
  6
CONTINUOUS
 10
8.499920
 20
-7.890520
  0
VERTEX
  8
FOREGROUND
  6
CONTINUOUS
 10
0.000000
 20
-7.890520
  0
VERTEX
  8
FOREGROUND
  6
CONTINUOUS
 10
0.000000
 20
3.109480
  0
SEQEND
  8
0
  0
POLYLINE
  8
0
  6
CONTINUOUS
 66
     1
 40
0.014080
 41
0.014080
  0
VERTEX
  8
0
  6
CONTINUOUS
 10
7.871160
 20
2.326280
  0
VERTEX
  8
0
  6
CONTINUOUS
 10
7.739160
 20
2.326280
  0
VERTEX
  8
0
  6
CONTINUOUS
 10
7.739160
 20
2.374240
  0
VERTEX
  8
0
  6
CONTINUOUS
 10
7.711440
 20
2.374680
  0
VERTEX
  8
0
  6
CONTINUOUS
 10
7.685040
 20
2.376440
  0
VERTEX
  8
0
  6
CONTINUOUS
 10
7.637520
 20
2.383480
  0
VERTEX
  8
0
  6
CONTINUOUS
 10
7.615960
 20
2.387880
  0
VERTEX
  8
0
  6
CONTINUOUS
 10
7.577240
 20
2.399760
  0
VERTEX
  8
0
  6
CONTINUOUS
 10
7.544240
 20
2.414720
  0
VERTEX
  8
0
  6
CONTINUOUS
 10
7.516520
 20
2.431440
  0
VERTEX
  8
0
  6
CONTINUOUS
 10
7.483960
 20
2.458720
  0
VERTEX
  8
0
  6
CONTINUOUS
 10
7.468120
 20
2.477640
  0
VERTEX
  8
0
  6
CONTINUOUS
 10
7.385400
 20
2.477640
  0
VERTEX
  8
0
  6
CONTINUOUS
 10
7.381440
 20
2.497440
  0
VERTEX
  8
0
  6
CONTINUOUS
 10
7.370880
 20
2.521640
  0
VERTEX
  8
0
  6
CONTINUOUS
 10
7.352400
 20
2.548920
  0
VERTEX
  8
0
  6
CONTINUOUS
 10
7.340520
 20
2.562560
  0
VERTEX
  8
0
  6
CONTINUOUS
 10
7.309280
 20
2.588520
  0
VERTEX
  8
0
  6
CONTINUOUS
 10
7.279360
 20
2.606120
  0
VERTEX
  8
0
  6
CONTINUOUS
 10
7.243720
 20
2.620640
  0
VERTEX
  8
0
  6
CONTINUOUS
 10
7.216440
 20
2.628120
  0
VERTEX
  8
0
  6
CONTINUOUS
 10
7.169800
 20
2.635160
  0
VERTEX
  8
0
  6
CONTINUOUS
 10
7.134600
 20
2.636920
  0
VERTEX
  8
0
  6
CONTINUOUS
 10
7.116120
 20
2.636480
  0
VERTEX
  8
0
  6
CONTINUOUS
 10
7.116120
 20
2.701600
  0
VERTEX
  8
0
  6
CONTINUOUS
 10
6.961240
 20
2.701600
  0
VERTEX
  8
0
  6
CONTINUOUS
 10
6.961240
 20
2.256320
  0
VERTEX
  8
0
  6
CONTINUOUS
 10
7.871600
 20
2.256320
  0
VERTEX
  8
0
  6
CONTINUOUS
 10
7.871160
 20
2.326280
  0
SEQEND
  8
0
  0
SOLID
  8
0
 62
    15
 10
7.403880
 20
1.106160
 11
7.402120
 21
1.850200
 12
7.414440
 22
1.081520
 13
7.412680
 23
1.826000
  0
POLYLINE
  8
0
  6
CONTINUOUS
 66
     1
 40
0.000000
 41
0.000000
  0
VERTEX
  8
0
  6
CONTINUOUS
 10
7.403880
 20
1.106160
  0
VERTEX
  8
0
  6
CONTINUOUS
 10
7.402120
 20
1.850200
  0
VERTEX
  8
0
  6
CONTINUOUS
 10
7.412680
 20
1.826000
  0
VERTEX
  8
0
  6
CONTINUOUS
 10
7.414440
 20
1.081520
  0
VERTEX
  8
0
  6
CONTINUOUS
 10
7.403880
 20
1.106160
  0
SEQEND
  8
0
  0
SOLID
  8
0
 62
    15
 10
7.149120
 20
1.221000
 11
7.147360
 21
1.965040
 12
7.186080
 22
1.220560
 13
7.184320
 23
1.965040
  0
POLYLINE
  8
0
  6
CONTINUOUS
 66
     1
 40
0.000000
 41
0.000000
  0
VERTEX
  8
0
  6
CONTINUOUS
 10
7.149120
 20
1.221000
  0
VERTEX
  8
0
  6
CONTINUOUS
 10
7.147360
 20
1.965040
  0
VERTEX
  8
0
  6
CONTINUOUS
 10
7.184320
 20
1.965040
  0
VERTEX
  8
0
  6
CONTINUOUS
 10
7.186080
 20
1.220560
  0
VERTEX
  8
0
  6
CONTINUOUS
 10
7.149120
 20
1.221000
  0
SEQEND
  8
0
  0
SOLID
  8
0
 62
    15
 10
6.994680
 20
0.840840
 11
6.992920
 21
1.584880
 12
6.994680
 22
1.285680
 13
6.992920
 23
2.030160
  0
POLYLINE
  8
0
  6
CONTINUOUS
 66
     1
 40
0.000000
 41
0.000000
  0
VERTEX
  8
0
  6
CONTINUOUS
 10
6.994680
 20
0.840840
  0
VERTEX
  8
0
  6
CONTINUOUS
 10
6.992920
 20
1.584880
  0
VERTEX
  8
0
  6
CONTINUOUS
 10
6.992920
 20
2.030160
  0
VERTEX
  8
0
  6
CONTINUOUS
 10
6.994680
 20
1.285680
  0
VERTEX
  8
0
  6
CONTINUOUS
 10
6.994680
 20
0.840840
  0
SEQEND
  8
0
  0
SOLID
  8
0
 62
    15
 10
7.186080
 20
1.220560
 11
7.184320
 21
1.965040
 12
7.219080
 22
1.217920
 13
7.217760
 23
1.961960
  0
POLYLINE
  8
0
  6
CONTINUOUS
 66
     1
 40
0.000000
 41
0.000000
  0
VERTEX
  8
0
  6
CONTINUOUS
 10
7.186080
 20
1.220560
  0
VERTEX
  8
0
  6
CONTINUOUS
 10
7.184320
 20
1.965040
  0
VERTEX
  8
0
  6
CONTINUOUS
 10
7.217760
 20
1.961960
  0
VERTEX
  8
0
  6
CONTINUOUS
 10
7.219080
 20
1.217920
  0
VERTEX
  8
0
  6
CONTINUOUS
 10
7.186080
 20
1.220560
  0
SEQEND
  8
0
  0
SOLID
  8
0
 62
    15
 10
7.219080
 20
1.217920
 11
7.217760
 21
1.961960
 12
7.249440
 22
1.212640
 13
7.247680
 23
1.956680
  0
POLYLINE
  8
0
  6
CONTINUOUS
 66
     1
 40
0.000000
 41
0.000000
  0
VERTEX
  8
0
  6
CONTINUOUS
 10
7.219080
 20
1.217920
  0
VERTEX
  8
0
  6
CONTINUOUS
 10
7.217760
 20
1.961960
  0
VERTEX
  8
0
  6
CONTINUOUS
 10
7.247680
 20
1.956680
  0
VERTEX
  8
0
  6
CONTINUOUS
 10
7.249440
 20
1.212640
  0
VERTEX
  8
0
  6
CONTINUOUS
 10
7.219080
 20
1.217920
  0
SEQEND
  8
0
  0
SOLID
  8
0
 62
    15
 10
7.249440
 20
1.212640
 11
7.247680
 21
1.956680
 12
7.277160
 22
1.205160
 13
7.275400
 23
1.949200
  0
POLYLINE
  8
0
  6
CONTINUOUS
 66
     1
 40
0.000000
 41
0.000000
  0
VERTEX
  8
0
  6
CONTINUOUS
 10
7.249440
 20
1.212640
  0
VERTEX
  8
0
  6
CONTINUOUS
 10
7.247680
 20
1.956680
  0
VERTEX
  8
0
  6
CONTINUOUS
 10
7.275400
 20
1.949200
  0
VERTEX
  8
0
  6
CONTINUOUS
 10
7.277160
 20
1.205160
  0
VERTEX
  8
0
  6
CONTINUOUS
 10
7.249440
 20
1.212640
  0
SEQEND
  8
0
  0
SOLID
  8
0
 62
    15
 10
7.277160
 20
1.205160
 11
7.275400
 21
1.949200
 12
7.301360
 22
1.195920
 13
7.299600
 23
1.939960
  0
POLYLINE
  8
0
  6
CONTINUOUS
 66
     1
 40
0.000000
 41
0.000000
  0
VERTEX
  8
0
  6
CONTINUOUS
 10
7.277160
 20
1.205160
  0
VERTEX
  8
0
  6
CONTINUOUS
 10
7.275400
 20
1.949200
  0
VERTEX
  8
0
  6
CONTINUOUS
 10
7.299600
 20
1.939960
  0
VERTEX
  8
0
  6
CONTINUOUS
 10
7.301360
 20
1.195920
  0
VERTEX
  8
0
  6
CONTINUOUS
 10
7.277160
 20
1.205160
  0
SEQEND
  8
0
  0
SOLID
  8
0
 62
    15
 10
7.301360
 20
1.195920
 11
7.299600
 21
1.939960
 12
7.323360
 22
1.184920
 13
7.321600
 23
1.929400
  0
POLYLINE
  8
0
  6
CONTINUOUS
 66
     1
 40
0.000000
 41
0.000000
  0
VERTEX
  8
0
  6
CONTINUOUS
 10
7.301360
 20
1.195920
  0
VERTEX
  8
0
  6
CONTINUOUS
 10
7.299600
 20
1.939960
  0
VERTEX
  8
0
  6
CONTINUOUS
 10
7.321600
 20
1.929400
  0
VERTEX
  8
0
  6
CONTINUOUS
 10
7.323360
 20
1.184920
  0
VERTEX
  8
0
  6
CONTINUOUS
 10
7.301360
 20
1.195920
  0
SEQEND
  8
0
  0
SOLID
  8
0
 62
    15
 10
7.323360
 20
1.184920
 11
7.321600
 21
1.929400
 12
7.342720
 22
1.173040
 13
7.340960
 23
1.917520
  0
POLYLINE
  8
0
  6
CONTINUOUS
 66
     1
 40
0.000000
 41
0.000000
  0
VERTEX
  8
0
  6
CONTINUOUS
 10
7.323360
 20
1.184920
  0
VERTEX
  8
0
  6
CONTINUOUS
 10
7.321600
 20
1.929400
  0
VERTEX
  8
0
  6
CONTINUOUS
 10
7.340960
 20
1.917520
  0
VERTEX
  8
0
  6
CONTINUOUS
 10
7.342720
 20
1.173040
  0
VERTEX
  8
0
  6
CONTINUOUS
 10
7.323360
 20
1.184920
  0
SEQEND
  8
0
  0
SOLID
  8
0
 62
    15
 10
7.342720
 20
1.173040
 11
7.340960
 21
1.917520
 12
7.359440
 22
1.160280
 13
7.357680
 23
1.904760
  0
POLYLINE
  8
0
  6
CONTINUOUS
 66
     1
 40
0.000000
 41
0.000000
  0
VERTEX
  8
0
  6
CONTINUOUS
 10
7.342720
 20
1.173040
  0
VERTEX
  8
0
  6
CONTINUOUS
 10
7.340960
 20
1.917520
  0
VERTEX
  8
0
  6
CONTINUOUS
 10
7.357680
 20
1.904760
  0
VERTEX
  8
0
  6
CONTINUOUS
 10
7.359440
 20
1.160280
  0
VERTEX
  8
0
  6
CONTINUOUS
 10
7.342720
 20
1.173040
  0
SEQEND
  8
0
  0
SOLID
  8
0
 62
    15
 10
7.359440
 20
1.160280
 11
7.357680
 21
1.904760
 12
7.373520
 22
1.146640
 13
7.371760
 23
1.891120
  0
POLYLINE
  8
0
  6
CONTINUOUS
 66
     1
 40
0.000000
 41
0.000000
  0
VERTEX
  8
0
  6
CONTINUOUS
 10
7.359440
 20
1.160280
  0
VERTEX
  8
0
  6
CONTINUOUS
 10
7.357680
 20
1.904760
  0
VERTEX
  8
0
  6
CONTINUOUS
 10
7.371760
 20
1.891120
  0
VERTEX
  8
0
  6
CONTINUOUS
 10
7.373520
 20
1.146640
  0
VERTEX
  8
0
  6
CONTINUOUS
 10
7.359440
 20
1.160280
  0
SEQEND
  8
0
  0
SOLID
  8
0
 62
    15
 10
7.373520
 20
1.146640
 11
7.371760
 21
1.891120
 12
7.385840
 22
1.133000
 13
7.384080
 23
1.877480
  0
POLYLINE
  8
0
  6
CONTINUOUS
 66
     1
 40
0.000000
 41
0.000000
  0
VERTEX
  8
0
  6
CONTINUOUS
 10
7.373520
 20
1.146640
  0
VERTEX
  8
0
  6
CONTINUOUS
 10
7.371760
 20
1.891120
  0
VERTEX
  8
0
  6
CONTINUOUS
 10
7.384080
 20
1.877480
  0
VERTEX
  8
0
  6
CONTINUOUS
 10
7.385840
 20
1.133000
  0
VERTEX
  8
0
  6
CONTINUOUS
 10
7.373520
 20
1.146640
  0
SEQEND
  8
0
  0
SOLID
  8
0
 62
    15
 10
7.385840
 20
1.133000
 11
7.384080
 21
1.877480
 12
7.403880
 22
1.106160
 13
7.402120
 23
1.850200
  0
POLYLINE
  8
0
  6
CONTINUOUS
 66
     1
 40
0.000000
 41
0.000000
  0
VERTEX
  8
0
  6
CONTINUOUS
 10
7.385840
 20
1.133000
  0
VERTEX
  8
0
  6
CONTINUOUS
 10
7.384080
 20
1.877480
  0
VERTEX
  8
0
  6
CONTINUOUS
 10
7.402120
 20
1.850200
  0
VERTEX
  8
0
  6
CONTINUOUS
 10
7.403880
 20
1.106160
  0
VERTEX
  8
0
  6
CONTINUOUS
 10
7.385840
 20
1.133000
  0
SEQEND
  8
0
  0
SOLID
  8
0
 62
    15
 10
6.994680
 20
1.285680
 11
6.992920
 21
2.030160
 12
7.149120
 22
1.285680
 13
7.147360
 23
2.030160
  0
POLYLINE
  8
0
  6
CONTINUOUS
 66
     1
 40
0.000000
 41
0.000000
  0
VERTEX
  8
0
  6
CONTINUOUS
 10
6.994680
 20
1.285680
  0
VERTEX
  8
0
  6
CONTINUOUS
 10
6.992920
 20
2.030160
  0
VERTEX
  8
0
  6
CONTINUOUS
 10
7.147360
 20
2.030160
  0
VERTEX
  8
0
  6
CONTINUOUS
 10
7.149120
 20
1.285680
  0
VERTEX
  8
0
  6
CONTINUOUS
 10
6.994680
 20
1.285680
  0
SEQEND
  8
0
  0
SOLID
  8
0
 62
    15
 10
7.414440
 20
1.081520
 11
7.412680
 21
1.826000
 12
7.417520
 22
1.070960
 13
7.415760
 23
1.815440
  0
POLYLINE
  8
0
  6
CONTINUOUS
 66
     1
 40
0.000000
 41
0.000000
  0
VERTEX
  8
0
  6
CONTINUOUS
 10
7.414440
 20
1.081520
  0
VERTEX
  8
0
  6
CONTINUOUS
 10
7.412680
 20
1.826000
  0
VERTEX
  8
0
  6
CONTINUOUS
 10
7.415760
 20
1.815440
  0
VERTEX
  8
0
  6
CONTINUOUS
 10
7.417520
 20
1.070960
  0
VERTEX
  8
0
  6
CONTINUOUS
 10
7.414440
 20
1.081520
  0
SEQEND
  8
0
  0
SOLID
  8
0
 62
    15
 10
7.417520
 20
1.070960
 11
7.415760
 21
1.815440
 12
7.418840
 22
1.061720
 13
7.417080
 23
1.806200
  0
POLYLINE
  8
0
  6
CONTINUOUS
 66
     1
 40
0.000000
 41
0.000000
  0
VERTEX
  8
0
  6
CONTINUOUS
 10
7.417520
 20
1.070960
  0
VERTEX
  8
0
  6
CONTINUOUS
 10
7.415760
 20
1.815440
  0
VERTEX
  8
0
  6
CONTINUOUS
 10
7.417080
 20
1.806200
  0
VERTEX
  8
0
  6
CONTINUOUS
 10
7.418840
 20
1.061720
  0
VERTEX
  8
0
  6
CONTINUOUS
 10
7.417520
 20
1.070960
  0
SEQEND
  8
0
  0
SOLID
  8
0
 62
    15
 10
7.418840
 20
1.061720
 11
7.417080
 21
1.806200
 12
7.501560
 22
1.061720
 13
7.499800
 23
1.806200
  0
POLYLINE
  8
0
  6
CONTINUOUS
 66
     1
 40
0.000000
 41
0.000000
  0
VERTEX
  8
0
  6
CONTINUOUS
 10
7.418840
 20
1.061720
  0
VERTEX
  8
0
  6
CONTINUOUS
 10
7.417080
 20
1.806200
  0
VERTEX
  8
0
  6
CONTINUOUS
 10
7.499800
 20
1.806200
  0
VERTEX
  8
0
  6
CONTINUOUS
 10
7.501560
 20
1.061720
  0
VERTEX
  8
0
  6
CONTINUOUS
 10
7.418840
 20
1.061720
  0
SEQEND
  8
0
  0
SOLID
  8
0
 62
    15
 10
7.501560
 20
1.061720
 11
7.499800
 21
1.806200
 12
7.517400
 22
1.042800
 13
7.515640
 23
1.787280
  0
POLYLINE
  8
0
  6
CONTINUOUS
 66
     1
 40
0.000000
 41
0.000000
  0
VERTEX
  8
0
  6
CONTINUOUS
 10
7.501560
 20
1.061720
  0
VERTEX
  8
0
  6
CONTINUOUS
 10
7.499800
 20
1.806200
  0
VERTEX
  8
0
  6
CONTINUOUS
 10
7.515640
 20
1.787280
  0
VERTEX
  8
0
  6
CONTINUOUS
 10
7.517400
 20
1.042800
  0
VERTEX
  8
0
  6
CONTINUOUS
 10
7.501560
 20
1.061720
  0
SEQEND
  8
0
  0
SOLID
  8
0
 62
    15
 10
7.517400
 20
1.042800
 11
7.515640
 21
1.787280
 12
7.537640
 22
1.024320
 13
7.536320
 23
1.768800
  0
POLYLINE
  8
0
  6
CONTINUOUS
 66
     1
 40
0.000000
 41
0.000000
  0
VERTEX
  8
0
  6
CONTINUOUS
 10
7.517400
 20
1.042800
  0
VERTEX
  8
0
  6
CONTINUOUS
 10
7.515640
 20
1.787280
  0
VERTEX
  8
0
  6
CONTINUOUS
 10
7.536320
 20
1.768800
  0
VERTEX
  8
0
  6
CONTINUOUS
 10
7.537640
 20
1.024320
  0
VERTEX
  8
0
  6
CONTINUOUS
 10
7.517400
 20
1.042800
  0
SEQEND
  8
0
  0
SOLID
  8
0
 62
    15
 10
7.537640
 20
1.024320
 11
7.536320
 21
1.768800
 12
7.563160
 22
1.007160
 13
7.561400
 23
1.751200
  0
POLYLINE
  8
0
  6
CONTINUOUS
 66
     1
 40
0.000000
 41
0.000000
  0
VERTEX
  8
0
  6
CONTINUOUS
 10
7.537640
 20
1.024320
  0
VERTEX
  8
0
  6
CONTINUOUS
 10
7.536320
 20
1.768800
  0
VERTEX
  8
0
  6
CONTINUOUS
 10
7.561400
 20
1.751200
  0
VERTEX
  8
0
  6
CONTINUOUS
 10
7.563160
 20
1.007160
  0
VERTEX
  8
0
  6
CONTINUOUS
 10
7.537640
 20
1.024320
  0
SEQEND
  8
0
  0
SOLID
  8
0
 62
    15
 10
7.563160
 20
1.007160
 11
7.561400
 21
1.751200
 12
7.593520
 22
0.991320
 13
7.591760
 23
1.735800
  0
POLYLINE
  8
0
  6
CONTINUOUS
 66
     1
 40
0.000000
 41
0.000000
  0
VERTEX
  8
0
  6
CONTINUOUS
 10
7.563160
 20
1.007160
  0
VERTEX
  8
0
  6
CONTINUOUS
 10
7.561400
 20
1.751200
  0
VERTEX
  8
0
  6
CONTINUOUS
 10
7.591760
 20
1.735800
  0
VERTEX
  8
0
  6
CONTINUOUS
 10
7.593520
 20
0.991320
  0
VERTEX
  8
0
  6
CONTINUOUS
 10
7.563160
 20
1.007160
  0
SEQEND
  8
0
  0
SOLID
  8
0
 62
    15
 10
7.593520
 20
0.991320
 11
7.591760
 21
1.735800
 12
7.629160
 22
0.978120
 13
7.627400
 23
1.722160
  0
POLYLINE
  8
0
  6
CONTINUOUS
 66
     1
 40
0.000000
 41
0.000000
  0
VERTEX
  8
0
  6
CONTINUOUS
 10
7.593520
 20
0.991320
  0
VERTEX
  8
0
  6
CONTINUOUS
 10
7.591760
 20
1.735800
  0
VERTEX
  8
0
  6
CONTINUOUS
 10
7.627400
 20
1.722160
  0
VERTEX
  8
0
  6
CONTINUOUS
 10
7.629160
 20
0.978120
  0
VERTEX
  8
0
  6
CONTINUOUS
 10
7.593520
 20
0.991320
  0
SEQEND
  8
0
  0
SOLID
  8
0
 62
    15
 10
7.629160
 20
0.978120
 11
7.627400
 21
1.722160
 12
7.670520
 22
0.967560
 13
7.668760
 23
1.712040
  0
POLYLINE
  8
0
  6
CONTINUOUS
 66
     1
 40
0.000000
 41
0.000000
  0
VERTEX
  8
0
  6
CONTINUOUS
 10
7.629160
 20
0.978120
  0
VERTEX
  8
0
  6
CONTINUOUS
 10
7.627400
 20
1.722160
  0
VERTEX
  8
0
  6
CONTINUOUS
 10
7.668760
 20
1.712040
  0
VERTEX
  8
0
  6
CONTINUOUS
 10
7.670520
 20
0.967560
  0
VERTEX
  8
0
  6
CONTINUOUS
 10
7.629160
 20
0.978120
  0
SEQEND
  8
0
  0
SOLID
  8
0
 62
    15
 10
7.670520
 20
0.967560
 11
7.668760
 21
1.712040
 12
7.718480
 22
0.960960
 13
7.716720
 23
1.705000
  0
POLYLINE
  8
0
  6
CONTINUOUS
 66
     1
 40
0.000000
 41
0.000000
  0
VERTEX
  8
0
  6
CONTINUOUS
 10
7.670520
 20
0.967560
  0
VERTEX
  8
0
  6
CONTINUOUS
 10
7.668760
 20
1.712040
  0
VERTEX
  8
0
  6
CONTINUOUS
 10
7.716720
 20
1.705000
  0
VERTEX
  8
0
  6
CONTINUOUS
 10
7.718480
 20
0.960960
  0
VERTEX
  8
0
  6
CONTINUOUS
 10
7.670520
 20
0.967560
  0
SEQEND
  8
0
  0
SOLID
  8
0
 62
    15
 10
7.772600
 20
0.910360
 11
7.770840
 21
1.654840
 12
7.904160
 22
0.910360
 13
7.902400
 23
1.654840
  0
POLYLINE
  8
0
  6
CONTINUOUS
 66
     1
 40
0.000000
 41
0.000000
  0
VERTEX
  8
0
  6
CONTINUOUS
 10
7.772600
 20
0.910360
  0
VERTEX
  8
0
  6
CONTINUOUS
 10
7.770840
 20
1.654840
  0
VERTEX
  8
0
  6
CONTINUOUS
 10
7.902400
 20
1.654840
  0
VERTEX
  8
0
  6
CONTINUOUS
 10
7.904160
 20
0.910360
  0
VERTEX
  8
0
  6
CONTINUOUS
 10
7.772600
 20
0.910360
  0
SEQEND
  8
0
  0
SOLID
  8
0
 62
    15
 10
7.718480
 20
0.960960
 11
7.716720
 21
1.705000
 12
7.772600
 22
0.958320
 13
7.770840
 23
1.702800
  0
POLYLINE
  8
0
  6
CONTINUOUS
 66
     1
 40
0.000000
 41
0.000000
  0
VERTEX
  8
0
  6
CONTINUOUS
 10
7.718480
 20
0.960960
  0
VERTEX
  8
0
  6
CONTINUOUS
 10
7.716720
 20
1.705000
  0
VERTEX
  8
0
  6
CONTINUOUS
 10
7.770840
 20
1.702800
  0
VERTEX
  8
0
  6
CONTINUOUS
 10
7.772600
 20
0.958320
  0
VERTEX
  8
0
  6
CONTINUOUS
 10
7.718480
 20
0.960960
  0
SEQEND
  8
0
  0
SOLID
  8
0
 62
    15
 10
7.904160
 20
0.910360
 11
7.902400
 21
1.654840
 12
7.905040
 22
0.910360
 13
7.903280
 23
1.654840
  0
POLYLINE
  8
0
  6
CONTINUOUS
 66
     1
 40
0.000000
 41
0.000000
  0
VERTEX
  8
0
  6
CONTINUOUS
 10
7.904160
 20
0.910360
  0
VERTEX
  8
0
  6
CONTINUOUS
 10
7.902400
 20
1.654840
  0
VERTEX
  8
0
  6
CONTINUOUS
 10
7.903280
 20
1.654840
  0
VERTEX
  8
0
  6
CONTINUOUS
 10
7.905040
 20
0.910360
  0
VERTEX
  8
0
  6
CONTINUOUS
 10
7.904160
 20
0.910360
  0
SEQEND
  8
0
  0
POLYLINE
  8
0
  6
CONTINUOUS
 66
     1
 40
0.000000
 41
0.000000
  0
VERTEX
  8
0
  6
CONTINUOUS
 10
7.905040
 20
0.910360
  0
VERTEX
  8
0
  6
CONTINUOUS
 10
7.905040
 20
0.840840
  0
VERTEX
  8
0
  6
CONTINUOUS
 10
6.994680
 20
0.840840
  0
VERTEX
  8
0
  6
CONTINUOUS
 10
6.994680
 20
1.285680
  0
VERTEX
  8
0
  6
CONTINUOUS
 10
7.149120
 20
1.285680
  0
VERTEX
  8
0
  6
CONTINUOUS
 10
7.149120
 20
1.221000
  0
VERTEX
  8
0
  6
CONTINUOUS
 10
7.186080
 20
1.220560
  0
VERTEX
  8
0
  6
CONTINUOUS
 10
7.219080
 20
1.217920
  0
VERTEX
  8
0
  6
CONTINUOUS
 10
7.249440
 20
1.212640
  0
VERTEX
  8
0
  6
CONTINUOUS
 10
7.277160
 20
1.205160
  0
VERTEX
  8
0
  6
CONTINUOUS
 10
7.301360
 20
1.195920
  0
VERTEX
  8
0
  6
CONTINUOUS
 10
7.323360
 20
1.184920
  0
VERTEX
  8
0
  6
CONTINUOUS
 10
7.342720
 20
1.173040
  0
VERTEX
  8
0
  6
CONTINUOUS
 10
7.359440
 20
1.160280
  0
VERTEX
  8
0
  6
CONTINUOUS
 10
7.373520
 20
1.146640
  0
VERTEX
  8
0
  6
CONTINUOUS
 10
7.385840
 20
1.133000
  0
VERTEX
  8
0
  6
CONTINUOUS
 10
7.403880
 20
1.106160
  0
VERTEX
  8
0
  6
CONTINUOUS
 10
7.414440
 20
1.081520
  0
VERTEX
  8
0
  6
CONTINUOUS
 10
7.417520
 20
1.070960
  0
VERTEX
  8
0
  6
CONTINUOUS
 10
7.418840
 20
1.061720
  0
VERTEX
  8
0
  6
CONTINUOUS
 10
7.501560
 20
1.061720
  0
VERTEX
  8
0
  6
CONTINUOUS
 10
7.517400
 20
1.042800
  0
VERTEX
  8
0
  6
CONTINUOUS
 10
7.537640
 20
1.024320
  0
VERTEX
  8
0
  6
CONTINUOUS
 10
7.563160
 20
1.007160
  0
VERTEX
  8
0
  6
CONTINUOUS
 10
7.593520
 20
0.991320
  0
VERTEX
  8
0
  6
CONTINUOUS
 10
7.629160
 20
0.978120
  0
VERTEX
  8
0
  6
CONTINUOUS
 10
7.670520
 20
0.967560
  0
VERTEX
  8
0
  6
CONTINUOUS
 10
7.718480
 20
0.960960
  0
VERTEX
  8
0
  6
CONTINUOUS
 10
7.772600
 20
0.958320
  0
VERTEX
  8
0
  6
CONTINUOUS
 10
7.772600
 20
0.910360
  0
VERTEX
  8
0
  6
CONTINUOUS
 10
7.904160
 20
0.910360
  0
VERTEX
  8
0
  6
CONTINUOUS
 10
7.905040
 20
0.910360
  0
SEQEND
  8
0
  0
TEXT
  8
0
 10
7.153080
 20
0.635360
 40
0.138093
  1
BA  418
 41
1.000000
  7
SN0
 71
     0
 72
     5
 11
7.743409
 21
0.635360
  0
TEXT
  8
0
 10
6.932640
 20
0.443960
 40
0.138093
  1
7/16" x 15/16"
 41
1.000000
  7
SN0
 71
     0
 72
     5
 11
7.962773
 21
0.443960
  0
ENDSEC
  0
EOF
