  0
SECTION
  2
HEADER
  9
$ACADVER
  1
AC1006
  9
$EXTMIN
 10
2.625920
 20
0.397760
  9
$EXTMAX
 10
7.978960
 20
3.858800
  9
$LTSCALE
 40
0.044000
  9
$PDMODE
 70
    35
  9
$PDSIZE
 40
0.035200
  0
ENDSEC
  0
SECTION
  2
TABLES
  0
TABLE
  2
LTYPE
 70
     9
  0
LTYPE
  2
CONTINUOUS
 70
    64
  3
Solid line
 72
    65
 73
     0
 40
0.000000
  0
LTYPE
  2
DASHED
 70
    64
  3
__ __ __ __ __ __ __ __ __ __ __ __ __ __ __
 72
    65
 73
     2
 40
0.000330
 49
0.000220
 49
-0.000110
  0
LTYPE
  2
HIDDEN
 70
    64
  3
 _ _ _ _ _ _ _ _ _ _ _ _ _ _ _ _ _ _ _ _ _ _
 72
    65
 73
     2
 40
0.000165
 49
0.000110
 49
-0.000055
  0
LTYPE
  2
CENTER
 70
    64
  3
____ _ ____ _ ____ _ ____ _ ____ _ ____ _ ____
 72
    65
 73
     4
 40
0.000880
 49
0.000550
 49
-0.000110
 49
0.000110
 49
-0.000110
  0
LTYPE
  2
PHANTOM
 70
    64
  3
_____ _ _ _____ _ _ _____ _ _ _____ _ _ ____
 72
    65
 73
     6
 40
0.001100
 49
0.000550
 49
-0.000110
 49
0.000110
 49
-0.000110
 49
0.000110
 49
-0.000110
  0
LTYPE
  2
DOT
 70
    64
  3
...............................................
 72
    65
 73
     2
 40
0.000110
 49
0.000000
 49
-0.000110
  0
LTYPE
  2
DASHDOT
 70
    64
  3
__ . __ . __ . __ . __ . __ . __ . __ . __ . __
 72
    65
 73
     4
 40
0.000440
 49
0.000220
 49
-0.000110
 49
0.000000
 49
-0.000110
  0
LTYPE
  2
BORDER
 70
    64
  3
__ __ . __ __ . __ __ . __ __ . __ __ . __ __
 72
    65
 73
     6
 40
0.000770
 49
0.000220
 49
-0.000110
 49
0.000220
 49
-0.000110
 49
0.000000
 49
-0.000110
  0
LTYPE
  2
DIVIDE
 70
    64
  3
__ . . __ . . __ . . __ . . __ . . __ . . __
 72
    65
 73
     6
 40
0.000550
 49
0.000220
 49
-0.000110
 49
0.000000
 49
-0.000110
 49
0.000000
 49
-0.000110
  0
LTYPE
  2
DOTDOT
 70
    64
  3
 . .  . .  . .  . .  . .  . . 
 72
    65
 73
     5
 40
0.000242
 49
-0.000110
 49
0.000000
 49
-0.000110
 49
0.000000
 49
-0.000110
  0
ENDTAB
  0
TABLE
  2
STYLE
 70
     2
  0
STYLE
 70
     0
  2
SN0
 40
0.000000
 41
0.000440
 50
0.000000
 71
     0
 42
0.000000
  3
ROMAND
  0
STYLE
 70
    68
  2
SV0
 40
0.000000
 41
0.000440
 50
0.000000
 71
     0
 42
0.000000
  3
ROMAND
  0
ENDTAB
  0
TABLE
  2
LAYER
 70
     3
  0
LAYER
  2
FOREGROUND
 70
    64
 62
     7
  6
CONTINUOUS
  0
LAYER
  2
BACKGROUND
 70
    65
 62
    -7
  6
CONTINUOUS
  0
LAYER
  2
0
 70
    64
 62
     7
  6
CONTINUOUS
  0
ENDTAB
  0
ENDSEC
  0
SECTION
  2
ENTITIES
  0
POLYLINE
  8
FOREGROUND
  6
CONTINUOUS
 66
     1
 40
0.000000
 41
0.000000
  0
VERTEX
  8
FOREGROUND
  6
CONTINUOUS
 10
0.000000
 20
4.256560
  0
VERTEX
  8
FOREGROUND
  6
CONTINUOUS
 10
8.499920
 20
4.256560
  0
VERTEX
  8
FOREGROUND
  6
CONTINUOUS
 10
8.499920
 20
-6.743440
  0
VERTEX
  8
FOREGROUND
  6
CONTINUOUS
 10
0.000000
 20
-6.743440
  0
VERTEX
  8
FOREGROUND
  6
CONTINUOUS
 10
0.000000
 20
4.256560
  0
SEQEND
  8
0
  0
POLYLINE
  8
0
  6
CONTINUOUS
 66
     1
 40
0.014080
 41
0.014080
  0
VERTEX
  8
0
  6
CONTINUOUS
 10
5.474040
 20
3.296480
  0
VERTEX
  8
0
  6
CONTINUOUS
 10
5.484600
 20
3.356760
  0
VERTEX
  8
0
  6
CONTINUOUS
 10
5.500000
 20
3.413080
  0
VERTEX
  8
0
  6
CONTINUOUS
 10
5.519360
 20
3.466320
  0
VERTEX
  8
0
  6
CONTINUOUS
 10
5.542240
 20
3.515600
  0
VERTEX
  8
0
  6
CONTINUOUS
 10
5.569080
 20
3.560920
  0
VERTEX
  8
0
  6
CONTINUOUS
 10
5.599000
 20
3.602720
  0
VERTEX
  8
0
  6
CONTINUOUS
 10
5.632000
 20
3.640560
  0
VERTEX
  8
0
  6
CONTINUOUS
 10
5.667640
 20
3.674440
  0
VERTEX
  8
0
  6
CONTINUOUS
 10
5.705480
 20
3.704360
  0
VERTEX
  8
0
  6
CONTINUOUS
 10
5.745520
 20
3.730320
  0
VERTEX
  8
0
  6
CONTINUOUS
 10
5.787320
 20
3.752320
  0
VERTEX
  8
0
  6
CONTINUOUS
 10
5.830440
 20
3.770360
  0
VERTEX
  8
0
  6
CONTINUOUS
 10
5.874880
 20
3.784000
  0
VERTEX
  8
0
  6
CONTINUOUS
 10
5.919760
 20
3.793680
  0
VERTEX
  8
0
  6
CONTINUOUS
 10
5.965520
 20
3.798960
  0
VERTEX
  8
0
  6
CONTINUOUS
 10
6.011720
 20
3.799840
  0
VERTEX
  8
0
  6
CONTINUOUS
 10
6.057480
 20
3.796760
  0
VERTEX
  8
0
  6
CONTINUOUS
 10
6.102800
 20
3.788840
  0
VERTEX
  8
0
  6
CONTINUOUS
 10
6.147680
 20
3.776960
  0
VERTEX
  8
0
  6
CONTINUOUS
 10
6.191680
 20
3.760240
  0
VERTEX
  8
0
  6
CONTINUOUS
 10
6.234360
 20
3.739120
  0
VERTEX
  8
0
  6
CONTINUOUS
 10
6.275280
 20
3.713160
  0
VERTEX
  8
0
  6
CONTINUOUS
 10
6.314440
 20
3.682800
  0
VERTEX
  8
0
  6
CONTINUOUS
 10
6.351400
 20
3.648040
  0
VERTEX
  8
0
  6
CONTINUOUS
 10
6.386160
 20
3.608440
  0
VERTEX
  8
0
  6
CONTINUOUS
 10
6.417840
 20
3.563560
  0
VERTEX
  8
0
  6
CONTINUOUS
 10
6.432800
 20
3.539800
  0
VERTEX
  8
0
  6
CONTINUOUS
 10
6.459640
 20
3.487880
  0
VERTEX
  8
0
  6
CONTINUOUS
 10
6.483400
 20
3.431120
  0
VERTEX
  8
0
  6
CONTINUOUS
 10
6.503200
 20
3.369520
  0
VERTEX
  8
0
  6
CONTINUOUS
 10
6.518600
 20
3.303080
  0
VERTEX
  8
0
  6
CONTINUOUS
 10
6.524760
 20
3.267880
  0
VERTEX
  8
0
  6
CONTINUOUS
 10
6.533560
 20
3.193520
  0
VERTEX
  8
0
  6
CONTINUOUS
 10
6.774680
 20
3.193520
  0
VERTEX
  8
0
  6
CONTINUOUS
 10
6.774680
 20
3.028080
  0
VERTEX
  8
0
  6
CONTINUOUS
 10
7.043080
 20
3.028080
  0
VERTEX
  8
0
  6
CONTINUOUS
 10
7.047480
 20
2.965160
  0
VERTEX
  8
0
  6
CONTINUOUS
 10
7.056280
 20
2.910160
  0
VERTEX
  8
0
  6
CONTINUOUS
 10
7.068160
 20
2.862640
  0
VERTEX
  8
0
  6
CONTINUOUS
 10
7.083560
 20
2.821720
  0
VERTEX
  8
0
  6
CONTINUOUS
 10
7.102040
 20
2.786080
  0
VERTEX
  8
0
  6
CONTINUOUS
 10
7.123160
 20
2.755280
  0
VERTEX
  8
0
  6
CONTINUOUS
 10
7.155280
 20
2.720520
  0
VERTEX
  8
0
  6
CONTINUOUS
 10
7.191360
 20
2.691480
  0
VERTEX
  8
0
  6
CONTINUOUS
 10
7.251200
 20
2.653200
  0
VERTEX
  8
0
  6
CONTINUOUS
 10
7.298280
 20
2.632080
  0
VERTEX
  8
0
  6
CONTINUOUS
 10
7.411800
 20
2.592920
  0
VERTEX
  8
0
  6
CONTINUOUS
 10
7.455360
 20
2.572680
  0
VERTEX
  8
0
  6
CONTINUOUS
 10
7.496720
 20
2.546720
  0
VERTEX
  8
0
  6
CONTINUOUS
 10
7.522680
 20
2.524720
  0
VERTEX
  8
0
  6
CONTINUOUS
 10
7.546440
 20
2.498760
  0
VERTEX
  8
0
  6
CONTINUOUS
 10
7.567120
 20
2.467520
  0
VERTEX
  8
0
  6
CONTINUOUS
 10
7.584720
 20
2.431000
  0
VERTEX
  8
0
  6
CONTINUOUS
 10
7.592200
 20
2.410760
  0
VERTEX
  8
0
  6
CONTINUOUS
 10
7.604080
 20
2.365000
  0
VERTEX
  8
0
  6
CONTINUOUS
 10
7.611120
 20
2.311760
  0
VERTEX
  8
0
  6
CONTINUOUS
 10
7.612880
 20
2.282720
  0
VERTEX
  8
0
  6
CONTINUOUS
 10
7.971480
 20
2.282720
  0
VERTEX
  8
0
  6
CONTINUOUS
 10
7.971480
 20
2.062720
  0
VERTEX
  8
0
  6
CONTINUOUS
 10
5.353040
 20
2.062720
  0
VERTEX
  8
0
  6
CONTINUOUS
 10
5.353040
 20
3.296040
  0
VERTEX
  8
0
  6
CONTINUOUS
 10
5.474040
 20
3.296480
  0
SEQEND
  8
0
  0
SOLID
  8
0
 62
    15
 10
3.592160
 20
2.556840
 11
4.241160
 21
2.929520
 12
3.592160
 22
2.288440
 13
4.241160
 23
2.661120
  0
POLYLINE
  8
0
  6
CONTINUOUS
 66
     1
 40
0.000000
 41
0.000000
  0
VERTEX
  8
0
  6
CONTINUOUS
 10
3.592160
 20
2.556840
  0
VERTEX
  8
0
  6
CONTINUOUS
 10
4.241160
 20
2.929520
  0
VERTEX
  8
0
  6
CONTINUOUS
 10
4.241160
 20
2.661120
  0
VERTEX
  8
0
  6
CONTINUOUS
 10
3.592160
 20
2.288440
  0
VERTEX
  8
0
  6
CONTINUOUS
 10
3.592160
 20
2.556840
  0
SEQEND
  8
0
  0
SOLID
  8
0
 62
    15
 10
2.846800
 20
3.485240
 11
3.495360
 21
3.857920
 12
2.846800
 22
3.126640
 13
3.495360
 23
3.499320
  0
POLYLINE
  8
0
  6
CONTINUOUS
 66
     1
 40
0.000000
 41
0.000000
  0
VERTEX
  8
0
  6
CONTINUOUS
 10
2.846800
 20
3.485240
  0
VERTEX
  8
0
  6
CONTINUOUS
 10
3.495360
 20
3.857920
  0
VERTEX
  8
0
  6
CONTINUOUS
 10
3.495360
 20
3.499320
  0
VERTEX
  8
0
  6
CONTINUOUS
 10
2.846800
 20
3.126640
  0
VERTEX
  8
0
  6
CONTINUOUS
 10
2.846800
 20
3.485240
  0
SEQEND
  8
0
  0
SOLID
  8
0
 62
    15
 10
2.846800
 20
3.126640
 11
3.495360
 21
3.499320
 12
2.903120
 22
3.121800
 13
3.552120
 23
3.494480
  0
POLYLINE
  8
0
  6
CONTINUOUS
 66
     1
 40
0.000000
 41
0.000000
  0
VERTEX
  8
0
  6
CONTINUOUS
 10
2.846800
 20
3.126640
  0
VERTEX
  8
0
  6
CONTINUOUS
 10
3.495360
 20
3.499320
  0
VERTEX
  8
0
  6
CONTINUOUS
 10
3.552120
 20
3.494480
  0
VERTEX
  8
0
  6
CONTINUOUS
 10
2.903120
 20
3.121800
  0
VERTEX
  8
0
  6
CONTINUOUS
 10
2.846800
 20
3.126640
  0
SEQEND
  8
0
  0
SOLID
  8
0
 62
    15
 10
2.903120
 20
3.121800
 11
3.552120
 21
3.494480
 12
2.952400
 22
3.112560
 13
3.601400
 23
3.484800
  0
POLYLINE
  8
0
  6
CONTINUOUS
 66
     1
 40
0.000000
 41
0.000000
  0
VERTEX
  8
0
  6
CONTINUOUS
 10
2.903120
 20
3.121800
  0
VERTEX
  8
0
  6
CONTINUOUS
 10
3.552120
 20
3.494480
  0
VERTEX
  8
0
  6
CONTINUOUS
 10
3.601400
 20
3.484800
  0
VERTEX
  8
0
  6
CONTINUOUS
 10
2.952400
 20
3.112560
  0
VERTEX
  8
0
  6
CONTINUOUS
 10
2.903120
 20
3.121800
  0
SEQEND
  8
0
  0
SOLID
  8
0
 62
    15
 10
2.952400
 20
3.112560
 11
3.601400
 21
3.484800
 12
3.031600
 22
3.080880
 13
3.680160
 23
3.453560
  0
POLYLINE
  8
0
  6
CONTINUOUS
 66
     1
 40
0.000000
 41
0.000000
  0
VERTEX
  8
0
  6
CONTINUOUS
 10
2.952400
 20
3.112560
  0
VERTEX
  8
0
  6
CONTINUOUS
 10
3.601400
 20
3.484800
  0
VERTEX
  8
0
  6
CONTINUOUS
 10
3.680160
 20
3.453560
  0
VERTEX
  8
0
  6
CONTINUOUS
 10
3.031600
 20
3.080880
  0
VERTEX
  8
0
  6
CONTINUOUS
 10
2.952400
 20
3.112560
  0
SEQEND
  8
0
  0
SOLID
  8
0
 62
    15
 10
3.031600
 20
3.080880
 11
3.680160
 21
3.453560
 12
3.088800
 22
3.036440
 13
3.737360
 23
3.409120
  0
POLYLINE
  8
0
  6
CONTINUOUS
 66
     1
 40
0.000000
 41
0.000000
  0
VERTEX
  8
0
  6
CONTINUOUS
 10
3.031600
 20
3.080880
  0
VERTEX
  8
0
  6
CONTINUOUS
 10
3.680160
 20
3.453560
  0
VERTEX
  8
0
  6
CONTINUOUS
 10
3.737360
 20
3.409120
  0
VERTEX
  8
0
  6
CONTINUOUS
 10
3.088800
 20
3.036440
  0
VERTEX
  8
0
  6
CONTINUOUS
 10
3.031600
 20
3.080880
  0
SEQEND
  8
0
  0
SOLID
  8
0
 62
    15
 10
3.088800
 20
3.036440
 11
3.737360
 21
3.409120
 12
3.128840
 22
2.983200
 13
3.777400
 23
3.355880
  0
POLYLINE
  8
0
  6
CONTINUOUS
 66
     1
 40
0.000000
 41
0.000000
  0
VERTEX
  8
0
  6
CONTINUOUS
 10
3.088800
 20
3.036440
  0
VERTEX
  8
0
  6
CONTINUOUS
 10
3.737360
 20
3.409120
  0
VERTEX
  8
0
  6
CONTINUOUS
 10
3.777400
 20
3.355880
  0
VERTEX
  8
0
  6
CONTINUOUS
 10
3.128840
 20
2.983200
  0
VERTEX
  8
0
  6
CONTINUOUS
 10
3.088800
 20
3.036440
  0
SEQEND
  8
0
  0
SOLID
  8
0
 62
    15
 10
3.128840
 20
2.983200
 11
3.777400
 21
3.355880
 12
3.177680
 22
2.867040
 13
3.826240
 23
3.239280
  0
POLYLINE
  8
0
  6
CONTINUOUS
 66
     1
 40
0.000000
 41
0.000000
  0
VERTEX
  8
0
  6
CONTINUOUS
 10
3.128840
 20
2.983200
  0
VERTEX
  8
0
  6
CONTINUOUS
 10
3.777400
 20
3.355880
  0
VERTEX
  8
0
  6
CONTINUOUS
 10
3.826240
 20
3.239280
  0
VERTEX
  8
0
  6
CONTINUOUS
 10
3.177680
 20
2.867040
  0
VERTEX
  8
0
  6
CONTINUOUS
 10
3.128840
 20
2.983200
  0
SEQEND
  8
0
  0
SOLID
  8
0
 62
    15
 10
3.177680
 20
2.867040
 11
3.826240
 21
3.239280
 12
3.186920
 22
2.838880
 13
3.835480
 23
3.211560
  0
POLYLINE
  8
0
  6
CONTINUOUS
 66
     1
 40
0.000000
 41
0.000000
  0
VERTEX
  8
0
  6
CONTINUOUS
 10
3.177680
 20
2.867040
  0
VERTEX
  8
0
  6
CONTINUOUS
 10
3.826240
 20
3.239280
  0
VERTEX
  8
0
  6
CONTINUOUS
 10
3.835480
 20
3.211560
  0
VERTEX
  8
0
  6
CONTINUOUS
 10
3.186920
 20
2.838880
  0
VERTEX
  8
0
  6
CONTINUOUS
 10
3.177680
 20
2.867040
  0
SEQEND
  8
0
  0
SOLID
  8
0
 62
    15
 10
3.186920
 20
2.838880
 11
3.835480
 21
3.211560
 12
3.196160
 22
2.812040
 13
3.845160
 23
3.184720
  0
POLYLINE
  8
0
  6
CONTINUOUS
 66
     1
 40
0.000000
 41
0.000000
  0
VERTEX
  8
0
  6
CONTINUOUS
 10
3.186920
 20
2.838880
  0
VERTEX
  8
0
  6
CONTINUOUS
 10
3.835480
 20
3.211560
  0
VERTEX
  8
0
  6
CONTINUOUS
 10
3.845160
 20
3.184720
  0
VERTEX
  8
0
  6
CONTINUOUS
 10
3.196160
 20
2.812040
  0
VERTEX
  8
0
  6
CONTINUOUS
 10
3.186920
 20
2.838880
  0
SEQEND
  8
0
  0
SOLID
  8
0
 62
    15
 10
3.196160
 20
2.812040
 11
3.845160
 21
3.184720
 12
3.217280
 22
2.764960
 13
3.866280
 23
3.137640
  0
POLYLINE
  8
0
  6
CONTINUOUS
 66
     1
 40
0.000000
 41
0.000000
  0
VERTEX
  8
0
  6
CONTINUOUS
 10
3.196160
 20
2.812040
  0
VERTEX
  8
0
  6
CONTINUOUS
 10
3.845160
 20
3.184720
  0
VERTEX
  8
0
  6
CONTINUOUS
 10
3.866280
 20
3.137640
  0
VERTEX
  8
0
  6
CONTINUOUS
 10
3.217280
 20
2.764960
  0
VERTEX
  8
0
  6
CONTINUOUS
 10
3.196160
 20
2.812040
  0
SEQEND
  8
0
  0
SOLID
  8
0
 62
    15
 10
3.217280
 20
2.764960
 11
3.866280
 21
3.137640
 12
3.269640
 22
2.686640
 13
3.918200
 23
3.059320
  0
POLYLINE
  8
0
  6
CONTINUOUS
 66
     1
 40
0.000000
 41
0.000000
  0
VERTEX
  8
0
  6
CONTINUOUS
 10
3.217280
 20
2.764960
  0
VERTEX
  8
0
  6
CONTINUOUS
 10
3.866280
 20
3.137640
  0
VERTEX
  8
0
  6
CONTINUOUS
 10
3.918200
 20
3.059320
  0
VERTEX
  8
0
  6
CONTINUOUS
 10
3.269640
 20
2.686640
  0
VERTEX
  8
0
  6
CONTINUOUS
 10
3.217280
 20
2.764960
  0
SEQEND
  8
0
  0
SOLID
  8
0
 62
    15
 10
3.269640
 20
2.686640
 11
3.918200
 21
3.059320
 12
3.339160
 22
2.622400
 13
3.988160
 23
2.995080
  0
POLYLINE
  8
0
  6
CONTINUOUS
 66
     1
 40
0.000000
 41
0.000000
  0
VERTEX
  8
0
  6
CONTINUOUS
 10
3.269640
 20
2.686640
  0
VERTEX
  8
0
  6
CONTINUOUS
 10
3.918200
 20
3.059320
  0
VERTEX
  8
0
  6
CONTINUOUS
 10
3.988160
 20
2.995080
  0
VERTEX
  8
0
  6
CONTINUOUS
 10
3.339160
 20
2.622400
  0
VERTEX
  8
0
  6
CONTINUOUS
 10
3.269640
 20
2.686640
  0
SEQEND
  8
0
  0
SOLID
  8
0
 62
    15
 10
3.339160
 20
2.622400
 11
3.988160
 21
2.995080
 12
3.385360
 22
2.597320
 13
4.034360
 23
2.970000
  0
POLYLINE
  8
0
  6
CONTINUOUS
 66
     1
 40
0.000000
 41
0.000000
  0
VERTEX
  8
0
  6
CONTINUOUS
 10
3.339160
 20
2.622400
  0
VERTEX
  8
0
  6
CONTINUOUS
 10
3.988160
 20
2.995080
  0
VERTEX
  8
0
  6
CONTINUOUS
 10
4.034360
 20
2.970000
  0
VERTEX
  8
0
  6
CONTINUOUS
 10
3.385360
 20
2.597320
  0
VERTEX
  8
0
  6
CONTINUOUS
 10
3.339160
 20
2.622400
  0
SEQEND
  8
0
  0
SOLID
  8
0
 62
    15
 10
3.385360
 20
2.597320
 11
4.034360
 21
2.970000
 12
3.441680
 22
2.577520
 13
4.090680
 23
2.950200
  0
POLYLINE
  8
0
  6
CONTINUOUS
 66
     1
 40
0.000000
 41
0.000000
  0
VERTEX
  8
0
  6
CONTINUOUS
 10
3.385360
 20
2.597320
  0
VERTEX
  8
0
  6
CONTINUOUS
 10
4.034360
 20
2.970000
  0
VERTEX
  8
0
  6
CONTINUOUS
 10
4.090680
 20
2.950200
  0
VERTEX
  8
0
  6
CONTINUOUS
 10
3.441680
 20
2.577520
  0
VERTEX
  8
0
  6
CONTINUOUS
 10
3.385360
 20
2.597320
  0
SEQEND
  8
0
  0
SOLID
  8
0
 62
    15
 10
3.441680
 20
2.577520
 11
4.090680
 21
2.950200
 12
3.509880
 22
2.563880
 13
4.158880
 23
2.936560
  0
POLYLINE
  8
0
  6
CONTINUOUS
 66
     1
 40
0.000000
 41
0.000000
  0
VERTEX
  8
0
  6
CONTINUOUS
 10
3.441680
 20
2.577520
  0
VERTEX
  8
0
  6
CONTINUOUS
 10
4.090680
 20
2.950200
  0
VERTEX
  8
0
  6
CONTINUOUS
 10
4.158880
 20
2.936560
  0
VERTEX
  8
0
  6
CONTINUOUS
 10
3.509880
 20
2.563880
  0
VERTEX
  8
0
  6
CONTINUOUS
 10
3.441680
 20
2.577520
  0
SEQEND
  8
0
  0
SOLID
  8
0
 62
    15
 10
3.509880
 20
2.563880
 11
4.158880
 21
2.936560
 12
3.592160
 22
2.556840
 13
4.241160
 23
2.929520
  0
POLYLINE
  8
0
  6
CONTINUOUS
 66
     1
 40
0.000000
 41
0.000000
  0
VERTEX
  8
0
  6
CONTINUOUS
 10
3.509880
 20
2.563880
  0
VERTEX
  8
0
  6
CONTINUOUS
 10
4.158880
 20
2.936560
  0
VERTEX
  8
0
  6
CONTINUOUS
 10
4.241160
 20
2.929520
  0
VERTEX
  8
0
  6
CONTINUOUS
 10
3.592160
 20
2.556840
  0
VERTEX
  8
0
  6
CONTINUOUS
 10
3.509880
 20
2.563880
  0
SEQEND
  8
0
  0
SOLID
  8
0
 62
    15
 10
2.626800
 20
3.485240
 11
3.275360
 21
3.857920
 12
2.846800
 22
3.485240
 13
3.495360
 23
3.857920
  0
POLYLINE
  8
0
  6
CONTINUOUS
 66
     1
 40
0.000000
 41
0.000000
  0
VERTEX
  8
0
  6
CONTINUOUS
 10
2.626800
 20
3.485240
  0
VERTEX
  8
0
  6
CONTINUOUS
 10
3.275360
 20
3.857920
  0
VERTEX
  8
0
  6
CONTINUOUS
 10
3.495360
 20
3.857920
  0
VERTEX
  8
0
  6
CONTINUOUS
 10
2.846800
 20
3.485240
  0
VERTEX
  8
0
  6
CONTINUOUS
 10
2.626800
 20
3.485240
  0
SEQEND
  8
0
  0
SOLID
  8
0
 62
    15
 10
3.592160
 20
2.288440
 11
4.241160
 21
2.661120
 12
3.757160
 22
2.288440
 13
4.406160
 23
2.661120
  0
POLYLINE
  8
0
  6
CONTINUOUS
 66
     1
 40
0.000000
 41
0.000000
  0
VERTEX
  8
0
  6
CONTINUOUS
 10
3.592160
 20
2.288440
  0
VERTEX
  8
0
  6
CONTINUOUS
 10
4.241160
 20
2.661120
  0
VERTEX
  8
0
  6
CONTINUOUS
 10
4.406160
 20
2.661120
  0
VERTEX
  8
0
  6
CONTINUOUS
 10
3.757160
 20
2.288440
  0
VERTEX
  8
0
  6
CONTINUOUS
 10
3.592160
 20
2.288440
  0
SEQEND
  8
0
  0
SOLID
  8
0
 62
    15
 10
3.757160
 20
2.288440
 11
4.406160
 21
2.661120
 12
3.757160
 22
2.047760
 13
4.406160
 23
2.420000
  0
POLYLINE
  8
0
  6
CONTINUOUS
 66
     1
 40
0.000000
 41
0.000000
  0
VERTEX
  8
0
  6
CONTINUOUS
 10
3.757160
 20
2.288440
  0
VERTEX
  8
0
  6
CONTINUOUS
 10
4.406160
 20
2.661120
  0
VERTEX
  8
0
  6
CONTINUOUS
 10
4.406160
 20
2.420000
  0
VERTEX
  8
0
  6
CONTINUOUS
 10
3.757160
 20
2.047760
  0
VERTEX
  8
0
  6
CONTINUOUS
 10
3.757160
 20
2.288440
  0
SEQEND
  8
0
  0
SOLID
  8
0
 62
    15
 10
3.757160
 20
2.047760
 11
4.406160
 21
2.420000
 12
3.900600
 22
2.025320
 13
4.549600
 23
2.398000
  0
POLYLINE
  8
0
  6
CONTINUOUS
 66
     1
 40
0.000000
 41
0.000000
  0
VERTEX
  8
0
  6
CONTINUOUS
 10
3.757160
 20
2.047760
  0
VERTEX
  8
0
  6
CONTINUOUS
 10
4.406160
 20
2.420000
  0
VERTEX
  8
0
  6
CONTINUOUS
 10
4.549600
 20
2.398000
  0
VERTEX
  8
0
  6
CONTINUOUS
 10
3.900600
 20
2.025320
  0
VERTEX
  8
0
  6
CONTINUOUS
 10
3.757160
 20
2.047760
  0
SEQEND
  8
0
  0
SOLID
  8
0
 62
    15
 10
3.900600
 20
2.025320
 11
4.549600
 21
2.398000
 12
4.024240
 22
1.986160
 13
4.672800
 23
2.358400
  0
POLYLINE
  8
0
  6
CONTINUOUS
 66
     1
 40
0.000000
 41
0.000000
  0
VERTEX
  8
0
  6
CONTINUOUS
 10
3.900600
 20
2.025320
  0
VERTEX
  8
0
  6
CONTINUOUS
 10
4.549600
 20
2.398000
  0
VERTEX
  8
0
  6
CONTINUOUS
 10
4.672800
 20
2.358400
  0
VERTEX
  8
0
  6
CONTINUOUS
 10
4.024240
 20
1.986160
  0
VERTEX
  8
0
  6
CONTINUOUS
 10
3.900600
 20
2.025320
  0
SEQEND
  8
0
  0
SOLID
  8
0
 62
    15
 10
4.024240
 20
1.986160
 11
4.672800
 21
2.358400
 12
4.127640
 22
1.932040
 13
4.776200
 23
2.304280
  0
POLYLINE
  8
0
  6
CONTINUOUS
 66
     1
 40
0.000000
 41
0.000000
  0
VERTEX
  8
0
  6
CONTINUOUS
 10
4.024240
 20
1.986160
  0
VERTEX
  8
0
  6
CONTINUOUS
 10
4.672800
 20
2.358400
  0
VERTEX
  8
0
  6
CONTINUOUS
 10
4.776200
 20
2.304280
  0
VERTEX
  8
0
  6
CONTINUOUS
 10
4.127640
 20
1.932040
  0
VERTEX
  8
0
  6
CONTINUOUS
 10
4.024240
 20
1.986160
  0
SEQEND
  8
0
  0
SOLID
  8
0
 62
    15
 10
4.127640
 20
1.932040
 11
4.776200
 21
2.304280
 12
4.212120
 22
1.865600
 13
4.860680
 23
2.238280
  0
POLYLINE
  8
0
  6
CONTINUOUS
 66
     1
 40
0.000000
 41
0.000000
  0
VERTEX
  8
0
  6
CONTINUOUS
 10
4.127640
 20
1.932040
  0
VERTEX
  8
0
  6
CONTINUOUS
 10
4.776200
 20
2.304280
  0
VERTEX
  8
0
  6
CONTINUOUS
 10
4.860680
 20
2.238280
  0
VERTEX
  8
0
  6
CONTINUOUS
 10
4.212120
 20
1.865600
  0
VERTEX
  8
0
  6
CONTINUOUS
 10
4.127640
 20
1.932040
  0
SEQEND
  8
0
  0
SOLID
  8
0
 62
    15
 10
4.212120
 20
1.865600
 11
4.860680
 21
2.238280
 12
4.277240
 22
1.789480
 13
4.926240
 23
2.161720
  0
POLYLINE
  8
0
  6
CONTINUOUS
 66
     1
 40
0.000000
 41
0.000000
  0
VERTEX
  8
0
  6
CONTINUOUS
 10
4.212120
 20
1.865600
  0
VERTEX
  8
0
  6
CONTINUOUS
 10
4.860680
 20
2.238280
  0
VERTEX
  8
0
  6
CONTINUOUS
 10
4.926240
 20
2.161720
  0
VERTEX
  8
0
  6
CONTINUOUS
 10
4.277240
 20
1.789480
  0
VERTEX
  8
0
  6
CONTINUOUS
 10
4.212120
 20
1.865600
  0
SEQEND
  8
0
  0
SOLID
  8
0
 62
    15
 10
4.277240
 20
1.789480
 11
4.926240
 21
2.161720
 12
4.324320
 22
1.705440
 13
4.972880
 23
2.078120
  0
POLYLINE
  8
0
  6
CONTINUOUS
 66
     1
 40
0.000000
 41
0.000000
  0
VERTEX
  8
0
  6
CONTINUOUS
 10
4.277240
 20
1.789480
  0
VERTEX
  8
0
  6
CONTINUOUS
 10
4.926240
 20
2.161720
  0
VERTEX
  8
0
  6
CONTINUOUS
 10
4.972880
 20
2.078120
  0
VERTEX
  8
0
  6
CONTINUOUS
 10
4.324320
 20
1.705440
  0
VERTEX
  8
0
  6
CONTINUOUS
 10
4.277240
 20
1.789480
  0
SEQEND
  8
0
  0
SOLID
  8
0
 62
    15
 10
4.324320
 20
1.705440
 11
4.972880
 21
2.078120
 12
4.352920
 22
1.617000
 13
5.001480
 23
1.989240
  0
POLYLINE
  8
0
  6
CONTINUOUS
 66
     1
 40
0.000000
 41
0.000000
  0
VERTEX
  8
0
  6
CONTINUOUS
 10
4.324320
 20
1.705440
  0
VERTEX
  8
0
  6
CONTINUOUS
 10
4.972880
 20
2.078120
  0
VERTEX
  8
0
  6
CONTINUOUS
 10
5.001480
 20
1.989240
  0
VERTEX
  8
0
  6
CONTINUOUS
 10
4.352920
 20
1.617000
  0
VERTEX
  8
0
  6
CONTINUOUS
 10
4.324320
 20
1.705440
  0
SEQEND
  8
0
  0
SOLID
  8
0
 62
    15
 10
4.352920
 20
1.617000
 11
5.001480
 21
1.989240
 12
4.363920
 22
1.525480
 13
5.012480
 23
1.897720
  0
POLYLINE
  8
0
  6
CONTINUOUS
 66
     1
 40
0.000000
 41
0.000000
  0
VERTEX
  8
0
  6
CONTINUOUS
 10
4.352920
 20
1.617000
  0
VERTEX
  8
0
  6
CONTINUOUS
 10
5.001480
 20
1.989240
  0
VERTEX
  8
0
  6
CONTINUOUS
 10
5.012480
 20
1.897720
  0
VERTEX
  8
0
  6
CONTINUOUS
 10
4.363920
 20
1.525480
  0
VERTEX
  8
0
  6
CONTINUOUS
 10
4.352920
 20
1.617000
  0
SEQEND
  8
0
  0
SOLID
  8
0
 62
    15
 10
4.363920
 20
1.525480
 11
5.012480
 21
1.897720
 12
4.357320
 22
1.433520
 13
5.006320
 23
1.806200
  0
POLYLINE
  8
0
  6
CONTINUOUS
 66
     1
 40
0.000000
 41
0.000000
  0
VERTEX
  8
0
  6
CONTINUOUS
 10
4.363920
 20
1.525480
  0
VERTEX
  8
0
  6
CONTINUOUS
 10
5.012480
 20
1.897720
  0
VERTEX
  8
0
  6
CONTINUOUS
 10
5.006320
 20
1.806200
  0
VERTEX
  8
0
  6
CONTINUOUS
 10
4.357320
 20
1.433520
  0
VERTEX
  8
0
  6
CONTINUOUS
 10
4.363920
 20
1.525480
  0
SEQEND
  8
0
  0
SOLID
  8
0
 62
    15
 10
4.357320
 20
1.433520
 11
5.006320
 21
1.806200
 12
4.334000
 22
1.344200
 13
4.983000
 23
1.716880
  0
POLYLINE
  8
0
  6
CONTINUOUS
 66
     1
 40
0.000000
 41
0.000000
  0
VERTEX
  8
0
  6
CONTINUOUS
 10
4.357320
 20
1.433520
  0
VERTEX
  8
0
  6
CONTINUOUS
 10
5.006320
 20
1.806200
  0
VERTEX
  8
0
  6
CONTINUOUS
 10
4.983000
 20
1.716880
  0
VERTEX
  8
0
  6
CONTINUOUS
 10
4.334000
 20
1.344200
  0
VERTEX
  8
0
  6
CONTINUOUS
 10
4.357320
 20
1.433520
  0
SEQEND
  8
0
  0
SOLID
  8
0
 62
    15
 10
4.334000
 20
1.344200
 11
4.983000
 21
1.716880
 12
4.294400
 22
1.259280
 13
4.942960
 23
1.631960
  0
POLYLINE
  8
0
  6
CONTINUOUS
 66
     1
 40
0.000000
 41
0.000000
  0
VERTEX
  8
0
  6
CONTINUOUS
 10
4.334000
 20
1.344200
  0
VERTEX
  8
0
  6
CONTINUOUS
 10
4.983000
 20
1.716880
  0
VERTEX
  8
0
  6
CONTINUOUS
 10
4.942960
 20
1.631960
  0
VERTEX
  8
0
  6
CONTINUOUS
 10
4.294400
 20
1.259280
  0
VERTEX
  8
0
  6
CONTINUOUS
 10
4.334000
 20
1.344200
  0
SEQEND
  8
0
  0
SOLID
  8
0
 62
    15
 10
3.860560
 20
0.987800
 11
4.509120
 21
1.360480
 12
3.860120
 22
0.866800
 13
4.508680
 23
1.239480
  0
POLYLINE
  8
0
  6
CONTINUOUS
 66
     1
 40
0.000000
 41
0.000000
  0
VERTEX
  8
0
  6
CONTINUOUS
 10
3.860560
 20
0.987800
  0
VERTEX
  8
0
  6
CONTINUOUS
 10
4.509120
 20
1.360480
  0
VERTEX
  8
0
  6
CONTINUOUS
 10
4.508680
 20
1.239480
  0
VERTEX
  8
0
  6
CONTINUOUS
 10
3.860120
 20
0.866800
  0
VERTEX
  8
0
  6
CONTINUOUS
 10
3.860560
 20
0.987800
  0
SEQEND
  8
0
  0
SOLID
  8
0
 62
    15
 10
4.166360
 20
1.112760
 11
4.815360
 21
1.485440
 12
4.079240
 22
1.056000
 13
4.728240
 23
1.428680
  0
POLYLINE
  8
0
  6
CONTINUOUS
 66
     1
 40
0.000000
 41
0.000000
  0
VERTEX
  8
0
  6
CONTINUOUS
 10
4.166360
 20
1.112760
  0
VERTEX
  8
0
  6
CONTINUOUS
 10
4.815360
 20
1.485440
  0
VERTEX
  8
0
  6
CONTINUOUS
 10
4.728240
 20
1.428680
  0
VERTEX
  8
0
  6
CONTINUOUS
 10
4.079240
 20
1.056000
  0
VERTEX
  8
0
  6
CONTINUOUS
 10
4.166360
 20
1.112760
  0
SEQEND
  8
0
  0
SOLID
  8
0
 62
    15
 10
4.238520
 20
1.181400
 11
4.887080
 21
1.554080
 12
4.166360
 22
1.112760
 13
4.815360
 23
1.485440
  0
POLYLINE
  8
0
  6
CONTINUOUS
 66
     1
 40
0.000000
 41
0.000000
  0
VERTEX
  8
0
  6
CONTINUOUS
 10
4.238520
 20
1.181400
  0
VERTEX
  8
0
  6
CONTINUOUS
 10
4.887080
 20
1.554080
  0
VERTEX
  8
0
  6
CONTINUOUS
 10
4.815360
 20
1.485440
  0
VERTEX
  8
0
  6
CONTINUOUS
 10
4.166360
 20
1.112760
  0
VERTEX
  8
0
  6
CONTINUOUS
 10
4.238520
 20
1.181400
  0
SEQEND
  8
0
  0
SOLID
  8
0
 62
    15
 10
4.294400
 20
1.259280
 11
4.942960
 21
1.631960
 12
4.238520
 22
1.181400
 13
4.887080
 23
1.554080
  0
POLYLINE
  8
0
  6
CONTINUOUS
 66
     1
 40
0.000000
 41
0.000000
  0
VERTEX
  8
0
  6
CONTINUOUS
 10
4.294400
 20
1.259280
  0
VERTEX
  8
0
  6
CONTINUOUS
 10
4.942960
 20
1.631960
  0
VERTEX
  8
0
  6
CONTINUOUS
 10
4.887080
 20
1.554080
  0
VERTEX
  8
0
  6
CONTINUOUS
 10
4.238520
 20
1.181400
  0
VERTEX
  8
0
  6
CONTINUOUS
 10
4.294400
 20
1.259280
  0
SEQEND
  8
0
  0
POLYLINE
  8
0
  6
CONTINUOUS
 66
     1
 40
0.000000
 41
0.000000
  0
VERTEX
  8
0
  6
CONTINUOUS
 10
3.860120
 20
0.866800
  0
VERTEX
  8
0
  6
CONTINUOUS
 10
2.626800
 20
0.866800
  0
VERTEX
  8
0
  6
CONTINUOUS
 10
2.626800
 20
3.485240
  0
VERTEX
  8
0
  6
CONTINUOUS
 10
2.846800
 20
3.485240
  0
VERTEX
  8
0
  6
CONTINUOUS
 10
2.846800
 20
3.126640
  0
VERTEX
  8
0
  6
CONTINUOUS
 10
2.903120
 20
3.121800
  0
VERTEX
  8
0
  6
CONTINUOUS
 10
2.952400
 20
3.112560
  0
VERTEX
  8
0
  6
CONTINUOUS
 10
3.031600
 20
3.080880
  0
VERTEX
  8
0
  6
CONTINUOUS
 10
3.088800
 20
3.036440
  0
VERTEX
  8
0
  6
CONTINUOUS
 10
3.128840
 20
2.983200
  0
VERTEX
  8
0
  6
CONTINUOUS
 10
3.177680
 20
2.867040
  0
VERTEX
  8
0
  6
CONTINUOUS
 10
3.186920
 20
2.838880
  0
VERTEX
  8
0
  6
CONTINUOUS
 10
3.196160
 20
2.812040
  0
VERTEX
  8
0
  6
CONTINUOUS
 10
3.217280
 20
2.764960
  0
VERTEX
  8
0
  6
CONTINUOUS
 10
3.269640
 20
2.686640
  0
VERTEX
  8
0
  6
CONTINUOUS
 10
3.339160
 20
2.622400
  0
VERTEX
  8
0
  6
CONTINUOUS
 10
3.385360
 20
2.597320
  0
VERTEX
  8
0
  6
CONTINUOUS
 10
3.441680
 20
2.577520
  0
VERTEX
  8
0
  6
CONTINUOUS
 10
3.509880
 20
2.563880
  0
VERTEX
  8
0
  6
CONTINUOUS
 10
3.592160
 20
2.556840
  0
VERTEX
  8
0
  6
CONTINUOUS
 10
3.592160
 20
2.288440
  0
VERTEX
  8
0
  6
CONTINUOUS
 10
3.757160
 20
2.288440
  0
VERTEX
  8
0
  6
CONTINUOUS
 10
3.757160
 20
2.047760
  0
VERTEX
  8
0
  6
CONTINUOUS
 10
3.900600
 20
2.025320
  0
VERTEX
  8
0
  6
CONTINUOUS
 10
4.024240
 20
1.986160
  0
VERTEX
  8
0
  6
CONTINUOUS
 10
4.127640
 20
1.932040
  0
VERTEX
  8
0
  6
CONTINUOUS
 10
4.212120
 20
1.865600
  0
VERTEX
  8
0
  6
CONTINUOUS
 10
4.277240
 20
1.789480
  0
VERTEX
  8
0
  6
CONTINUOUS
 10
4.324320
 20
1.705440
  0
VERTEX
  8
0
  6
CONTINUOUS
 10
4.352920
 20
1.617000
  0
VERTEX
  8
0
  6
CONTINUOUS
 10
4.363920
 20
1.525480
  0
VERTEX
  8
0
  6
CONTINUOUS
 10
4.357320
 20
1.433520
  0
VERTEX
  8
0
  6
CONTINUOUS
 10
4.334000
 20
1.344200
  0
VERTEX
  8
0
  6
CONTINUOUS
 10
4.294400
 20
1.259280
  0
VERTEX
  8
0
  6
CONTINUOUS
 10
4.238520
 20
1.181400
  0
VERTEX
  8
0
  6
CONTINUOUS
 10
4.166360
 20
1.112760
  0
VERTEX
  8
0
  6
CONTINUOUS
 10
4.079240
 20
1.056000
  0
VERTEX
  8
0
  6
CONTINUOUS
 10
3.977160
 20
1.013760
  0
VERTEX
  8
0
  6
CONTINUOUS
 10
3.860560
 20
0.987800
  0
VERTEX
  8
0
  6
CONTINUOUS
 10
3.860120
 20
0.866800
  0
SEQEND
  8
0
  0
TEXT
  8
0
 10
3.523520
 20
0.633160
 40
0.138136
  1
BA  417
 41
1.000000
  7
SN0
 71
     0
 72
     5
 11
4.114496
 21
0.633160
  0
TEXT
  8
0
 10
3.293840
 20
0.441760
 40
0.138136
  1
1-3/4" x 2-5/8"
 41
1.000000
  7
SN0
 71
     0
 72
     5
 11
4.343303
 21
0.441760
  0
ENDSEC
  0
EOF
