  0
SECTION
  2
HEADER
  9
$ACADVER
  1
AC1006
  9
$EXTMIN
 10
3.088360
 20
4.755080
  9
$EXTMAX
 10
5.411120
 20
6.244920
  9
$LTSCALE
 40
0.044000
  9
$PDMODE
 70
    35
  9
$PDSIZE
 40
0.035200
  0
ENDSEC
  0
SECTION
  2
TABLES
  0
TABLE
  2
LTYPE
 70
     9
  0
LTYPE
  2
CONTINUOUS
 70
    64
  3
Solid line
 72
    65
 73
     0
 40
0.000000
  0
LTYPE
  2
DASHED
 70
    64
  3
__ __ __ __ __ __ __ __ __ __ __ __ __ __ __
 72
    65
 73
     2
 40
0.000330
 49
0.000220
 49
-0.000110
  0
LTYPE
  2
HIDDEN
 70
    64
  3
 _ _ _ _ _ _ _ _ _ _ _ _ _ _ _ _ _ _ _ _ _ _
 72
    65
 73
     2
 40
0.000165
 49
0.000110
 49
-0.000055
  0
LTYPE
  2
CENTER
 70
    64
  3
____ _ ____ _ ____ _ ____ _ ____ _ ____ _ ____
 72
    65
 73
     4
 40
0.000880
 49
0.000550
 49
-0.000110
 49
0.000110
 49
-0.000110
  0
LTYPE
  2
PHANTOM
 70
    64
  3
_____ _ _ _____ _ _ _____ _ _ _____ _ _ ____
 72
    65
 73
     6
 40
0.001100
 49
0.000550
 49
-0.000110
 49
0.000110
 49
-0.000110
 49
0.000110
 49
-0.000110
  0
LTYPE
  2
DOT
 70
    64
  3
...............................................
 72
    65
 73
     2
 40
0.000110
 49
0.000000
 49
-0.000110
  0
LTYPE
  2
DASHDOT
 70
    64
  3
__ . __ . __ . __ . __ . __ . __ . __ . __ . __
 72
    65
 73
     4
 40
0.000440
 49
0.000220
 49
-0.000110
 49
0.000000
 49
-0.000110
  0
LTYPE
  2
BORDER
 70
    64
  3
__ __ . __ __ . __ __ . __ __ . __ __ . __ __
 72
    65
 73
     6
 40
0.000770
 49
0.000220
 49
-0.000110
 49
0.000220
 49
-0.000110
 49
0.000000
 49
-0.000110
  0
LTYPE
  2
DIVIDE
 70
    64
  3
__ . . __ . . __ . . __ . . __ . . __ . . __
 72
    65
 73
     6
 40
0.000550
 49
0.000220
 49
-0.000110
 49
0.000000
 49
-0.000110
 49
0.000000
 49
-0.000110
  0
LTYPE
  2
DOTDOT
 70
    64
  3
 . .  . .  . .  . .  . .  . . 
 72
    65
 73
     5
 40
0.000242
 49
-0.000110
 49
0.000000
 49
-0.000110
 49
0.000000
 49
-0.000110
  0
ENDTAB
  0
TABLE
  2
STYLE
 70
     2
  0
STYLE
 70
     0
  2
SN0
 40
0.000000
 41
0.000440
 50
0.000000
 71
     0
 42
0.000000
  3
ROMAND
  0
STYLE
 70
    68
  2
SV0
 40
0.000000
 41
0.000440
 50
0.000000
 71
     0
 42
0.000000
  3
ROMAND
  0
ENDTAB
  0
TABLE
  2
LAYER
 70
     3
  0
LAYER
  2
FOREGROUND
 70
    64
 62
     7
  6
CONTINUOUS
  0
LAYER
  2
BACKGROUND
 70
    65
 62
    -7
  6
CONTINUOUS
  0
LAYER
  2
0
 70
    64
 62
     7
  6
CONTINUOUS
  0
ENDTAB
  0
ENDSEC
  0
SECTION
  2
ENTITIES
  0
POLYLINE
  8
FOREGROUND
  6
CONTINUOUS
 66
     1
 40
0.000000
 41
0.000000
  0
VERTEX
  8
FOREGROUND
  6
CONTINUOUS
 10
0.000000
 20
11.000000
  0
VERTEX
  8
FOREGROUND
  6
CONTINUOUS
 10
8.499920
 20
11.000000
  0
VERTEX
  8
FOREGROUND
  6
CONTINUOUS
 10
8.499920
 20
0.000000
  0
VERTEX
  8
FOREGROUND
  6
CONTINUOUS
 10
0.000000
 20
0.000000
  0
VERTEX
  8
FOREGROUND
  6
CONTINUOUS
 10
0.000000
 20
11.000000
  0
SEQEND
  8
0
  0
TEXT
  8
0
 10
3.333440
 20
4.990920
 40
0.138083
  1
BA  416
 41
1.000000
  7
SN0
 71
     0
 72
     5
 11
3.923537
 21
4.990920
  0
TEXT
  8
0
 10
3.205400
 20
4.799080
 40
0.138083
  1
7/16" x 5/8"
 41
1.000000
  7
SN0
 71
     0
 72
     5
 11
4.050769
 21
4.799080
  0
SOLID
  8
0
 62
    15
 10
3.431120
 20
5.583160
 11
4.073080
 21
5.955840
 12
3.454440
 22
5.551480
 13
4.096400
 23
5.924160
  0
POLYLINE
  8
0
  6
CONTINUOUS
 66
     1
 40
0.000000
 41
0.000000
  0
VERTEX
  8
0
  6
CONTINUOUS
 10
3.431120
 20
5.583160
  0
VERTEX
  8
0
  6
CONTINUOUS
 10
4.073080
 20
5.955840
  0
VERTEX
  8
0
  6
CONTINUOUS
 10
4.096400
 20
5.924160
  0
VERTEX
  8
0
  6
CONTINUOUS
 10
3.454440
 20
5.551480
  0
VERTEX
  8
0
  6
CONTINUOUS
 10
3.431120
 20
5.583160
  0
SEQEND
  8
0
  0
SOLID
  8
0
 62
    15
 10
3.190880
 20
5.833520
 11
3.832840
 21
6.206200
 12
3.190880
 22
5.735400
 13
3.832840
 23
6.108080
  0
POLYLINE
  8
0
  6
CONTINUOUS
 66
     1
 40
0.000000
 41
0.000000
  0
VERTEX
  8
0
  6
CONTINUOUS
 10
3.190880
 20
5.833520
  0
VERTEX
  8
0
  6
CONTINUOUS
 10
3.832840
 20
6.206200
  0
VERTEX
  8
0
  6
CONTINUOUS
 10
3.832840
 20
6.108080
  0
VERTEX
  8
0
  6
CONTINUOUS
 10
3.190880
 20
5.735400
  0
VERTEX
  8
0
  6
CONTINUOUS
 10
3.190880
 20
5.833520
  0
SEQEND
  8
0
  0
SOLID
  8
0
 62
    15
 10
3.190880
 20
5.735400
 11
3.832840
 21
6.108080
 12
3.232680
 22
5.720880
 13
3.874640
 23
6.093560
  0
POLYLINE
  8
0
  6
CONTINUOUS
 66
     1
 40
0.000000
 41
0.000000
  0
VERTEX
  8
0
  6
CONTINUOUS
 10
3.190880
 20
5.735400
  0
VERTEX
  8
0
  6
CONTINUOUS
 10
3.832840
 20
6.108080
  0
VERTEX
  8
0
  6
CONTINUOUS
 10
3.874640
 20
6.093560
  0
VERTEX
  8
0
  6
CONTINUOUS
 10
3.232680
 20
5.720880
  0
VERTEX
  8
0
  6
CONTINUOUS
 10
3.190880
 20
5.735400
  0
SEQEND
  8
0
  0
SOLID
  8
0
 62
    15
 10
3.232680
 20
5.720880
 11
3.874640
 21
6.093560
 12
3.271840
 22
5.703720
 13
3.914240
 23
6.076400
  0
POLYLINE
  8
0
  6
CONTINUOUS
 66
     1
 40
0.000000
 41
0.000000
  0
VERTEX
  8
0
  6
CONTINUOUS
 10
3.232680
 20
5.720880
  0
VERTEX
  8
0
  6
CONTINUOUS
 10
3.874640
 20
6.093560
  0
VERTEX
  8
0
  6
CONTINUOUS
 10
3.914240
 20
6.076400
  0
VERTEX
  8
0
  6
CONTINUOUS
 10
3.271840
 20
5.703720
  0
VERTEX
  8
0
  6
CONTINUOUS
 10
3.232680
 20
5.720880
  0
SEQEND
  8
0
  0
SOLID
  8
0
 62
    15
 10
3.271840
 20
5.703720
 11
3.914240
 21
6.076400
 12
3.308800
 22
5.684360
 13
3.951200
 23
6.057040
  0
POLYLINE
  8
0
  6
CONTINUOUS
 66
     1
 40
0.000000
 41
0.000000
  0
VERTEX
  8
0
  6
CONTINUOUS
 10
3.271840
 20
5.703720
  0
VERTEX
  8
0
  6
CONTINUOUS
 10
3.914240
 20
6.076400
  0
VERTEX
  8
0
  6
CONTINUOUS
 10
3.951200
 20
6.057040
  0
VERTEX
  8
0
  6
CONTINUOUS
 10
3.308800
 20
5.684360
  0
VERTEX
  8
0
  6
CONTINUOUS
 10
3.271840
 20
5.703720
  0
SEQEND
  8
0
  0
SOLID
  8
0
 62
    15
 10
3.308800
 20
5.684360
 11
3.951200
 21
6.057040
 12
3.343560
 22
5.662360
 13
3.985520
 23
6.035040
  0
POLYLINE
  8
0
  6
CONTINUOUS
 66
     1
 40
0.000000
 41
0.000000
  0
VERTEX
  8
0
  6
CONTINUOUS
 10
3.308800
 20
5.684360
  0
VERTEX
  8
0
  6
CONTINUOUS
 10
3.951200
 20
6.057040
  0
VERTEX
  8
0
  6
CONTINUOUS
 10
3.985520
 20
6.035040
  0
VERTEX
  8
0
  6
CONTINUOUS
 10
3.343560
 20
5.662360
  0
VERTEX
  8
0
  6
CONTINUOUS
 10
3.308800
 20
5.684360
  0
SEQEND
  8
0
  0
SOLID
  8
0
 62
    15
 10
3.343560
 20
5.662360
 11
3.985520
 21
6.035040
 12
3.375240
 22
5.638160
 13
4.017640
 23
6.010840
  0
POLYLINE
  8
0
  6
CONTINUOUS
 66
     1
 40
0.000000
 41
0.000000
  0
VERTEX
  8
0
  6
CONTINUOUS
 10
3.343560
 20
5.662360
  0
VERTEX
  8
0
  6
CONTINUOUS
 10
3.985520
 20
6.035040
  0
VERTEX
  8
0
  6
CONTINUOUS
 10
4.017640
 20
6.010840
  0
VERTEX
  8
0
  6
CONTINUOUS
 10
3.375240
 20
5.638160
  0
VERTEX
  8
0
  6
CONTINUOUS
 10
3.343560
 20
5.662360
  0
SEQEND
  8
0
  0
SOLID
  8
0
 62
    15
 10
3.375240
 20
5.638160
 11
4.017640
 21
6.010840
 12
3.404720
 22
5.611760
 13
4.046680
 23
5.984440
  0
POLYLINE
  8
0
  6
CONTINUOUS
 66
     1
 40
0.000000
 41
0.000000
  0
VERTEX
  8
0
  6
CONTINUOUS
 10
3.375240
 20
5.638160
  0
VERTEX
  8
0
  6
CONTINUOUS
 10
4.017640
 20
6.010840
  0
VERTEX
  8
0
  6
CONTINUOUS
 10
4.046680
 20
5.984440
  0
VERTEX
  8
0
  6
CONTINUOUS
 10
3.404720
 20
5.611760
  0
VERTEX
  8
0
  6
CONTINUOUS
 10
3.375240
 20
5.638160
  0
SEQEND
  8
0
  0
SOLID
  8
0
 62
    15
 10
3.404720
 20
5.611760
 11
4.046680
 21
5.984440
 12
3.431120
 22
5.583160
 13
4.073080
 23
5.955840
  0
POLYLINE
  8
0
  6
CONTINUOUS
 66
     1
 40
0.000000
 41
0.000000
  0
VERTEX
  8
0
  6
CONTINUOUS
 10
3.404720
 20
5.611760
  0
VERTEX
  8
0
  6
CONTINUOUS
 10
4.046680
 20
5.984440
  0
VERTEX
  8
0
  6
CONTINUOUS
 10
4.073080
 20
5.955840
  0
VERTEX
  8
0
  6
CONTINUOUS
 10
3.431120
 20
5.583160
  0
VERTEX
  8
0
  6
CONTINUOUS
 10
3.404720
 20
5.611760
  0
SEQEND
  8
0
  0
SOLID
  8
0
 62
    15
 10
3.088800
 20
5.833520
 11
3.731200
 21
6.206200
 12
3.190880
 22
5.833520
 13
3.832840
 23
6.206200
  0
POLYLINE
  8
0
  6
CONTINUOUS
 66
     1
 40
0.000000
 41
0.000000
  0
VERTEX
  8
0
  6
CONTINUOUS
 10
3.088800
 20
5.833520
  0
VERTEX
  8
0
  6
CONTINUOUS
 10
3.731200
 20
6.206200
  0
VERTEX
  8
0
  6
CONTINUOUS
 10
3.832840
 20
6.206200
  0
VERTEX
  8
0
  6
CONTINUOUS
 10
3.190880
 20
5.833520
  0
VERTEX
  8
0
  6
CONTINUOUS
 10
3.088800
 20
5.833520
  0
SEQEND
  8
0
  0
SOLID
  8
0
 62
    15
 10
3.454440
 20
5.551480
 11
4.096400
 21
5.924160
 12
3.475120
 22
5.518040
 13
4.117080
 23
5.890720
  0
POLYLINE
  8
0
  6
CONTINUOUS
 66
     1
 40
0.000000
 41
0.000000
  0
VERTEX
  8
0
  6
CONTINUOUS
 10
3.454440
 20
5.551480
  0
VERTEX
  8
0
  6
CONTINUOUS
 10
4.096400
 20
5.924160
  0
VERTEX
  8
0
  6
CONTINUOUS
 10
4.117080
 20
5.890720
  0
VERTEX
  8
0
  6
CONTINUOUS
 10
3.475120
 20
5.518040
  0
VERTEX
  8
0
  6
CONTINUOUS
 10
3.454440
 20
5.551480
  0
SEQEND
  8
0
  0
SOLID
  8
0
 62
    15
 10
3.475120
 20
5.518040
 11
4.117080
 21
5.890720
 12
3.492280
 22
5.481960
 13
4.134240
 23
5.854640
  0
POLYLINE
  8
0
  6
CONTINUOUS
 66
     1
 40
0.000000
 41
0.000000
  0
VERTEX
  8
0
  6
CONTINUOUS
 10
3.475120
 20
5.518040
  0
VERTEX
  8
0
  6
CONTINUOUS
 10
4.117080
 20
5.890720
  0
VERTEX
  8
0
  6
CONTINUOUS
 10
4.134240
 20
5.854640
  0
VERTEX
  8
0
  6
CONTINUOUS
 10
3.492280
 20
5.481960
  0
VERTEX
  8
0
  6
CONTINUOUS
 10
3.475120
 20
5.518040
  0
SEQEND
  8
0
  0
SOLID
  8
0
 62
    15
 10
3.492280
 20
5.481960
 11
4.134240
 21
5.854640
 12
3.506360
 22
5.443240
 13
4.148320
 23
5.815920
  0
POLYLINE
  8
0
  6
CONTINUOUS
 66
     1
 40
0.000000
 41
0.000000
  0
VERTEX
  8
0
  6
CONTINUOUS
 10
3.492280
 20
5.481960
  0
VERTEX
  8
0
  6
CONTINUOUS
 10
4.134240
 20
5.854640
  0
VERTEX
  8
0
  6
CONTINUOUS
 10
4.148320
 20
5.815920
  0
VERTEX
  8
0
  6
CONTINUOUS
 10
3.506360
 20
5.443240
  0
VERTEX
  8
0
  6
CONTINUOUS
 10
3.492280
 20
5.481960
  0
SEQEND
  8
0
  0
SOLID
  8
0
 62
    15
 10
3.506360
 20
5.443240
 11
4.148320
 21
5.815920
 12
3.516920
 22
5.401880
 13
4.159320
 23
5.774560
  0
POLYLINE
  8
0
  6
CONTINUOUS
 66
     1
 40
0.000000
 41
0.000000
  0
VERTEX
  8
0
  6
CONTINUOUS
 10
3.506360
 20
5.443240
  0
VERTEX
  8
0
  6
CONTINUOUS
 10
4.148320
 20
5.815920
  0
VERTEX
  8
0
  6
CONTINUOUS
 10
4.159320
 20
5.774560
  0
VERTEX
  8
0
  6
CONTINUOUS
 10
3.516920
 20
5.401880
  0
VERTEX
  8
0
  6
CONTINUOUS
 10
3.506360
 20
5.443240
  0
SEQEND
  8
0
  0
SOLID
  8
0
 62
    15
 10
3.516920
 20
5.401880
 11
4.159320
 21
5.774560
 12
3.524400
 22
5.358320
 13
4.166360
 23
5.731000
  0
POLYLINE
  8
0
  6
CONTINUOUS
 66
     1
 40
0.000000
 41
0.000000
  0
VERTEX
  8
0
  6
CONTINUOUS
 10
3.516920
 20
5.401880
  0
VERTEX
  8
0
  6
CONTINUOUS
 10
4.159320
 20
5.774560
  0
VERTEX
  8
0
  6
CONTINUOUS
 10
4.166360
 20
5.731000
  0
VERTEX
  8
0
  6
CONTINUOUS
 10
3.524400
 20
5.358320
  0
VERTEX
  8
0
  6
CONTINUOUS
 10
3.516920
 20
5.401880
  0
SEQEND
  8
0
  0
SOLID
  8
0
 62
    15
 10
3.524400
 20
5.358320
 11
4.166360
 21
5.731000
 12
3.528360
 22
5.312120
 13
4.170320
 23
5.684800
  0
POLYLINE
  8
0
  6
CONTINUOUS
 66
     1
 40
0.000000
 41
0.000000
  0
VERTEX
  8
0
  6
CONTINUOUS
 10
3.524400
 20
5.358320
  0
VERTEX
  8
0
  6
CONTINUOUS
 10
4.166360
 20
5.731000
  0
VERTEX
  8
0
  6
CONTINUOUS
 10
4.170320
 20
5.684800
  0
VERTEX
  8
0
  6
CONTINUOUS
 10
3.528360
 20
5.312120
  0
VERTEX
  8
0
  6
CONTINUOUS
 10
3.524400
 20
5.358320
  0
SEQEND
  8
0
  0
SOLID
  8
0
 62
    15
 10
3.528360
 20
5.312120
 11
4.170320
 21
5.684800
 12
3.528360
 22
5.263720
 13
4.170320
 23
5.636400
  0
POLYLINE
  8
0
  6
CONTINUOUS
 66
     1
 40
0.000000
 41
0.000000
  0
VERTEX
  8
0
  6
CONTINUOUS
 10
3.528360
 20
5.312120
  0
VERTEX
  8
0
  6
CONTINUOUS
 10
4.170320
 20
5.684800
  0
VERTEX
  8
0
  6
CONTINUOUS
 10
4.170320
 20
5.636400
  0
VERTEX
  8
0
  6
CONTINUOUS
 10
3.528360
 20
5.263720
  0
VERTEX
  8
0
  6
CONTINUOUS
 10
3.528360
 20
5.312120
  0
SEQEND
  8
0
  0
SOLID
  8
0
 62
    15
 10
3.528360
 20
5.263720
 11
4.170320
 21
5.636400
 12
3.524840
 22
5.212680
 13
4.166800
 23
5.585360
  0
POLYLINE
  8
0
  6
CONTINUOUS
 66
     1
 40
0.000000
 41
0.000000
  0
VERTEX
  8
0
  6
CONTINUOUS
 10
3.528360
 20
5.263720
  0
VERTEX
  8
0
  6
CONTINUOUS
 10
4.170320
 20
5.636400
  0
VERTEX
  8
0
  6
CONTINUOUS
 10
4.166800
 20
5.585360
  0
VERTEX
  8
0
  6
CONTINUOUS
 10
3.524840
 20
5.212680
  0
VERTEX
  8
0
  6
CONTINUOUS
 10
3.528360
 20
5.263720
  0
SEQEND
  8
0
  0
POLYLINE
  8
0
  6
CONTINUOUS
 66
     1
 40
0.000000
 41
0.000000
  0
VERTEX
  8
0
  6
CONTINUOUS
 10
3.088800
 20
5.212680
  0
VERTEX
  8
0
  6
CONTINUOUS
 10
3.088800
 20
5.833520
  0
VERTEX
  8
0
  6
CONTINUOUS
 10
3.190880
 20
5.833520
  0
VERTEX
  8
0
  6
CONTINUOUS
 10
3.190880
 20
5.735400
  0
VERTEX
  8
0
  6
CONTINUOUS
 10
3.232680
 20
5.720880
  0
VERTEX
  8
0
  6
CONTINUOUS
 10
3.271840
 20
5.703720
  0
VERTEX
  8
0
  6
CONTINUOUS
 10
3.308800
 20
5.684360
  0
VERTEX
  8
0
  6
CONTINUOUS
 10
3.343560
 20
5.662360
  0
VERTEX
  8
0
  6
CONTINUOUS
 10
3.375240
 20
5.638160
  0
VERTEX
  8
0
  6
CONTINUOUS
 10
3.404720
 20
5.611760
  0
VERTEX
  8
0
  6
CONTINUOUS
 10
3.431120
 20
5.583160
  0
VERTEX
  8
0
  6
CONTINUOUS
 10
3.454440
 20
5.551480
  0
VERTEX
  8
0
  6
CONTINUOUS
 10
3.475120
 20
5.518040
  0
VERTEX
  8
0
  6
CONTINUOUS
 10
3.492280
 20
5.481960
  0
VERTEX
  8
0
  6
CONTINUOUS
 10
3.506360
 20
5.443240
  0
VERTEX
  8
0
  6
CONTINUOUS
 10
3.516920
 20
5.401880
  0
VERTEX
  8
0
  6
CONTINUOUS
 10
3.524400
 20
5.358320
  0
VERTEX
  8
0
  6
CONTINUOUS
 10
3.528360
 20
5.312120
  0
VERTEX
  8
0
  6
CONTINUOUS
 10
3.528360
 20
5.263720
  0
VERTEX
  8
0
  6
CONTINUOUS
 10
3.524840
 20
5.212680
  0
VERTEX
  8
0
  6
CONTINUOUS
 10
3.088800
 20
5.212680
  0
SEQEND
  8
0
  0
POLYLINE
  8
0
  6
CONTINUOUS
 66
     1
 40
0.014080
 41
0.014080
  0
VERTEX
  8
0
  6
CONTINUOUS
 10
4.495480
 20
5.616600
  0
VERTEX
  8
0
  6
CONTINUOUS
 10
4.495480
 20
6.237440
  0
VERTEX
  8
0
  6
CONTINUOUS
 10
4.597560
 20
6.237440
  0
VERTEX
  8
0
  6
CONTINUOUS
 10
4.597560
 20
6.139320
  0
VERTEX
  8
0
  6
CONTINUOUS
 10
4.618680
 20
6.132280
  0
VERTEX
  8
0
  6
CONTINUOUS
 10
4.639360
 20
6.124360
  0
VERTEX
  8
0
  6
CONTINUOUS
 10
4.659160
 20
6.116440
  0
VERTEX
  8
0
  6
CONTINUOUS
 10
4.678960
 20
6.107640
  0
VERTEX
  8
0
  6
CONTINUOUS
 10
4.715920
 20
6.088280
  0
VERTEX
  8
0
  6
CONTINUOUS
 10
4.733520
 20
6.077280
  0
VERTEX
  8
0
  6
CONTINUOUS
 10
4.750240
 20
6.066280
  0
VERTEX
  8
0
  6
CONTINUOUS
 10
4.766520
 20
6.054400
  0
VERTEX
  8
0
  6
CONTINUOUS
 10
4.782360
 20
6.042080
  0
VERTEX
  8
0
  6
CONTINUOUS
 10
4.797320
 20
6.029320
  0
VERTEX
  8
0
  6
CONTINUOUS
 10
4.811400
 20
6.015680
  0
VERTEX
  8
0
  6
CONTINUOUS
 10
4.825040
 20
6.001600
  0
VERTEX
  8
0
  6
CONTINUOUS
 10
4.837800
 20
5.986640
  0
VERTEX
  8
0
  6
CONTINUOUS
 10
4.849680
 20
5.971240
  0
VERTEX
  8
0
  6
CONTINUOUS
 10
4.861120
 20
5.955400
  0
VERTEX
  8
0
  6
CONTINUOUS
 10
4.871680
 20
5.939120
  0
VERTEX
  8
0
  6
CONTINUOUS
 10
4.881800
 20
5.921960
  0
VERTEX
  8
0
  6
CONTINUOUS
 10
4.890600
 20
5.903920
  0
VERTEX
  8
0
  6
CONTINUOUS
 10
4.898960
 20
5.885440
  0
VERTEX
  8
0
  6
CONTINUOUS
 10
4.906440
 20
5.866520
  0
VERTEX
  8
0
  6
CONTINUOUS
 10
4.913040
 20
5.847160
  0
VERTEX
  8
0
  6
CONTINUOUS
 10
4.918760
 20
5.826920
  0
VERTEX
  8
0
  6
CONTINUOUS
 10
4.923600
 20
5.805800
  0
VERTEX
  8
0
  6
CONTINUOUS
 10
4.928000
 20
5.784680
  0
VERTEX
  8
0
  6
CONTINUOUS
 10
4.931080
 20
5.762240
  0
VERTEX
  8
0
  6
CONTINUOUS
 10
4.933280
 20
5.739800
  0
VERTEX
  8
0
  6
CONTINUOUS
 10
4.935040
 20
5.716480
  0
VERTEX
  8
0
  6
CONTINUOUS
 10
4.935480
 20
5.692280
  0
VERTEX
  8
0
  6
CONTINUOUS
 10
4.935040
 20
5.667640
  0
VERTEX
  8
0
  6
CONTINUOUS
 10
4.933720
 20
5.642560
  0
VERTEX
  8
0
  6
CONTINUOUS
 10
4.931520
 20
5.616600
  0
VERTEX
  8
0
  6
CONTINUOUS
 10
4.495480
 20
5.616600
  0
SEQEND
  8
0
  0
TEXT
  8
0
 10
4.593600
 20
5.367120
 40
0.138083
  1
BA  416
 41
1.000000
  7
SN0
 71
     0
 72
     5
 11
5.183697
 21
5.367120
  0
TEXT
  8
0
 10
4.465560
 20
5.175280
 40
0.138083
  1
7/16" x 5/8"
 41
1.000000
  7
SN0
 71
     0
 72
     5
 11
5.310929
 21
5.175280
  0
ENDSEC
  0
EOF
