  0
SECTION
  2
HEADER
  9
$ACADVER
  1
AC1006
  9
$EXTMIN
 10
1.318680
 20
0.574200
  9
$EXTMAX
 10
7.276720
 20
3.683240
  9
$LTSCALE
 40
0.044000
  9
$PDMODE
 70
    35
  9
$PDSIZE
 40
0.035200
  0
ENDSEC
  0
SECTION
  2
TABLES
  0
TABLE
  2
LTYPE
 70
     9
  0
LTYPE
  2
CONTINUOUS
 70
    64
  3
Solid line
 72
    65
 73
     0
 40
0.000000
  0
LTYPE
  2
DASHED
 70
    64
  3
__ __ __ __ __ __ __ __ __ __ __ __ __ __ __
 72
    65
 73
     2
 40
0.000330
 49
0.000220
 49
-0.000110
  0
LTYPE
  2
HIDDEN
 70
    64
  3
 _ _ _ _ _ _ _ _ _ _ _ _ _ _ _ _ _ _ _ _ _ _
 72
    65
 73
     2
 40
0.000165
 49
0.000110
 49
-0.000055
  0
LTYPE
  2
CENTER
 70
    64
  3
____ _ ____ _ ____ _ ____ _ ____ _ ____ _ ____
 72
    65
 73
     4
 40
0.000880
 49
0.000550
 49
-0.000110
 49
0.000110
 49
-0.000110
  0
LTYPE
  2
PHANTOM
 70
    64
  3
_____ _ _ _____ _ _ _____ _ _ _____ _ _ ____
 72
    65
 73
     6
 40
0.001100
 49
0.000550
 49
-0.000110
 49
0.000110
 49
-0.000110
 49
0.000110
 49
-0.000110
  0
LTYPE
  2
DOT
 70
    64
  3
...............................................
 72
    65
 73
     2
 40
0.000110
 49
0.000000
 49
-0.000110
  0
LTYPE
  2
DASHDOT
 70
    64
  3
__ . __ . __ . __ . __ . __ . __ . __ . __ . __
 72
    65
 73
     4
 40
0.000440
 49
0.000220
 49
-0.000110
 49
0.000000
 49
-0.000110
  0
LTYPE
  2
BORDER
 70
    64
  3
__ __ . __ __ . __ __ . __ __ . __ __ . __ __
 72
    65
 73
     6
 40
0.000770
 49
0.000220
 49
-0.000110
 49
0.000220
 49
-0.000110
 49
0.000000
 49
-0.000110
  0
LTYPE
  2
DIVIDE
 70
    64
  3
__ . . __ . . __ . . __ . . __ . . __ . . __
 72
    65
 73
     6
 40
0.000550
 49
0.000220
 49
-0.000110
 49
0.000000
 49
-0.000110
 49
0.000000
 49
-0.000110
  0
LTYPE
  2
DOTDOT
 70
    64
  3
 . .  . .  . .  . .  . .  . . 
 72
    65
 73
     5
 40
0.000242
 49
-0.000110
 49
0.000000
 49
-0.000110
 49
0.000000
 49
-0.000110
  0
ENDTAB
  0
TABLE
  2
STYLE
 70
     2
  0
STYLE
 70
     0
  2
SN0
 40
0.000000
 41
0.000440
 50
0.000000
 71
     0
 42
0.000000
  3
ROMAND
  0
STYLE
 70
    68
  2
SV0
 40
0.000000
 41
0.000440
 50
0.000000
 71
     0
 42
0.000000
  3
ROMAND
  0
ENDTAB
  0
TABLE
  2
LAYER
 70
     3
  0
LAYER
  2
FOREGROUND
 70
    64
 62
     7
  6
CONTINUOUS
  0
LAYER
  2
BACKGROUND
 70
    65
 62
    -7
  6
CONTINUOUS
  0
LAYER
  2
0
 70
    64
 62
     7
  6
CONTINUOUS
  0
ENDTAB
  0
ENDSEC
  0
SECTION
  2
ENTITIES
  0
POLYLINE
  8
FOREGROUND
  6
CONTINUOUS
 66
     1
 40
0.000000
 41
0.000000
  0
VERTEX
  8
FOREGROUND
  6
CONTINUOUS
 10
0.000000
 20
4.257440
  0
VERTEX
  8
FOREGROUND
  6
CONTINUOUS
 10
8.499920
 20
4.257440
  0
VERTEX
  8
FOREGROUND
  6
CONTINUOUS
 10
8.499920
 20
-6.742560
  0
VERTEX
  8
FOREGROUND
  6
CONTINUOUS
 10
0.000000
 20
-6.742560
  0
VERTEX
  8
FOREGROUND
  6
CONTINUOUS
 10
0.000000
 20
4.257440
  0
SEQEND
  8
0
  0
POLYLINE
  8
0
  6
CONTINUOUS
 66
     1
 40
0.014080
 41
0.014080
  0
VERTEX
  8
0
  6
CONTINUOUS
 10
4.550040
 20
3.372160
  0
VERTEX
  8
0
  6
CONTINUOUS
 10
4.570280
 20
3.410000
  0
VERTEX
  8
0
  6
CONTINUOUS
 10
4.593160
 20
3.442120
  0
VERTEX
  8
0
  6
CONTINUOUS
 10
4.619560
 20
3.468960
  0
VERTEX
  8
0
  6
CONTINUOUS
 10
4.649480
 20
3.490960
  0
VERTEX
  8
0
  6
CONTINUOUS
 10
4.682040
 20
3.508120
  0
VERTEX
  8
0
  6
CONTINUOUS
 10
4.699200
 20
3.515160
  0
VERTEX
  8
0
  6
CONTINUOUS
 10
4.736600
 20
3.525720
  0
VERTEX
  8
0
  6
CONTINUOUS
 10
4.776640
 20
3.532760
  0
VERTEX
  8
0
  6
CONTINUOUS
 10
4.820200
 20
3.536720
  0
VERTEX
  8
0
  6
CONTINUOUS
 10
4.866400
 20
3.537160
  0
VERTEX
  8
0
  6
CONTINUOUS
 10
4.915680
 20
3.534960
  0
VERTEX
  8
0
  6
CONTINUOUS
 10
5.023040
 20
3.523520
  0
VERTEX
  8
0
  6
CONTINUOUS
 10
5.141840
 20
3.505040
  0
VERTEX
  8
0
  6
CONTINUOUS
 10
5.334120
 20
3.472480
  0
VERTEX
  8
0
  6
CONTINUOUS
 10
5.449840
 20
3.457520
  0
VERTEX
  8
0
  6
CONTINUOUS
 10
5.528160
 20
3.450920
  0
VERTEX
  8
0
  6
CONTINUOUS
 10
5.576560
 20
3.448720
  0
VERTEX
  8
0
  6
CONTINUOUS
 10
5.643440
 20
3.449600
  0
VERTEX
  8
0
  6
CONTINUOUS
 10
5.684360
 20
3.452240
  0
VERTEX
  8
0
  6
CONTINUOUS
 10
5.740680
 20
3.460600
  0
VERTEX
  8
0
  6
CONTINUOUS
 10
5.791280
 20
3.473800
  0
VERTEX
  8
0
  6
CONTINUOUS
 10
5.836600
 20
3.492280
  0
VERTEX
  8
0
  6
CONTINUOUS
 10
5.876200
 20
3.516040
  0
VERTEX
  8
0
  6
CONTINUOUS
 10
5.900400
 20
3.534960
  0
VERTEX
  8
0
  6
CONTINUOUS
 10
5.995880
 20
3.628680
  0
VERTEX
  8
0
  6
CONTINUOUS
 10
6.009080
 20
3.639240
  0
VERTEX
  8
0
  6
CONTINUOUS
 10
6.035480
 20
3.653320
  0
VERTEX
  8
0
  6
CONTINUOUS
 10
6.049560
 20
3.656400
  0
VERTEX
  8
0
  6
CONTINUOUS
 10
6.064520
 20
3.656840
  0
VERTEX
  8
0
  6
CONTINUOUS
 10
6.089600
 20
3.652440
  0
VERTEX
  8
0
  6
CONTINUOUS
 10
6.130520
 20
3.635720
  0
VERTEX
  8
0
  6
CONTINUOUS
 10
6.197840
 20
3.596560
  0
VERTEX
  8
0
  6
CONTINUOUS
 10
6.388360
 20
3.673560
  0
VERTEX
  8
0
  6
CONTINUOUS
 10
7.130200
 20
3.673560
  0
VERTEX
  8
0
  6
CONTINUOUS
 10
7.130200
 20
2.929520
  0
VERTEX
  8
0
  6
CONTINUOUS
 10
1.326160
 20
2.929520
  0
VERTEX
  8
0
  6
CONTINUOUS
 10
1.326160
 20
3.674880
  0
VERTEX
  8
0
  6
CONTINUOUS
 10
1.327920
 20
3.675760
  0
VERTEX
  8
0
  6
CONTINUOUS
 10
2.069760
 20
3.675760
  0
VERTEX
  8
0
  6
CONTINUOUS
 10
2.260720
 20
3.598760
  0
VERTEX
  8
0
  6
CONTINUOUS
 10
2.316160
 20
3.631760
  0
VERTEX
  8
0
  6
CONTINUOUS
 10
2.359280
 20
3.651560
  0
VERTEX
  8
0
  6
CONTINUOUS
 10
2.386120
 20
3.658160
  0
VERTEX
  8
0
  6
CONTINUOUS
 10
2.401520
 20
3.659040
  0
VERTEX
  8
0
  6
CONTINUOUS
 10
2.416040
 20
3.657280
  0
VERTEX
  8
0
  6
CONTINUOUS
 10
2.435840
 20
3.649360
  0
VERTEX
  8
0
  6
CONTINUOUS
 10
2.449040
 20
3.641440
  0
VERTEX
  8
0
  6
CONTINUOUS
 10
2.476320
 20
3.618120
  0
VERTEX
  8
0
  6
CONTINUOUS
 10
2.557720
 20
3.537160
  0
VERTEX
  8
0
  6
CONTINUOUS
 10
2.594240
 20
3.509880
  0
VERTEX
  8
0
  6
CONTINUOUS
 10
2.621520
 20
3.494480
  0
VERTEX
  8
0
  6
CONTINUOUS
 10
2.651000
 20
3.481720
  0
VERTEX
  8
0
  6
CONTINUOUS
 10
2.699840
 20
3.467200
  0
VERTEX
  8
0
  6
CONTINUOUS
 10
2.735480
 20
3.459720
  0
VERTEX
  8
0
  6
CONTINUOUS
 10
2.794000
 20
3.453120
  0
VERTEX
  8
0
  6
CONTINUOUS
 10
2.836240
 20
3.450920
  0
VERTEX
  8
0
  6
CONTINUOUS
 10
2.905320
 20
3.451800
  0
VERTEX
  8
0
  6
CONTINUOUS
 10
2.981440
 20
3.457080
  0
VERTEX
  8
0
  6
CONTINUOUS
 10
3.094080
 20
3.470280
  0
VERTEX
  8
0
  6
CONTINUOUS
 10
3.252920
 20
3.496240
  0
VERTEX
  8
0
  6
CONTINUOUS
 10
3.406920
 20
3.521760
  0
VERTEX
  8
0
  6
CONTINUOUS
 10
3.490520
 20
3.532760
  0
VERTEX
  8
0
  6
CONTINUOUS
 10
3.567520
 20
3.538920
  0
VERTEX
  8
0
  6
CONTINUOUS
 10
3.615480
 20
3.539800
  0
VERTEX
  8
0
  6
CONTINUOUS
 10
3.660360
 20
3.537600
  0
VERTEX
  8
0
  6
CONTINUOUS
 10
3.702160
 20
3.532320
  0
VERTEX
  8
0
  6
CONTINUOUS
 10
3.740880
 20
3.523520
  0
VERTEX
  8
0
  6
CONTINUOUS
 10
3.776520
 20
3.510320
  0
VERTEX
  8
0
  6
CONTINUOUS
 10
3.809080
 20
3.493160
  0
VERTEX
  8
0
  6
CONTINUOUS
 10
3.838560
 20
3.471160
  0
VERTEX
  8
0
  6
CONTINUOUS
 10
3.864960
 20
3.444320
  0
VERTEX
  8
0
  6
CONTINUOUS
 10
3.888280
 20
3.412200
  0
VERTEX
  8
0
  6
CONTINUOUS
 10
3.908080
 20
3.374360
  0
VERTEX
  8
0
  6
CONTINUOUS
 10
4.550040
 20
3.372160
  0
SEQEND
  8
0
  0
SOLID
  8
0
 62
    15
 10
1.472240
 20
1.075360
 11
1.468280
 21
1.817640
 12
1.472240
 22
1.820720
 13
1.468280
 23
2.563000
  0
POLYLINE
  8
0
  6
CONTINUOUS
 66
     1
 40
0.000000
 41
0.000000
  0
VERTEX
  8
0
  6
CONTINUOUS
 10
1.472240
 20
1.075360
  0
VERTEX
  8
0
  6
CONTINUOUS
 10
1.468280
 20
1.817640
  0
VERTEX
  8
0
  6
CONTINUOUS
 10
1.468280
 20
2.563000
  0
VERTEX
  8
0
  6
CONTINUOUS
 10
1.472240
 20
1.820720
  0
VERTEX
  8
0
  6
CONTINUOUS
 10
1.472240
 20
1.075360
  0
SEQEND
  8
0
  0
SOLID
  8
0
 62
    15
 10
4.716360
 20
1.555840
 11
4.712400
 21
2.298120
 12
4.739680
 22
1.587960
 13
4.735720
 23
2.330240
  0
POLYLINE
  8
0
  6
CONTINUOUS
 66
     1
 40
0.000000
 41
0.000000
  0
VERTEX
  8
0
  6
CONTINUOUS
 10
4.716360
 20
1.555840
  0
VERTEX
  8
0
  6
CONTINUOUS
 10
4.712400
 20
2.298120
  0
VERTEX
  8
0
  6
CONTINUOUS
 10
4.735720
 20
2.330240
  0
VERTEX
  8
0
  6
CONTINUOUS
 10
4.739680
 20
1.587960
  0
VERTEX
  8
0
  6
CONTINUOUS
 10
4.716360
 20
1.555840
  0
SEQEND
  8
0
  0
SOLID
  8
0
 62
    15
 10
4.739680
 20
1.587960
 11
4.735720
 21
2.330240
 12
4.766080
 22
1.614800
 13
4.762120
 23
2.357080
  0
POLYLINE
  8
0
  6
CONTINUOUS
 66
     1
 40
0.000000
 41
0.000000
  0
VERTEX
  8
0
  6
CONTINUOUS
 10
4.739680
 20
1.587960
  0
VERTEX
  8
0
  6
CONTINUOUS
 10
4.735720
 20
2.330240
  0
VERTEX
  8
0
  6
CONTINUOUS
 10
4.762120
 20
2.357080
  0
VERTEX
  8
0
  6
CONTINUOUS
 10
4.766080
 20
1.614800
  0
VERTEX
  8
0
  6
CONTINUOUS
 10
4.739680
 20
1.587960
  0
SEQEND
  8
0
  0
SOLID
  8
0
 62
    15
 10
4.766080
 20
1.614800
 11
4.762120
 21
2.357080
 12
4.795560
 22
1.636800
 13
4.791600
 23
2.379080
  0
POLYLINE
  8
0
  6
CONTINUOUS
 66
     1
 40
0.000000
 41
0.000000
  0
VERTEX
  8
0
  6
CONTINUOUS
 10
4.766080
 20
1.614800
  0
VERTEX
  8
0
  6
CONTINUOUS
 10
4.762120
 20
2.357080
  0
VERTEX
  8
0
  6
CONTINUOUS
 10
4.791600
 20
2.379080
  0
VERTEX
  8
0
  6
CONTINUOUS
 10
4.795560
 20
1.636800
  0
VERTEX
  8
0
  6
CONTINUOUS
 10
4.766080
 20
1.614800
  0
SEQEND
  8
0
  0
SOLID
  8
0
 62
    15
 10
4.795560
 20
1.636800
 11
4.791600
 21
2.379080
 12
4.828120
 22
1.653960
 13
4.824160
 23
2.396240
  0
POLYLINE
  8
0
  6
CONTINUOUS
 66
     1
 40
0.000000
 41
0.000000
  0
VERTEX
  8
0
  6
CONTINUOUS
 10
4.795560
 20
1.636800
  0
VERTEX
  8
0
  6
CONTINUOUS
 10
4.791600
 20
2.379080
  0
VERTEX
  8
0
  6
CONTINUOUS
 10
4.824160
 20
2.396240
  0
VERTEX
  8
0
  6
CONTINUOUS
 10
4.828120
 20
1.653960
  0
VERTEX
  8
0
  6
CONTINUOUS
 10
4.795560
 20
1.636800
  0
SEQEND
  8
0
  0
SOLID
  8
0
 62
    15
 10
4.828120
 20
1.653960
 11
4.824160
 21
2.396240
 12
4.863760
 22
1.666720
 13
4.859800
 23
2.409000
  0
POLYLINE
  8
0
  6
CONTINUOUS
 66
     1
 40
0.000000
 41
0.000000
  0
VERTEX
  8
0
  6
CONTINUOUS
 10
4.828120
 20
1.653960
  0
VERTEX
  8
0
  6
CONTINUOUS
 10
4.824160
 20
2.396240
  0
VERTEX
  8
0
  6
CONTINUOUS
 10
4.859800
 20
2.409000
  0
VERTEX
  8
0
  6
CONTINUOUS
 10
4.863760
 20
1.666720
  0
VERTEX
  8
0
  6
CONTINUOUS
 10
4.828120
 20
1.653960
  0
SEQEND
  8
0
  0
SOLID
  8
0
 62
    15
 10
4.863760
 20
1.666720
 11
4.859800
 21
2.409000
 12
4.902480
 22
1.675520
 13
4.898520
 23
2.418240
  0
POLYLINE
  8
0
  6
CONTINUOUS
 66
     1
 40
0.000000
 41
0.000000
  0
VERTEX
  8
0
  6
CONTINUOUS
 10
4.863760
 20
1.666720
  0
VERTEX
  8
0
  6
CONTINUOUS
 10
4.859800
 20
2.409000
  0
VERTEX
  8
0
  6
CONTINUOUS
 10
4.898520
 20
2.418240
  0
VERTEX
  8
0
  6
CONTINUOUS
 10
4.902480
 20
1.675520
  0
VERTEX
  8
0
  6
CONTINUOUS
 10
4.863760
 20
1.666720
  0
SEQEND
  8
0
  0
SOLID
  8
0
 62
    15
 10
4.902480
 20
1.675520
 11
4.898520
 21
2.418240
 12
4.944280
 22
1.681240
 13
4.940320
 23
2.423520
  0
POLYLINE
  8
0
  6
CONTINUOUS
 66
     1
 40
0.000000
 41
0.000000
  0
VERTEX
  8
0
  6
CONTINUOUS
 10
4.902480
 20
1.675520
  0
VERTEX
  8
0
  6
CONTINUOUS
 10
4.898520
 20
2.418240
  0
VERTEX
  8
0
  6
CONTINUOUS
 10
4.940320
 20
2.423520
  0
VERTEX
  8
0
  6
CONTINUOUS
 10
4.944280
 20
1.681240
  0
VERTEX
  8
0
  6
CONTINUOUS
 10
4.902480
 20
1.675520
  0
SEQEND
  8
0
  0
SOLID
  8
0
 62
    15
 10
4.944280
 20
1.681240
 11
4.940320
 21
2.423520
 12
4.989160
 22
1.683000
 13
4.985200
 23
2.425280
  0
POLYLINE
  8
0
  6
CONTINUOUS
 66
     1
 40
0.000000
 41
0.000000
  0
VERTEX
  8
0
  6
CONTINUOUS
 10
4.944280
 20
1.681240
  0
VERTEX
  8
0
  6
CONTINUOUS
 10
4.940320
 20
2.423520
  0
VERTEX
  8
0
  6
CONTINUOUS
 10
4.985200
 20
2.425280
  0
VERTEX
  8
0
  6
CONTINUOUS
 10
4.989160
 20
1.683000
  0
VERTEX
  8
0
  6
CONTINUOUS
 10
4.944280
 20
1.681240
  0
SEQEND
  8
0
  0
SOLID
  8
0
 62
    15
 10
4.989160
 20
1.683000
 11
4.985200
 21
2.425280
 12
5.036680
 22
1.682120
 13
5.032720
 23
2.424400
  0
POLYLINE
  8
0
  6
CONTINUOUS
 66
     1
 40
0.000000
 41
0.000000
  0
VERTEX
  8
0
  6
CONTINUOUS
 10
4.989160
 20
1.683000
  0
VERTEX
  8
0
  6
CONTINUOUS
 10
4.985200
 20
2.425280
  0
VERTEX
  8
0
  6
CONTINUOUS
 10
5.032720
 20
2.424400
  0
VERTEX
  8
0
  6
CONTINUOUS
 10
5.036680
 20
1.682120
  0
VERTEX
  8
0
  6
CONTINUOUS
 10
4.989160
 20
1.683000
  0
SEQEND
  8
0
  0
SOLID
  8
0
 62
    15
 10
5.036680
 20
1.682120
 11
5.032720
 21
2.424400
 12
5.087720
 22
1.678600
 13
5.083760
 23
2.420880
  0
POLYLINE
  8
0
  6
CONTINUOUS
 66
     1
 40
0.000000
 41
0.000000
  0
VERTEX
  8
0
  6
CONTINUOUS
 10
5.036680
 20
1.682120
  0
VERTEX
  8
0
  6
CONTINUOUS
 10
5.032720
 20
2.424400
  0
VERTEX
  8
0
  6
CONTINUOUS
 10
5.083760
 20
2.420880
  0
VERTEX
  8
0
  6
CONTINUOUS
 10
5.087720
 20
1.678600
  0
VERTEX
  8
0
  6
CONTINUOUS
 10
5.036680
 20
1.682120
  0
SEQEND
  8
0
  0
SOLID
  8
0
 62
    15
 10
5.087720
 20
1.678600
 11
5.083760
 21
2.420880
 12
5.141400
 22
1.672880
 13
5.137440
 23
2.415160
  0
POLYLINE
  8
0
  6
CONTINUOUS
 66
     1
 40
0.000000
 41
0.000000
  0
VERTEX
  8
0
  6
CONTINUOUS
 10
5.087720
 20
1.678600
  0
VERTEX
  8
0
  6
CONTINUOUS
 10
5.083760
 20
2.420880
  0
VERTEX
  8
0
  6
CONTINUOUS
 10
5.137440
 20
2.415160
  0
VERTEX
  8
0
  6
CONTINUOUS
 10
5.141400
 20
1.672880
  0
VERTEX
  8
0
  6
CONTINUOUS
 10
5.087720
 20
1.678600
  0
SEQEND
  8
0
  0
SOLID
  8
0
 62
    15
 10
5.141400
 20
1.672880
 11
5.137440
 21
2.415160
 12
5.257120
 22
1.656160
 13
5.253160
 23
2.398440
  0
POLYLINE
  8
0
  6
CONTINUOUS
 66
     1
 40
0.000000
 41
0.000000
  0
VERTEX
  8
0
  6
CONTINUOUS
 10
5.141400
 20
1.672880
  0
VERTEX
  8
0
  6
CONTINUOUS
 10
5.137440
 20
2.415160
  0
VERTEX
  8
0
  6
CONTINUOUS
 10
5.253160
 20
2.398440
  0
VERTEX
  8
0
  6
CONTINUOUS
 10
5.257120
 20
1.656160
  0
VERTEX
  8
0
  6
CONTINUOUS
 10
5.141400
 20
1.672880
  0
SEQEND
  8
0
  0
SOLID
  8
0
 62
    15
 10
5.257120
 20
1.656160
 11
5.253160
 21
2.398440
 12
5.384280
 22
1.634160
 13
5.380760
 23
2.376440
  0
POLYLINE
  8
0
  6
CONTINUOUS
 66
     1
 40
0.000000
 41
0.000000
  0
VERTEX
  8
0
  6
CONTINUOUS
 10
5.257120
 20
1.656160
  0
VERTEX
  8
0
  6
CONTINUOUS
 10
5.253160
 20
2.398440
  0
VERTEX
  8
0
  6
CONTINUOUS
 10
5.380760
 20
2.376440
  0
VERTEX
  8
0
  6
CONTINUOUS
 10
5.384280
 20
1.634160
  0
VERTEX
  8
0
  6
CONTINUOUS
 10
5.257120
 20
1.656160
  0
SEQEND
  8
0
  0
SOLID
  8
0
 62
    15
 10
5.384280
 20
1.634160
 11
5.380760
 21
2.376440
 12
5.448960
 22
1.623160
 13
5.445000
 23
2.365440
  0
POLYLINE
  8
0
  6
CONTINUOUS
 66
     1
 40
0.000000
 41
0.000000
  0
VERTEX
  8
0
  6
CONTINUOUS
 10
5.384280
 20
1.634160
  0
VERTEX
  8
0
  6
CONTINUOUS
 10
5.380760
 20
2.376440
  0
VERTEX
  8
0
  6
CONTINUOUS
 10
5.445000
 20
2.365440
  0
VERTEX
  8
0
  6
CONTINUOUS
 10
5.448960
 20
1.623160
  0
VERTEX
  8
0
  6
CONTINUOUS
 10
5.384280
 20
1.634160
  0
SEQEND
  8
0
  0
SOLID
  8
0
 62
    15
 10
5.448960
 20
1.623160
 11
5.445000
 21
2.365440
 12
5.510560
 22
1.613920
 13
5.506600
 23
2.356200
  0
POLYLINE
  8
0
  6
CONTINUOUS
 66
     1
 40
0.000000
 41
0.000000
  0
VERTEX
  8
0
  6
CONTINUOUS
 10
5.448960
 20
1.623160
  0
VERTEX
  8
0
  6
CONTINUOUS
 10
5.445000
 20
2.365440
  0
VERTEX
  8
0
  6
CONTINUOUS
 10
5.506600
 20
2.356200
  0
VERTEX
  8
0
  6
CONTINUOUS
 10
5.510560
 20
1.613920
  0
VERTEX
  8
0
  6
CONTINUOUS
 10
5.448960
 20
1.623160
  0
SEQEND
  8
0
  0
SOLID
  8
0
 62
    15
 10
5.510560
 20
1.613920
 11
5.506600
 21
2.356200
 12
5.568200
 22
1.606440
 13
5.564240
 23
2.348720
  0
POLYLINE
  8
0
  6
CONTINUOUS
 66
     1
 40
0.000000
 41
0.000000
  0
VERTEX
  8
0
  6
CONTINUOUS
 10
5.510560
 20
1.613920
  0
VERTEX
  8
0
  6
CONTINUOUS
 10
5.506600
 20
2.356200
  0
VERTEX
  8
0
  6
CONTINUOUS
 10
5.564240
 20
2.348720
  0
VERTEX
  8
0
  6
CONTINUOUS
 10
5.568200
 20
1.606440
  0
VERTEX
  8
0
  6
CONTINUOUS
 10
5.510560
 20
1.613920
  0
SEQEND
  8
0
  0
SOLID
  8
0
 62
    15
 10
5.568200
 20
1.606440
 11
5.564240
 21
2.348720
 12
5.622760
 22
1.600720
 13
5.618800
 23
2.343000
  0
POLYLINE
  8
0
  6
CONTINUOUS
 66
     1
 40
0.000000
 41
0.000000
  0
VERTEX
  8
0
  6
CONTINUOUS
 10
5.568200
 20
1.606440
  0
VERTEX
  8
0
  6
CONTINUOUS
 10
5.564240
 20
2.348720
  0
VERTEX
  8
0
  6
CONTINUOUS
 10
5.618800
 20
2.343000
  0
VERTEX
  8
0
  6
CONTINUOUS
 10
5.622760
 20
1.600720
  0
VERTEX
  8
0
  6
CONTINUOUS
 10
5.568200
 20
1.606440
  0
SEQEND
  8
0
  0
SOLID
  8
0
 62
    15
 10
5.622760
 20
1.600720
 11
5.618800
 21
2.343000
 12
5.674240
 22
1.596760
 13
5.670280
 23
2.339040
  0
POLYLINE
  8
0
  6
CONTINUOUS
 66
     1
 40
0.000000
 41
0.000000
  0
VERTEX
  8
0
  6
CONTINUOUS
 10
5.622760
 20
1.600720
  0
VERTEX
  8
0
  6
CONTINUOUS
 10
5.618800
 20
2.343000
  0
VERTEX
  8
0
  6
CONTINUOUS
 10
5.670280
 20
2.339040
  0
VERTEX
  8
0
  6
CONTINUOUS
 10
5.674240
 20
1.596760
  0
VERTEX
  8
0
  6
CONTINUOUS
 10
5.622760
 20
1.600720
  0
SEQEND
  8
0
  0
SOLID
  8
0
 62
    15
 10
5.674240
 20
1.596760
 11
5.670280
 21
2.339040
 12
5.722640
 22
1.594560
 13
5.718680
 23
2.336840
  0
POLYLINE
  8
0
  6
CONTINUOUS
 66
     1
 40
0.000000
 41
0.000000
  0
VERTEX
  8
0
  6
CONTINUOUS
 10
5.674240
 20
1.596760
  0
VERTEX
  8
0
  6
CONTINUOUS
 10
5.670280
 20
2.339040
  0
VERTEX
  8
0
  6
CONTINUOUS
 10
5.718680
 20
2.336840
  0
VERTEX
  8
0
  6
CONTINUOUS
 10
5.722640
 20
1.594560
  0
VERTEX
  8
0
  6
CONTINUOUS
 10
5.674240
 20
1.596760
  0
SEQEND
  8
0
  0
SOLID
  8
0
 62
    15
 10
5.722640
 20
1.594560
 11
5.718680
 21
2.336840
 12
5.810640
 22
1.596320
 13
5.806680
 23
2.338600
  0
POLYLINE
  8
0
  6
CONTINUOUS
 66
     1
 40
0.000000
 41
0.000000
  0
VERTEX
  8
0
  6
CONTINUOUS
 10
5.722640
 20
1.594560
  0
VERTEX
  8
0
  6
CONTINUOUS
 10
5.718680
 20
2.336840
  0
VERTEX
  8
0
  6
CONTINUOUS
 10
5.806680
 20
2.338600
  0
VERTEX
  8
0
  6
CONTINUOUS
 10
5.810640
 20
1.596320
  0
VERTEX
  8
0
  6
CONTINUOUS
 10
5.722640
 20
1.594560
  0
SEQEND
  8
0
  0
SOLID
  8
0
 62
    15
 10
5.810640
 20
1.596320
 11
5.806680
 21
2.338600
 12
5.887200
 22
1.606440
 13
5.883240
 23
2.348720
  0
POLYLINE
  8
0
  6
CONTINUOUS
 66
     1
 40
0.000000
 41
0.000000
  0
VERTEX
  8
0
  6
CONTINUOUS
 10
5.810640
 20
1.596320
  0
VERTEX
  8
0
  6
CONTINUOUS
 10
5.806680
 20
2.338600
  0
VERTEX
  8
0
  6
CONTINUOUS
 10
5.883240
 20
2.348720
  0
VERTEX
  8
0
  6
CONTINUOUS
 10
5.887200
 20
1.606440
  0
VERTEX
  8
0
  6
CONTINUOUS
 10
5.810640
 20
1.596320
  0
SEQEND
  8
0
  0
SOLID
  8
0
 62
    15
 10
5.887200
 20
1.606440
 11
5.883240
 21
2.348720
 12
5.953200
 22
1.625360
 13
5.949240
 23
2.367640
  0
POLYLINE
  8
0
  6
CONTINUOUS
 66
     1
 40
0.000000
 41
0.000000
  0
VERTEX
  8
0
  6
CONTINUOUS
 10
5.887200
 20
1.606440
  0
VERTEX
  8
0
  6
CONTINUOUS
 10
5.883240
 20
2.348720
  0
VERTEX
  8
0
  6
CONTINUOUS
 10
5.949240
 20
2.367640
  0
VERTEX
  8
0
  6
CONTINUOUS
 10
5.953200
 20
1.625360
  0
VERTEX
  8
0
  6
CONTINUOUS
 10
5.887200
 20
1.606440
  0
SEQEND
  8
0
  0
SOLID
  8
0
 62
    15
 10
5.953200
 20
1.625360
 11
5.949240
 21
2.367640
 12
6.009960
 22
1.653080
 13
6.006000
 23
2.395360
  0
POLYLINE
  8
0
  6
CONTINUOUS
 66
     1
 40
0.000000
 41
0.000000
  0
VERTEX
  8
0
  6
CONTINUOUS
 10
5.953200
 20
1.625360
  0
VERTEX
  8
0
  6
CONTINUOUS
 10
5.949240
 20
2.367640
  0
VERTEX
  8
0
  6
CONTINUOUS
 10
6.006000
 20
2.395360
  0
VERTEX
  8
0
  6
CONTINUOUS
 10
6.009960
 20
1.653080
  0
VERTEX
  8
0
  6
CONTINUOUS
 10
5.953200
 20
1.625360
  0
SEQEND
  8
0
  0
SOLID
  8
0
 62
    15
 10
6.009960
 20
1.653080
 11
6.006000
 21
2.395360
 12
6.057920
 22
1.690480
 13
6.053960
 23
2.433200
  0
POLYLINE
  8
0
  6
CONTINUOUS
 66
     1
 40
0.000000
 41
0.000000
  0
VERTEX
  8
0
  6
CONTINUOUS
 10
6.009960
 20
1.653080
  0
VERTEX
  8
0
  6
CONTINUOUS
 10
6.006000
 20
2.395360
  0
VERTEX
  8
0
  6
CONTINUOUS
 10
6.053960
 20
2.433200
  0
VERTEX
  8
0
  6
CONTINUOUS
 10
6.057920
 20
1.690480
  0
VERTEX
  8
0
  6
CONTINUOUS
 10
6.009960
 20
1.653080
  0
SEQEND
  8
0
  0
SOLID
  8
0
 62
    15
 10
6.057920
 20
1.690480
 11
6.053960
 21
2.433200
 12
6.127880
 22
1.761320
 13
6.123920
 23
2.503600
  0
POLYLINE
  8
0
  6
CONTINUOUS
 66
     1
 40
0.000000
 41
0.000000
  0
VERTEX
  8
0
  6
CONTINUOUS
 10
6.057920
 20
1.690480
  0
VERTEX
  8
0
  6
CONTINUOUS
 10
6.053960
 20
2.433200
  0
VERTEX
  8
0
  6
CONTINUOUS
 10
6.123920
 20
2.503600
  0
VERTEX
  8
0
  6
CONTINUOUS
 10
6.127880
 20
1.761320
  0
VERTEX
  8
0
  6
CONTINUOUS
 10
6.057920
 20
1.690480
  0
SEQEND
  8
0
  0
SOLID
  8
0
 62
    15
 10
6.127880
 20
1.761320
 11
6.123920
 21
2.503600
 12
6.155160
 22
1.784640
 13
6.151200
 23
2.527360
  0
POLYLINE
  8
0
  6
CONTINUOUS
 66
     1
 40
0.000000
 41
0.000000
  0
VERTEX
  8
0
  6
CONTINUOUS
 10
6.127880
 20
1.761320
  0
VERTEX
  8
0
  6
CONTINUOUS
 10
6.123920
 20
2.503600
  0
VERTEX
  8
0
  6
CONTINUOUS
 10
6.151200
 20
2.527360
  0
VERTEX
  8
0
  6
CONTINUOUS
 10
6.155160
 20
1.784640
  0
VERTEX
  8
0
  6
CONTINUOUS
 10
6.127880
 20
1.761320
  0
SEQEND
  8
0
  0
SOLID
  8
0
 62
    15
 10
6.155160
 20
1.784640
 11
6.151200
 21
2.527360
 12
6.181560
 22
1.798720
 13
6.178040
 23
2.541000
  0
POLYLINE
  8
0
  6
CONTINUOUS
 66
     1
 40
0.000000
 41
0.000000
  0
VERTEX
  8
0
  6
CONTINUOUS
 10
6.155160
 20
1.784640
  0
VERTEX
  8
0
  6
CONTINUOUS
 10
6.151200
 20
2.527360
  0
VERTEX
  8
0
  6
CONTINUOUS
 10
6.178040
 20
2.541000
  0
VERTEX
  8
0
  6
CONTINUOUS
 10
6.181560
 20
1.798720
  0
VERTEX
  8
0
  6
CONTINUOUS
 10
6.155160
 20
1.784640
  0
SEQEND
  8
0
  0
SOLID
  8
0
 62
    15
 10
6.181560
 20
1.798720
 11
6.178040
 21
2.541000
 12
6.210600
 22
1.802680
 13
6.206640
 23
2.544960
  0
POLYLINE
  8
0
  6
CONTINUOUS
 66
     1
 40
0.000000
 41
0.000000
  0
VERTEX
  8
0
  6
CONTINUOUS
 10
6.181560
 20
1.798720
  0
VERTEX
  8
0
  6
CONTINUOUS
 10
6.178040
 20
2.541000
  0
VERTEX
  8
0
  6
CONTINUOUS
 10
6.206640
 20
2.544960
  0
VERTEX
  8
0
  6
CONTINUOUS
 10
6.210600
 20
1.802680
  0
VERTEX
  8
0
  6
CONTINUOUS
 10
6.181560
 20
1.798720
  0
SEQEND
  8
0
  0
SOLID
  8
0
 62
    15
 10
6.210600
 20
1.802680
 11
6.206640
 21
2.544960
 12
6.226880
 22
1.800480
 13
6.222920
 23
2.542760
  0
POLYLINE
  8
0
  6
CONTINUOUS
 66
     1
 40
0.000000
 41
0.000000
  0
VERTEX
  8
0
  6
CONTINUOUS
 10
6.210600
 20
1.802680
  0
VERTEX
  8
0
  6
CONTINUOUS
 10
6.206640
 20
2.544960
  0
VERTEX
  8
0
  6
CONTINUOUS
 10
6.222920
 20
2.542760
  0
VERTEX
  8
0
  6
CONTINUOUS
 10
6.226880
 20
1.800480
  0
VERTEX
  8
0
  6
CONTINUOUS
 10
6.210600
 20
1.802680
  0
SEQEND
  8
0
  0
SOLID
  8
0
 62
    15
 10
6.226880
 20
1.800480
 11
6.222920
 21
2.542760
 12
6.244920
 22
1.795200
 13
6.240960
 23
2.537480
  0
POLYLINE
  8
0
  6
CONTINUOUS
 66
     1
 40
0.000000
 41
0.000000
  0
VERTEX
  8
0
  6
CONTINUOUS
 10
6.226880
 20
1.800480
  0
VERTEX
  8
0
  6
CONTINUOUS
 10
6.222920
 20
2.542760
  0
VERTEX
  8
0
  6
CONTINUOUS
 10
6.240960
 20
2.537480
  0
VERTEX
  8
0
  6
CONTINUOUS
 10
6.244920
 20
1.795200
  0
VERTEX
  8
0
  6
CONTINUOUS
 10
6.226880
 20
1.800480
  0
SEQEND
  8
0
  0
SOLID
  8
0
 62
    15
 10
6.244920
 20
1.795200
 11
6.240960
 21
2.537480
 12
6.265600
 22
1.786840
 13
6.261640
 23
2.529120
  0
POLYLINE
  8
0
  6
CONTINUOUS
 66
     1
 40
0.000000
 41
0.000000
  0
VERTEX
  8
0
  6
CONTINUOUS
 10
6.244920
 20
1.795200
  0
VERTEX
  8
0
  6
CONTINUOUS
 10
6.240960
 20
2.537480
  0
VERTEX
  8
0
  6
CONTINUOUS
 10
6.261640
 20
2.529120
  0
VERTEX
  8
0
  6
CONTINUOUS
 10
6.265600
 20
1.786840
  0
VERTEX
  8
0
  6
CONTINUOUS
 10
6.244920
 20
1.795200
  0
SEQEND
  8
0
  0
SOLID
  8
0
 62
    15
 10
6.265600
 20
1.786840
 11
6.261640
 21
2.529120
 12
6.288480
 22
1.775400
 13
6.284520
 23
2.517680
  0
POLYLINE
  8
0
  6
CONTINUOUS
 66
     1
 40
0.000000
 41
0.000000
  0
VERTEX
  8
0
  6
CONTINUOUS
 10
6.265600
 20
1.786840
  0
VERTEX
  8
0
  6
CONTINUOUS
 10
6.261640
 20
2.529120
  0
VERTEX
  8
0
  6
CONTINUOUS
 10
6.284520
 20
2.517680
  0
VERTEX
  8
0
  6
CONTINUOUS
 10
6.288480
 20
1.775400
  0
VERTEX
  8
0
  6
CONTINUOUS
 10
6.265600
 20
1.786840
  0
SEQEND
  8
0
  0
SOLID
  8
0
 62
    15
 10
6.288480
 20
1.775400
 11
6.284520
 21
2.517680
 12
6.314440
 22
1.760440
 13
6.310480
 23
2.502720
  0
POLYLINE
  8
0
  6
CONTINUOUS
 66
     1
 40
0.000000
 41
0.000000
  0
VERTEX
  8
0
  6
CONTINUOUS
 10
6.288480
 20
1.775400
  0
VERTEX
  8
0
  6
CONTINUOUS
 10
6.284520
 20
2.517680
  0
VERTEX
  8
0
  6
CONTINUOUS
 10
6.310480
 20
2.502720
  0
VERTEX
  8
0
  6
CONTINUOUS
 10
6.314440
 20
1.760440
  0
VERTEX
  8
0
  6
CONTINUOUS
 10
6.288480
 20
1.775400
  0
SEQEND
  8
0
  0
SOLID
  8
0
 62
    15
 10
6.314440
 20
1.760440
 11
6.310480
 21
2.502720
 12
6.343920
 22
1.742400
 13
6.339960
 23
2.484680
  0
POLYLINE
  8
0
  6
CONTINUOUS
 66
     1
 40
0.000000
 41
0.000000
  0
VERTEX
  8
0
  6
CONTINUOUS
 10
6.314440
 20
1.760440
  0
VERTEX
  8
0
  6
CONTINUOUS
 10
6.310480
 20
2.502720
  0
VERTEX
  8
0
  6
CONTINUOUS
 10
6.339960
 20
2.484680
  0
VERTEX
  8
0
  6
CONTINUOUS
 10
6.343920
 20
1.742400
  0
VERTEX
  8
0
  6
CONTINUOUS
 10
6.314440
 20
1.760440
  0
SEQEND
  8
0
  0
SOLID
  8
0
 62
    15
 10
6.343920
 20
1.742400
 11
6.339960
 21
2.484680
 12
6.534440
 22
1.818960
 13
6.530920
 23
2.561240
  0
POLYLINE
  8
0
  6
CONTINUOUS
 66
     1
 40
0.000000
 41
0.000000
  0
VERTEX
  8
0
  6
CONTINUOUS
 10
6.343920
 20
1.742400
  0
VERTEX
  8
0
  6
CONTINUOUS
 10
6.339960
 20
2.484680
  0
VERTEX
  8
0
  6
CONTINUOUS
 10
6.530920
 20
2.561240
  0
VERTEX
  8
0
  6
CONTINUOUS
 10
6.534440
 20
1.818960
  0
VERTEX
  8
0
  6
CONTINUOUS
 10
6.343920
 20
1.742400
  0
SEQEND
  8
0
  0
SOLID
  8
0
 62
    15
 10
6.534440
 20
1.818960
 11
6.530920
 21
2.561240
 12
7.276720
 22
1.818960
 13
7.272760
 23
2.561240
  0
POLYLINE
  8
0
  6
CONTINUOUS
 66
     1
 40
0.000000
 41
0.000000
  0
VERTEX
  8
0
  6
CONTINUOUS
 10
6.534440
 20
1.818960
  0
VERTEX
  8
0
  6
CONTINUOUS
 10
6.530920
 20
2.561240
  0
VERTEX
  8
0
  6
CONTINUOUS
 10
7.272760
 20
2.561240
  0
VERTEX
  8
0
  6
CONTINUOUS
 10
7.276720
 20
1.818960
  0
VERTEX
  8
0
  6
CONTINUOUS
 10
6.534440
 20
1.818960
  0
SEQEND
  8
0
  0
SOLID
  8
0
 62
    15
 10
1.472240
 20
1.820720
 11
1.468280
 21
2.563000
 12
1.474000
 22
1.821160
 13
1.470040
 23
2.563440
  0
POLYLINE
  8
0
  6
CONTINUOUS
 66
     1
 40
0.000000
 41
0.000000
  0
VERTEX
  8
0
  6
CONTINUOUS
 10
1.472240
 20
1.820720
  0
VERTEX
  8
0
  6
CONTINUOUS
 10
1.468280
 20
2.563000
  0
VERTEX
  8
0
  6
CONTINUOUS
 10
1.470040
 20
2.563440
  0
VERTEX
  8
0
  6
CONTINUOUS
 10
1.474000
 20
1.821160
  0
VERTEX
  8
0
  6
CONTINUOUS
 10
1.472240
 20
1.820720
  0
SEQEND
  8
0
  0
SOLID
  8
0
 62
    15
 10
4.696120
 20
1.518000
 11
4.692160
 21
2.260280
 12
4.716360
 22
1.555840
 13
4.712400
 23
2.298120
  0
POLYLINE
  8
0
  6
CONTINUOUS
 66
     1
 40
0.000000
 41
0.000000
  0
VERTEX
  8
0
  6
CONTINUOUS
 10
4.696120
 20
1.518000
  0
VERTEX
  8
0
  6
CONTINUOUS
 10
4.692160
 20
2.260280
  0
VERTEX
  8
0
  6
CONTINUOUS
 10
4.712400
 20
2.298120
  0
VERTEX
  8
0
  6
CONTINUOUS
 10
4.716360
 20
1.555840
  0
VERTEX
  8
0
  6
CONTINUOUS
 10
4.696120
 20
1.518000
  0
SEQEND
  8
0
  0
SOLID
  8
0
 62
    15
 10
1.474000
 20
1.821160
 11
1.470040
 21
2.563440
 12
2.215840
 22
1.821160
 13
2.211880
 23
2.563440
  0
POLYLINE
  8
0
  6
CONTINUOUS
 66
     1
 40
0.000000
 41
0.000000
  0
VERTEX
  8
0
  6
CONTINUOUS
 10
1.474000
 20
1.821160
  0
VERTEX
  8
0
  6
CONTINUOUS
 10
1.470040
 20
2.563440
  0
VERTEX
  8
0
  6
CONTINUOUS
 10
2.211880
 20
2.563440
  0
VERTEX
  8
0
  6
CONTINUOUS
 10
2.215840
 20
1.821160
  0
VERTEX
  8
0
  6
CONTINUOUS
 10
1.474000
 20
1.821160
  0
SEQEND
  8
0
  0
SOLID
  8
0
 62
    15
 10
2.215840
 20
1.821160
 11
2.211880
 21
2.563440
 12
2.406800
 22
1.744600
 13
2.402840
 23
2.486880
  0
POLYLINE
  8
0
  6
CONTINUOUS
 66
     1
 40
0.000000
 41
0.000000
  0
VERTEX
  8
0
  6
CONTINUOUS
 10
2.215840
 20
1.821160
  0
VERTEX
  8
0
  6
CONTINUOUS
 10
2.211880
 20
2.563440
  0
VERTEX
  8
0
  6
CONTINUOUS
 10
2.402840
 20
2.486880
  0
VERTEX
  8
0
  6
CONTINUOUS
 10
2.406800
 20
1.744600
  0
VERTEX
  8
0
  6
CONTINUOUS
 10
2.215840
 20
1.821160
  0
SEQEND
  8
0
  0
SOLID
  8
0
 62
    15
 10
2.406800
 20
1.744600
 11
2.402840
 21
2.486880
 12
2.436280
 22
1.762640
 13
2.432320
 23
2.505360
  0
POLYLINE
  8
0
  6
CONTINUOUS
 66
     1
 40
0.000000
 41
0.000000
  0
VERTEX
  8
0
  6
CONTINUOUS
 10
2.406800
 20
1.744600
  0
VERTEX
  8
0
  6
CONTINUOUS
 10
2.402840
 20
2.486880
  0
VERTEX
  8
0
  6
CONTINUOUS
 10
2.432320
 20
2.505360
  0
VERTEX
  8
0
  6
CONTINUOUS
 10
2.436280
 20
1.762640
  0
VERTEX
  8
0
  6
CONTINUOUS
 10
2.406800
 20
1.744600
  0
SEQEND
  8
0
  0
SOLID
  8
0
 62
    15
 10
2.436280
 20
1.762640
 11
2.432320
 21
2.505360
 12
2.462240
 22
1.777600
 13
2.458280
 23
2.519880
  0
POLYLINE
  8
0
  6
CONTINUOUS
 66
     1
 40
0.000000
 41
0.000000
  0
VERTEX
  8
0
  6
CONTINUOUS
 10
2.436280
 20
1.762640
  0
VERTEX
  8
0
  6
CONTINUOUS
 10
2.432320
 20
2.505360
  0
VERTEX
  8
0
  6
CONTINUOUS
 10
2.458280
 20
2.519880
  0
VERTEX
  8
0
  6
CONTINUOUS
 10
2.462240
 20
1.777600
  0
VERTEX
  8
0
  6
CONTINUOUS
 10
2.436280
 20
1.762640
  0
SEQEND
  8
0
  0
SOLID
  8
0
 62
    15
 10
2.462240
 20
1.777600
 11
2.458280
 21
2.519880
 12
2.485120
 22
1.789040
 13
2.481160
 23
2.531320
  0
POLYLINE
  8
0
  6
CONTINUOUS
 66
     1
 40
0.000000
 41
0.000000
  0
VERTEX
  8
0
  6
CONTINUOUS
 10
2.462240
 20
1.777600
  0
VERTEX
  8
0
  6
CONTINUOUS
 10
2.458280
 20
2.519880
  0
VERTEX
  8
0
  6
CONTINUOUS
 10
2.481160
 20
2.531320
  0
VERTEX
  8
0
  6
CONTINUOUS
 10
2.485120
 20
1.789040
  0
VERTEX
  8
0
  6
CONTINUOUS
 10
2.462240
 20
1.777600
  0
SEQEND
  8
0
  0
SOLID
  8
0
 62
    15
 10
2.485120
 20
1.789040
 11
2.481160
 21
2.531320
 12
2.505360
 22
1.797400
 13
2.501400
 23
2.539680
  0
POLYLINE
  8
0
  6
CONTINUOUS
 66
     1
 40
0.000000
 41
0.000000
  0
VERTEX
  8
0
  6
CONTINUOUS
 10
2.485120
 20
1.789040
  0
VERTEX
  8
0
  6
CONTINUOUS
 10
2.481160
 20
2.531320
  0
VERTEX
  8
0
  6
CONTINUOUS
 10
2.501400
 20
2.539680
  0
VERTEX
  8
0
  6
CONTINUOUS
 10
2.505360
 20
1.797400
  0
VERTEX
  8
0
  6
CONTINUOUS
 10
2.485120
 20
1.789040
  0
SEQEND
  8
0
  0
SOLID
  8
0
 62
    15
 10
2.505360
 20
1.797400
 11
2.501400
 21
2.539680
 12
2.523400
 22
1.802680
 13
2.519880
 23
2.544960
  0
POLYLINE
  8
0
  6
CONTINUOUS
 66
     1
 40
0.000000
 41
0.000000
  0
VERTEX
  8
0
  6
CONTINUOUS
 10
2.505360
 20
1.797400
  0
VERTEX
  8
0
  6
CONTINUOUS
 10
2.501400
 20
2.539680
  0
VERTEX
  8
0
  6
CONTINUOUS
 10
2.519880
 20
2.544960
  0
VERTEX
  8
0
  6
CONTINUOUS
 10
2.523400
 20
1.802680
  0
VERTEX
  8
0
  6
CONTINUOUS
 10
2.505360
 20
1.797400
  0
SEQEND
  8
0
  0
SOLID
  8
0
 62
    15
 10
2.523400
 20
1.802680
 11
2.519880
 21
2.544960
 12
2.540120
 22
1.804880
 13
2.536160
 23
2.547160
  0
POLYLINE
  8
0
  6
CONTINUOUS
 66
     1
 40
0.000000
 41
0.000000
  0
VERTEX
  8
0
  6
CONTINUOUS
 10
2.523400
 20
1.802680
  0
VERTEX
  8
0
  6
CONTINUOUS
 10
2.519880
 20
2.544960
  0
VERTEX
  8
0
  6
CONTINUOUS
 10
2.536160
 20
2.547160
  0
VERTEX
  8
0
  6
CONTINUOUS
 10
2.540120
 20
1.804880
  0
VERTEX
  8
0
  6
CONTINUOUS
 10
2.523400
 20
1.802680
  0
SEQEND
  8
0
  0
SOLID
  8
0
 62
    15
 10
2.540120
 20
1.804880
 11
2.536160
 21
2.547160
 12
2.568720
 22
1.800920
 13
2.564760
 23
2.543200
  0
POLYLINE
  8
0
  6
CONTINUOUS
 66
     1
 40
0.000000
 41
0.000000
  0
VERTEX
  8
0
  6
CONTINUOUS
 10
2.540120
 20
1.804880
  0
VERTEX
  8
0
  6
CONTINUOUS
 10
2.536160
 20
2.547160
  0
VERTEX
  8
0
  6
CONTINUOUS
 10
2.564760
 20
2.543200
  0
VERTEX
  8
0
  6
CONTINUOUS
 10
2.568720
 20
1.800920
  0
VERTEX
  8
0
  6
CONTINUOUS
 10
2.540120
 20
1.804880
  0
SEQEND
  8
0
  0
SOLID
  8
0
 62
    15
 10
2.568720
 20
1.800920
 11
2.564760
 21
2.543200
 12
2.595120
 22
1.787280
 13
2.591160
 23
2.529560
  0
POLYLINE
  8
0
  6
CONTINUOUS
 66
     1
 40
0.000000
 41
0.000000
  0
VERTEX
  8
0
  6
CONTINUOUS
 10
2.568720
 20
1.800920
  0
VERTEX
  8
0
  6
CONTINUOUS
 10
2.564760
 20
2.543200
  0
VERTEX
  8
0
  6
CONTINUOUS
 10
2.591160
 20
2.529560
  0
VERTEX
  8
0
  6
CONTINUOUS
 10
2.595120
 20
1.787280
  0
VERTEX
  8
0
  6
CONTINUOUS
 10
2.568720
 20
1.800920
  0
SEQEND
  8
0
  0
SOLID
  8
0
 62
    15
 10
2.595120
 20
1.787280
 11
2.591160
 21
2.529560
 12
2.622400
 22
1.763520
 13
2.618880
 23
2.506240
  0
POLYLINE
  8
0
  6
CONTINUOUS
 66
     1
 40
0.000000
 41
0.000000
  0
VERTEX
  8
0
  6
CONTINUOUS
 10
2.595120
 20
1.787280
  0
VERTEX
  8
0
  6
CONTINUOUS
 10
2.591160
 20
2.529560
  0
VERTEX
  8
0
  6
CONTINUOUS
 10
2.618880
 20
2.506240
  0
VERTEX
  8
0
  6
CONTINUOUS
 10
2.622400
 20
1.763520
  0
VERTEX
  8
0
  6
CONTINUOUS
 10
2.595120
 20
1.787280
  0
SEQEND
  8
0
  0
SOLID
  8
0
 62
    15
 10
2.622400
 20
1.763520
 11
2.618880
 21
2.506240
 12
2.692800
 22
1.693120
 13
2.688840
 23
2.435400
  0
POLYLINE
  8
0
  6
CONTINUOUS
 66
     1
 40
0.000000
 41
0.000000
  0
VERTEX
  8
0
  6
CONTINUOUS
 10
2.622400
 20
1.763520
  0
VERTEX
  8
0
  6
CONTINUOUS
 10
2.618880
 20
2.506240
  0
VERTEX
  8
0
  6
CONTINUOUS
 10
2.688840
 20
2.435400
  0
VERTEX
  8
0
  6
CONTINUOUS
 10
2.692800
 20
1.693120
  0
VERTEX
  8
0
  6
CONTINUOUS
 10
2.622400
 20
1.763520
  0
SEQEND
  8
0
  0
SOLID
  8
0
 62
    15
 10
2.692800
 20
1.693120
 11
2.688840
 21
2.435400
 12
2.740760
 22
1.655280
 13
2.736800
 23
2.397560
  0
POLYLINE
  8
0
  6
CONTINUOUS
 66
     1
 40
0.000000
 41
0.000000
  0
VERTEX
  8
0
  6
CONTINUOUS
 10
2.692800
 20
1.693120
  0
VERTEX
  8
0
  6
CONTINUOUS
 10
2.688840
 20
2.435400
  0
VERTEX
  8
0
  6
CONTINUOUS
 10
2.736800
 20
2.397560
  0
VERTEX
  8
0
  6
CONTINUOUS
 10
2.740760
 20
1.655280
  0
VERTEX
  8
0
  6
CONTINUOUS
 10
2.692800
 20
1.693120
  0
SEQEND
  8
0
  0
SOLID
  8
0
 62
    15
 10
2.740760
 20
1.655280
 11
2.736800
 21
2.397560
 12
2.797080
 22
1.627560
 13
2.793560
 23
2.369840
  0
POLYLINE
  8
0
  6
CONTINUOUS
 66
     1
 40
0.000000
 41
0.000000
  0
VERTEX
  8
0
  6
CONTINUOUS
 10
2.740760
 20
1.655280
  0
VERTEX
  8
0
  6
CONTINUOUS
 10
2.736800
 20
2.397560
  0
VERTEX
  8
0
  6
CONTINUOUS
 10
2.793560
 20
2.369840
  0
VERTEX
  8
0
  6
CONTINUOUS
 10
2.797080
 20
1.627560
  0
VERTEX
  8
0
  6
CONTINUOUS
 10
2.740760
 20
1.655280
  0
SEQEND
  8
0
  0
SOLID
  8
0
 62
    15
 10
2.797080
 20
1.627560
 11
2.793560
 21
2.369840
 12
2.863520
 22
1.608640
 13
2.859560
 23
2.351360
  0
POLYLINE
  8
0
  6
CONTINUOUS
 66
     1
 40
0.000000
 41
0.000000
  0
VERTEX
  8
0
  6
CONTINUOUS
 10
2.797080
 20
1.627560
  0
VERTEX
  8
0
  6
CONTINUOUS
 10
2.793560
 20
2.369840
  0
VERTEX
  8
0
  6
CONTINUOUS
 10
2.859560
 20
2.351360
  0
VERTEX
  8
0
  6
CONTINUOUS
 10
2.863520
 20
1.608640
  0
VERTEX
  8
0
  6
CONTINUOUS
 10
2.797080
 20
1.627560
  0
SEQEND
  8
0
  0
SOLID
  8
0
 62
    15
 10
2.863520
 20
1.608640
 11
2.859560
 21
2.351360
 12
2.940080
 22
1.598520
 13
2.936120
 23
2.341240
  0
POLYLINE
  8
0
  6
CONTINUOUS
 66
     1
 40
0.000000
 41
0.000000
  0
VERTEX
  8
0
  6
CONTINUOUS
 10
2.863520
 20
1.608640
  0
VERTEX
  8
0
  6
CONTINUOUS
 10
2.859560
 20
2.351360
  0
VERTEX
  8
0
  6
CONTINUOUS
 10
2.936120
 20
2.341240
  0
VERTEX
  8
0
  6
CONTINUOUS
 10
2.940080
 20
1.598520
  0
VERTEX
  8
0
  6
CONTINUOUS
 10
2.863520
 20
1.608640
  0
SEQEND
  8
0
  0
SOLID
  8
0
 62
    15
 10
2.940080
 20
1.598520
 11
2.936120
 21
2.341240
 12
3.028080
 22
1.596760
 13
3.024120
 23
2.339480
  0
POLYLINE
  8
0
  6
CONTINUOUS
 66
     1
 40
0.000000
 41
0.000000
  0
VERTEX
  8
0
  6
CONTINUOUS
 10
2.940080
 20
1.598520
  0
VERTEX
  8
0
  6
CONTINUOUS
 10
2.936120
 20
2.341240
  0
VERTEX
  8
0
  6
CONTINUOUS
 10
3.024120
 20
2.339480
  0
VERTEX
  8
0
  6
CONTINUOUS
 10
3.028080
 20
1.596760
  0
VERTEX
  8
0
  6
CONTINUOUS
 10
2.940080
 20
1.598520
  0
SEQEND
  8
0
  0
SOLID
  8
0
 62
    15
 10
3.028080
 20
1.596760
 11
3.024120
 21
2.339480
 12
3.076040
 22
1.598960
 13
3.072080
 23
2.341240
  0
POLYLINE
  8
0
  6
CONTINUOUS
 66
     1
 40
0.000000
 41
0.000000
  0
VERTEX
  8
0
  6
CONTINUOUS
 10
3.028080
 20
1.596760
  0
VERTEX
  8
0
  6
CONTINUOUS
 10
3.024120
 20
2.339480
  0
VERTEX
  8
0
  6
CONTINUOUS
 10
3.072080
 20
2.341240
  0
VERTEX
  8
0
  6
CONTINUOUS
 10
3.076040
 20
1.598960
  0
VERTEX
  8
0
  6
CONTINUOUS
 10
3.028080
 20
1.596760
  0
SEQEND
  8
0
  0
SOLID
  8
0
 62
    15
 10
3.076040
 20
1.598960
 11
3.072080
 21
2.341240
 12
3.127520
 22
1.602920
 13
3.123560
 23
2.345200
  0
POLYLINE
  8
0
  6
CONTINUOUS
 66
     1
 40
0.000000
 41
0.000000
  0
VERTEX
  8
0
  6
CONTINUOUS
 10
3.076040
 20
1.598960
  0
VERTEX
  8
0
  6
CONTINUOUS
 10
3.072080
 20
2.341240
  0
VERTEX
  8
0
  6
CONTINUOUS
 10
3.123560
 20
2.345200
  0
VERTEX
  8
0
  6
CONTINUOUS
 10
3.127520
 20
1.602920
  0
VERTEX
  8
0
  6
CONTINUOUS
 10
3.076040
 20
1.598960
  0
SEQEND
  8
0
  0
SOLID
  8
0
 62
    15
 10
3.127520
 20
1.602920
 11
3.123560
 21
2.345200
 12
3.182080
 22
1.608640
 13
3.178560
 23
2.350920
  0
POLYLINE
  8
0
  6
CONTINUOUS
 66
     1
 40
0.000000
 41
0.000000
  0
VERTEX
  8
0
  6
CONTINUOUS
 10
3.127520
 20
1.602920
  0
VERTEX
  8
0
  6
CONTINUOUS
 10
3.123560
 20
2.345200
  0
VERTEX
  8
0
  6
CONTINUOUS
 10
3.178560
 20
2.350920
  0
VERTEX
  8
0
  6
CONTINUOUS
 10
3.182080
 20
1.608640
  0
VERTEX
  8
0
  6
CONTINUOUS
 10
3.127520
 20
1.602920
  0
SEQEND
  8
0
  0
SOLID
  8
0
 62
    15
 10
3.182080
 20
1.608640
 11
3.178560
 21
2.350920
 12
3.240160
 22
1.616120
 13
3.236200
 23
2.358400
  0
POLYLINE
  8
0
  6
CONTINUOUS
 66
     1
 40
0.000000
 41
0.000000
  0
VERTEX
  8
0
  6
CONTINUOUS
 10
3.182080
 20
1.608640
  0
VERTEX
  8
0
  6
CONTINUOUS
 10
3.178560
 20
2.350920
  0
VERTEX
  8
0
  6
CONTINUOUS
 10
3.236200
 20
2.358400
  0
VERTEX
  8
0
  6
CONTINUOUS
 10
3.240160
 20
1.616120
  0
VERTEX
  8
0
  6
CONTINUOUS
 10
3.182080
 20
1.608640
  0
SEQEND
  8
0
  0
SOLID
  8
0
 62
    15
 10
3.240160
 20
1.616120
 11
3.236200
 21
2.358400
 12
3.301320
 22
1.625360
 13
3.297360
 23
2.367640
  0
POLYLINE
  8
0
  6
CONTINUOUS
 66
     1
 40
0.000000
 41
0.000000
  0
VERTEX
  8
0
  6
CONTINUOUS
 10
3.240160
 20
1.616120
  0
VERTEX
  8
0
  6
CONTINUOUS
 10
3.236200
 20
2.358400
  0
VERTEX
  8
0
  6
CONTINUOUS
 10
3.297360
 20
2.367640
  0
VERTEX
  8
0
  6
CONTINUOUS
 10
3.301320
 20
1.625360
  0
VERTEX
  8
0
  6
CONTINUOUS
 10
3.240160
 20
1.616120
  0
SEQEND
  8
0
  0
SOLID
  8
0
 62
    15
 10
3.301320
 20
1.625360
 11
3.297360
 21
2.367640
 12
3.366000
 22
1.636360
 13
3.362040
 23
2.378640
  0
POLYLINE
  8
0
  6
CONTINUOUS
 66
     1
 40
0.000000
 41
0.000000
  0
VERTEX
  8
0
  6
CONTINUOUS
 10
3.301320
 20
1.625360
  0
VERTEX
  8
0
  6
CONTINUOUS
 10
3.297360
 20
2.367640
  0
VERTEX
  8
0
  6
CONTINUOUS
 10
3.362040
 20
2.378640
  0
VERTEX
  8
0
  6
CONTINUOUS
 10
3.366000
 20
1.636360
  0
VERTEX
  8
0
  6
CONTINUOUS
 10
3.301320
 20
1.625360
  0
SEQEND
  8
0
  0
SOLID
  8
0
 62
    15
 10
3.366000
 20
1.636360
 11
3.362040
 21
2.378640
 12
3.493600
 22
1.658360
 13
3.489640
 23
2.400640
  0
POLYLINE
  8
0
  6
CONTINUOUS
 66
     1
 40
0.000000
 41
0.000000
  0
VERTEX
  8
0
  6
CONTINUOUS
 10
3.366000
 20
1.636360
  0
VERTEX
  8
0
  6
CONTINUOUS
 10
3.362040
 20
2.378640
  0
VERTEX
  8
0
  6
CONTINUOUS
 10
3.489640
 20
2.400640
  0
VERTEX
  8
0
  6
CONTINUOUS
 10
3.493600
 20
1.658360
  0
VERTEX
  8
0
  6
CONTINUOUS
 10
3.366000
 20
1.636360
  0
SEQEND
  8
0
  0
SOLID
  8
0
 62
    15
 10
3.493600
 20
1.658360
 11
3.489640
 21
2.400640
 12
3.609320
 22
1.675080
 13
3.605360
 23
2.417360
  0
POLYLINE
  8
0
  6
CONTINUOUS
 66
     1
 40
0.000000
 41
0.000000
  0
VERTEX
  8
0
  6
CONTINUOUS
 10
3.493600
 20
1.658360
  0
VERTEX
  8
0
  6
CONTINUOUS
 10
3.489640
 20
2.400640
  0
VERTEX
  8
0
  6
CONTINUOUS
 10
3.605360
 20
2.417360
  0
VERTEX
  8
0
  6
CONTINUOUS
 10
3.609320
 20
1.675080
  0
VERTEX
  8
0
  6
CONTINUOUS
 10
3.493600
 20
1.658360
  0
SEQEND
  8
0
  0
SOLID
  8
0
 62
    15
 10
3.609320
 20
1.675080
 11
3.605360
 21
2.417360
 12
3.663000
 22
1.680800
 13
3.659040
 23
2.423080
  0
POLYLINE
  8
0
  6
CONTINUOUS
 66
     1
 40
0.000000
 41
0.000000
  0
VERTEX
  8
0
  6
CONTINUOUS
 10
3.609320
 20
1.675080
  0
VERTEX
  8
0
  6
CONTINUOUS
 10
3.605360
 20
2.417360
  0
VERTEX
  8
0
  6
CONTINUOUS
 10
3.659040
 20
2.423080
  0
VERTEX
  8
0
  6
CONTINUOUS
 10
3.663000
 20
1.680800
  0
VERTEX
  8
0
  6
CONTINUOUS
 10
3.609320
 20
1.675080
  0
SEQEND
  8
0
  0
SOLID
  8
0
 62
    15
 10
3.663000
 20
1.680800
 11
3.659040
 21
2.423080
 12
3.713600
 22
1.684320
 13
3.710080
 23
2.426600
  0
POLYLINE
  8
0
  6
CONTINUOUS
 66
     1
 40
0.000000
 41
0.000000
  0
VERTEX
  8
0
  6
CONTINUOUS
 10
3.663000
 20
1.680800
  0
VERTEX
  8
0
  6
CONTINUOUS
 10
3.659040
 20
2.423080
  0
VERTEX
  8
0
  6
CONTINUOUS
 10
3.710080
 20
2.426600
  0
VERTEX
  8
0
  6
CONTINUOUS
 10
3.713600
 20
1.684320
  0
VERTEX
  8
0
  6
CONTINUOUS
 10
3.663000
 20
1.680800
  0
SEQEND
  8
0
  0
SOLID
  8
0
 62
    15
 10
3.713600
 20
1.684320
 11
3.710080
 21
2.426600
 12
3.761560
 22
1.685200
 13
3.757600
 23
2.427480
  0
POLYLINE
  8
0
  6
CONTINUOUS
 66
     1
 40
0.000000
 41
0.000000
  0
VERTEX
  8
0
  6
CONTINUOUS
 10
3.713600
 20
1.684320
  0
VERTEX
  8
0
  6
CONTINUOUS
 10
3.710080
 20
2.426600
  0
VERTEX
  8
0
  6
CONTINUOUS
 10
3.757600
 20
2.427480
  0
VERTEX
  8
0
  6
CONTINUOUS
 10
3.761560
 20
1.685200
  0
VERTEX
  8
0
  6
CONTINUOUS
 10
3.713600
 20
1.684320
  0
SEQEND
  8
0
  0
SOLID
  8
0
 62
    15
 10
3.761560
 20
1.685200
 11
3.757600
 21
2.427480
 12
3.806440
 22
1.683440
 13
3.802480
 23
2.425720
  0
POLYLINE
  8
0
  6
CONTINUOUS
 66
     1
 40
0.000000
 41
0.000000
  0
VERTEX
  8
0
  6
CONTINUOUS
 10
3.761560
 20
1.685200
  0
VERTEX
  8
0
  6
CONTINUOUS
 10
3.757600
 20
2.427480
  0
VERTEX
  8
0
  6
CONTINUOUS
 10
3.802480
 20
2.425720
  0
VERTEX
  8
0
  6
CONTINUOUS
 10
3.806440
 20
1.683440
  0
VERTEX
  8
0
  6
CONTINUOUS
 10
3.761560
 20
1.685200
  0
SEQEND
  8
0
  0
SOLID
  8
0
 62
    15
 10
3.806440
 20
1.683440
 11
3.802480
 21
2.425720
 12
3.848240
 22
1.678160
 13
3.844280
 23
2.420440
  0
POLYLINE
  8
0
  6
CONTINUOUS
 66
     1
 40
0.000000
 41
0.000000
  0
VERTEX
  8
0
  6
CONTINUOUS
 10
3.806440
 20
1.683440
  0
VERTEX
  8
0
  6
CONTINUOUS
 10
3.802480
 20
2.425720
  0
VERTEX
  8
0
  6
CONTINUOUS
 10
3.844280
 20
2.420440
  0
VERTEX
  8
0
  6
CONTINUOUS
 10
3.848240
 20
1.678160
  0
VERTEX
  8
0
  6
CONTINUOUS
 10
3.806440
 20
1.683440
  0
SEQEND
  8
0
  0
SOLID
  8
0
 62
    15
 10
3.848240
 20
1.678160
 11
3.844280
 21
2.420440
 12
3.886960
 22
1.668920
 13
3.883000
 23
2.411200
  0
POLYLINE
  8
0
  6
CONTINUOUS
 66
     1
 40
0.000000
 41
0.000000
  0
VERTEX
  8
0
  6
CONTINUOUS
 10
3.848240
 20
1.678160
  0
VERTEX
  8
0
  6
CONTINUOUS
 10
3.844280
 20
2.420440
  0
VERTEX
  8
0
  6
CONTINUOUS
 10
3.883000
 20
2.411200
  0
VERTEX
  8
0
  6
CONTINUOUS
 10
3.886960
 20
1.668920
  0
VERTEX
  8
0
  6
CONTINUOUS
 10
3.848240
 20
1.678160
  0
SEQEND
  8
0
  0
SOLID
  8
0
 62
    15
 10
3.886960
 20
1.668920
 11
3.883000
 21
2.411200
 12
3.922600
 22
1.656160
 13
3.918640
 23
2.398440
  0
POLYLINE
  8
0
  6
CONTINUOUS
 66
     1
 40
0.000000
 41
0.000000
  0
VERTEX
  8
0
  6
CONTINUOUS
 10
3.886960
 20
1.668920
  0
VERTEX
  8
0
  6
CONTINUOUS
 10
3.883000
 20
2.411200
  0
VERTEX
  8
0
  6
CONTINUOUS
 10
3.918640
 20
2.398440
  0
VERTEX
  8
0
  6
CONTINUOUS
 10
3.922600
 20
1.656160
  0
VERTEX
  8
0
  6
CONTINUOUS
 10
3.886960
 20
1.668920
  0
SEQEND
  8
0
  0
SOLID
  8
0
 62
    15
 10
3.922600
 20
1.656160
 11
3.918640
 21
2.398440
 12
3.955160
 22
1.639000
 13
3.951200
 23
2.381280
  0
POLYLINE
  8
0
  6
CONTINUOUS
 66
     1
 40
0.000000
 41
0.000000
  0
VERTEX
  8
0
  6
CONTINUOUS
 10
3.922600
 20
1.656160
  0
VERTEX
  8
0
  6
CONTINUOUS
 10
3.918640
 20
2.398440
  0
VERTEX
  8
0
  6
CONTINUOUS
 10
3.951200
 20
2.381280
  0
VERTEX
  8
0
  6
CONTINUOUS
 10
3.955160
 20
1.639000
  0
VERTEX
  8
0
  6
CONTINUOUS
 10
3.922600
 20
1.656160
  0
SEQEND
  8
0
  0
SOLID
  8
0
 62
    15
 10
3.955160
 20
1.639000
 11
3.951200
 21
2.381280
 12
3.984640
 22
1.617000
 13
3.980680
 23
2.359280
  0
POLYLINE
  8
0
  6
CONTINUOUS
 66
     1
 40
0.000000
 41
0.000000
  0
VERTEX
  8
0
  6
CONTINUOUS
 10
3.955160
 20
1.639000
  0
VERTEX
  8
0
  6
CONTINUOUS
 10
3.951200
 20
2.381280
  0
VERTEX
  8
0
  6
CONTINUOUS
 10
3.980680
 20
2.359280
  0
VERTEX
  8
0
  6
CONTINUOUS
 10
3.984640
 20
1.617000
  0
VERTEX
  8
0
  6
CONTINUOUS
 10
3.955160
 20
1.639000
  0
SEQEND
  8
0
  0
SOLID
  8
0
 62
    15
 10
3.984640
 20
1.617000
 11
3.980680
 21
2.359280
 12
4.011040
 22
1.590160
 13
4.007080
 23
2.332440
  0
POLYLINE
  8
0
  6
CONTINUOUS
 66
     1
 40
0.000000
 41
0.000000
  0
VERTEX
  8
0
  6
CONTINUOUS
 10
3.984640
 20
1.617000
  0
VERTEX
  8
0
  6
CONTINUOUS
 10
3.980680
 20
2.359280
  0
VERTEX
  8
0
  6
CONTINUOUS
 10
4.007080
 20
2.332440
  0
VERTEX
  8
0
  6
CONTINUOUS
 10
4.011040
 20
1.590160
  0
VERTEX
  8
0
  6
CONTINUOUS
 10
3.984640
 20
1.617000
  0
SEQEND
  8
0
  0
SOLID
  8
0
 62
    15
 10
4.011040
 20
1.590160
 11
4.007080
 21
2.332440
 12
4.034360
 22
1.558040
 13
4.030400
 23
2.300320
  0
POLYLINE
  8
0
  6
CONTINUOUS
 66
     1
 40
0.000000
 41
0.000000
  0
VERTEX
  8
0
  6
CONTINUOUS
 10
4.011040
 20
1.590160
  0
VERTEX
  8
0
  6
CONTINUOUS
 10
4.007080
 20
2.332440
  0
VERTEX
  8
0
  6
CONTINUOUS
 10
4.030400
 20
2.300320
  0
VERTEX
  8
0
  6
CONTINUOUS
 10
4.034360
 20
1.558040
  0
VERTEX
  8
0
  6
CONTINUOUS
 10
4.011040
 20
1.590160
  0
SEQEND
  8
0
  0
SOLID
  8
0
 62
    15
 10
4.034360
 20
1.558040
 11
4.030400
 21
2.300320
 12
4.054160
 22
1.520200
 13
4.050640
 23
2.262480
  0
POLYLINE
  8
0
  6
CONTINUOUS
 66
     1
 40
0.000000
 41
0.000000
  0
VERTEX
  8
0
  6
CONTINUOUS
 10
4.034360
 20
1.558040
  0
VERTEX
  8
0
  6
CONTINUOUS
 10
4.030400
 20
2.300320
  0
VERTEX
  8
0
  6
CONTINUOUS
 10
4.050640
 20
2.262480
  0
VERTEX
  8
0
  6
CONTINUOUS
 10
4.054160
 20
1.520200
  0
VERTEX
  8
0
  6
CONTINUOUS
 10
4.034360
 20
1.558040
  0
SEQEND
  8
0
  0
SOLID
  8
0
 62
    15
 10
4.054160
 20
1.520200
 11
4.050640
 21
2.262480
 12
4.696120
 22
1.518000
 13
4.692160
 23
2.260280
  0
POLYLINE
  8
0
  6
CONTINUOUS
 66
     1
 40
0.000000
 41
0.000000
  0
VERTEX
  8
0
  6
CONTINUOUS
 10
4.054160
 20
1.520200
  0
VERTEX
  8
0
  6
CONTINUOUS
 10
4.050640
 20
2.262480
  0
VERTEX
  8
0
  6
CONTINUOUS
 10
4.692160
 20
2.260280
  0
VERTEX
  8
0
  6
CONTINUOUS
 10
4.696120
 20
1.518000
  0
VERTEX
  8
0
  6
CONTINUOUS
 10
4.054160
 20
1.520200
  0
SEQEND
  8
0
  0
POLYLINE
  8
0
  6
CONTINUOUS
 66
     1
 40
0.000000
 41
0.000000
  0
VERTEX
  8
0
  6
CONTINUOUS
 10
4.696120
 20
1.518000
  0
VERTEX
  8
0
  6
CONTINUOUS
 10
4.716360
 20
1.555840
  0
VERTEX
  8
0
  6
CONTINUOUS
 10
4.739680
 20
1.587960
  0
VERTEX
  8
0
  6
CONTINUOUS
 10
4.766080
 20
1.614800
  0
VERTEX
  8
0
  6
CONTINUOUS
 10
4.795560
 20
1.636800
  0
VERTEX
  8
0
  6
CONTINUOUS
 10
4.828120
 20
1.653960
  0
VERTEX
  8
0
  6
CONTINUOUS
 10
4.863760
 20
1.666720
  0
VERTEX
  8
0
  6
CONTINUOUS
 10
4.902480
 20
1.675520
  0
VERTEX
  8
0
  6
CONTINUOUS
 10
4.944280
 20
1.681240
  0
VERTEX
  8
0
  6
CONTINUOUS
 10
4.989160
 20
1.683000
  0
VERTEX
  8
0
  6
CONTINUOUS
 10
5.036680
 20
1.682120
  0
VERTEX
  8
0
  6
CONTINUOUS
 10
5.087720
 20
1.678600
  0
VERTEX
  8
0
  6
CONTINUOUS
 10
5.141400
 20
1.672880
  0
VERTEX
  8
0
  6
CONTINUOUS
 10
5.257120
 20
1.656160
  0
VERTEX
  8
0
  6
CONTINUOUS
 10
5.448960
 20
1.623160
  0
VERTEX
  8
0
  6
CONTINUOUS
 10
5.568200
 20
1.606440
  0
VERTEX
  8
0
  6
CONTINUOUS
 10
5.622760
 20
1.600720
  0
VERTEX
  8
0
  6
CONTINUOUS
 10
5.674240
 20
1.596760
  0
VERTEX
  8
0
  6
CONTINUOUS
 10
5.722640
 20
1.594560
  0
VERTEX
  8
0
  6
CONTINUOUS
 10
5.810640
 20
1.596320
  0
VERTEX
  8
0
  6
CONTINUOUS
 10
5.887200
 20
1.606440
  0
VERTEX
  8
0
  6
CONTINUOUS
 10
5.953200
 20
1.625360
  0
VERTEX
  8
0
  6
CONTINUOUS
 10
6.009960
 20
1.653080
  0
VERTEX
  8
0
  6
CONTINUOUS
 10
6.057920
 20
1.690480
  0
VERTEX
  8
0
  6
CONTINUOUS
 10
6.127880
 20
1.761320
  0
VERTEX
  8
0
  6
CONTINUOUS
 10
6.155160
 20
1.784640
  0
VERTEX
  8
0
  6
CONTINUOUS
 10
6.181560
 20
1.798720
  0
VERTEX
  8
0
  6
CONTINUOUS
 10
6.210600
 20
1.802680
  0
VERTEX
  8
0
  6
CONTINUOUS
 10
6.226880
 20
1.800480
  0
VERTEX
  8
0
  6
CONTINUOUS
 10
6.244920
 20
1.795200
  0
VERTEX
  8
0
  6
CONTINUOUS
 10
6.265600
 20
1.786840
  0
VERTEX
  8
0
  6
CONTINUOUS
 10
6.314440
 20
1.760440
  0
VERTEX
  8
0
  6
CONTINUOUS
 10
6.343920
 20
1.742400
  0
VERTEX
  8
0
  6
CONTINUOUS
 10
6.534440
 20
1.818960
  0
VERTEX
  8
0
  6
CONTINUOUS
 10
7.276720
 20
1.818960
  0
VERTEX
  8
0
  6
CONTINUOUS
 10
7.276720
 20
1.075360
  0
VERTEX
  8
0
  6
CONTINUOUS
 10
1.472240
 20
1.075360
  0
VERTEX
  8
0
  6
CONTINUOUS
 10
1.472240
 20
1.820720
  0
VERTEX
  8
0
  6
CONTINUOUS
 10
2.215840
 20
1.821160
  0
VERTEX
  8
0
  6
CONTINUOUS
 10
2.406800
 20
1.744600
  0
VERTEX
  8
0
  6
CONTINUOUS
 10
2.462240
 20
1.777600
  0
VERTEX
  8
0
  6
CONTINUOUS
 10
2.505360
 20
1.797400
  0
VERTEX
  8
0
  6
CONTINUOUS
 10
2.523400
 20
1.802680
  0
VERTEX
  8
0
  6
CONTINUOUS
 10
2.540120
 20
1.804880
  0
VERTEX
  8
0
  6
CONTINUOUS
 10
2.568720
 20
1.800920
  0
VERTEX
  8
0
  6
CONTINUOUS
 10
2.595120
 20
1.787280
  0
VERTEX
  8
0
  6
CONTINUOUS
 10
2.622400
 20
1.763520
  0
VERTEX
  8
0
  6
CONTINUOUS
 10
2.692800
 20
1.693120
  0
VERTEX
  8
0
  6
CONTINUOUS
 10
2.740760
 20
1.655280
  0
VERTEX
  8
0
  6
CONTINUOUS
 10
2.797080
 20
1.627560
  0
VERTEX
  8
0
  6
CONTINUOUS
 10
2.863520
 20
1.608640
  0
VERTEX
  8
0
  6
CONTINUOUS
 10
2.940080
 20
1.598520
  0
VERTEX
  8
0
  6
CONTINUOUS
 10
3.028080
 20
1.596760
  0
VERTEX
  8
0
  6
CONTINUOUS
 10
3.076040
 20
1.598960
  0
VERTEX
  8
0
  6
CONTINUOUS
 10
3.127520
 20
1.602920
  0
VERTEX
  8
0
  6
CONTINUOUS
 10
3.240160
 20
1.616120
  0
VERTEX
  8
0
  6
CONTINUOUS
 10
3.366000
 20
1.636360
  0
VERTEX
  8
0
  6
CONTINUOUS
 10
3.493600
 20
1.658360
  0
VERTEX
  8
0
  6
CONTINUOUS
 10
3.609320
 20
1.675080
  0
VERTEX
  8
0
  6
CONTINUOUS
 10
3.663000
 20
1.680800
  0
VERTEX
  8
0
  6
CONTINUOUS
 10
3.713600
 20
1.684320
  0
VERTEX
  8
0
  6
CONTINUOUS
 10
3.761560
 20
1.685200
  0
VERTEX
  8
0
  6
CONTINUOUS
 10
3.806440
 20
1.683440
  0
VERTEX
  8
0
  6
CONTINUOUS
 10
3.848240
 20
1.678160
  0
VERTEX
  8
0
  6
CONTINUOUS
 10
3.886960
 20
1.668920
  0
VERTEX
  8
0
  6
CONTINUOUS
 10
3.922600
 20
1.656160
  0
VERTEX
  8
0
  6
CONTINUOUS
 10
3.955160
 20
1.639000
  0
VERTEX
  8
0
  6
CONTINUOUS
 10
3.984640
 20
1.617000
  0
VERTEX
  8
0
  6
CONTINUOUS
 10
4.011040
 20
1.590160
  0
VERTEX
  8
0
  6
CONTINUOUS
 10
4.034360
 20
1.558040
  0
VERTEX
  8
0
  6
CONTINUOUS
 10
4.054160
 20
1.520200
  0
VERTEX
  8
0
  6
CONTINUOUS
 10
4.696120
 20
1.518000
  0
SEQEND
  8
0
  0
TEXT
  8
0
 10
4.075720
 20
0.810040
 40
0.138182
  1
BA  415
 41
1.000000
  7
SN0
 71
     0
 72
     5
 11
4.666460
 21
0.810040
  0
TEXT
  8
0
 10
3.827560
 20
0.618200
 40
0.138182
  1
3/4" x 5-13/16"
 41
1.000000
  7
SN0
 71
     0
 72
     5
 11
4.913413
 21
0.618200
  0
ENDSEC
  0
EOF
