  0
SECTION
  2
HEADER
  9
$ACADVER
  1
AC1006
  9
$EXTMIN
 10
3.236200
 20
0.569360
  9
$EXTMAX
 10
7.469440
 20
3.663440
  9
$LTSCALE
 40
0.044000
  9
$PDMODE
 70
    35
  9
$PDSIZE
 40
0.035200
  0
ENDSEC
  0
SECTION
  2
TABLES
  0
TABLE
  2
LTYPE
 70
     9
  0
LTYPE
  2
CONTINUOUS
 70
    64
  3
Solid line
 72
    65
 73
     0
 40
0.000000
  0
LTYPE
  2
DASHED
 70
    64
  3
__ __ __ __ __ __ __ __ __ __ __ __ __ __ __
 72
    65
 73
     2
 40
0.000330
 49
0.000220
 49
-0.000110
  0
LTYPE
  2
HIDDEN
 70
    64
  3
 _ _ _ _ _ _ _ _ _ _ _ _ _ _ _ _ _ _ _ _ _ _
 72
    65
 73
     2
 40
0.000165
 49
0.000110
 49
-0.000055
  0
LTYPE
  2
CENTER
 70
    64
  3
____ _ ____ _ ____ _ ____ _ ____ _ ____ _ ____
 72
    65
 73
     4
 40
0.000880
 49
0.000550
 49
-0.000110
 49
0.000110
 49
-0.000110
  0
LTYPE
  2
PHANTOM
 70
    64
  3
_____ _ _ _____ _ _ _____ _ _ _____ _ _ ____
 72
    65
 73
     6
 40
0.001100
 49
0.000550
 49
-0.000110
 49
0.000110
 49
-0.000110
 49
0.000110
 49
-0.000110
  0
LTYPE
  2
DOT
 70
    64
  3
...............................................
 72
    65
 73
     2
 40
0.000110
 49
0.000000
 49
-0.000110
  0
LTYPE
  2
DASHDOT
 70
    64
  3
__ . __ . __ . __ . __ . __ . __ . __ . __ . __
 72
    65
 73
     4
 40
0.000440
 49
0.000220
 49
-0.000110
 49
0.000000
 49
-0.000110
  0
LTYPE
  2
BORDER
 70
    64
  3
__ __ . __ __ . __ __ . __ __ . __ __ . __ __
 72
    65
 73
     6
 40
0.000770
 49
0.000220
 49
-0.000110
 49
0.000220
 49
-0.000110
 49
0.000000
 49
-0.000110
  0
LTYPE
  2
DIVIDE
 70
    64
  3
__ . . __ . . __ . . __ . . __ . . __ . . __
 72
    65
 73
     6
 40
0.000550
 49
0.000220
 49
-0.000110
 49
0.000000
 49
-0.000110
 49
0.000000
 49
-0.000110
  0
LTYPE
  2
DOTDOT
 70
    64
  3
 . .  . .  . .  . .  . .  . . 
 72
    65
 73
     5
 40
0.000242
 49
-0.000110
 49
0.000000
 49
-0.000110
 49
0.000000
 49
-0.000110
  0
ENDTAB
  0
TABLE
  2
STYLE
 70
     2
  0
STYLE
 70
     0
  2
SN0
 40
0.000000
 41
0.000440
 50
0.000000
 71
     0
 42
0.000000
  3
ROMAND
  0
STYLE
 70
    68
  2
SV0
 40
0.000000
 41
0.000440
 50
0.000000
 71
     0
 42
0.000000
  3
ROMAND
  0
ENDTAB
  0
TABLE
  2
LAYER
 70
     3
  0
LAYER
  2
FOREGROUND
 70
    64
 62
     7
  6
CONTINUOUS
  0
LAYER
  2
BACKGROUND
 70
    65
 62
    -7
  6
CONTINUOUS
  0
LAYER
  2
0
 70
    64
 62
     7
  6
CONTINUOUS
  0
ENDTAB
  0
ENDSEC
  0
SECTION
  2
ENTITIES
  0
POLYLINE
  8
FOREGROUND
  6
CONTINUOUS
 66
     1
 40
0.000000
 41
0.000000
  0
VERTEX
  8
FOREGROUND
  6
CONTINUOUS
 10
0.000000
 20
4.232800
  0
VERTEX
  8
FOREGROUND
  6
CONTINUOUS
 10
8.499920
 20
4.232800
  0
VERTEX
  8
FOREGROUND
  6
CONTINUOUS
 10
8.499920
 20
-6.767200
  0
VERTEX
  8
FOREGROUND
  6
CONTINUOUS
 10
0.000000
 20
-6.767200
  0
VERTEX
  8
FOREGROUND
  6
CONTINUOUS
 10
0.000000
 20
4.232800
  0
SEQEND
  8
0
  0
POLYLINE
  8
0
  6
CONTINUOUS
 66
     1
 40
0.014080
 41
0.014080
  0
VERTEX
  8
0
  6
CONTINUOUS
 10
4.107400
 20
3.482600
  0
VERTEX
  8
0
  6
CONTINUOUS
 10
4.146120
 20
3.514280
  0
VERTEX
  8
0
  6
CONTINUOUS
 10
4.182200
 20
3.537600
  0
VERTEX
  8
0
  6
CONTINUOUS
 10
4.216520
 20
3.553000
  0
VERTEX
  8
0
  6
CONTINUOUS
 10
4.238960
 20
3.559160
  0
VERTEX
  8
0
  6
CONTINUOUS
 10
4.260960
 20
3.562240
  0
VERTEX
  8
0
  6
CONTINUOUS
 10
4.283840
 20
3.562680
  0
VERTEX
  8
0
  6
CONTINUOUS
 10
4.318600
 20
3.558280
  0
VERTEX
  8
0
  6
CONTINUOUS
 10
4.368760
 20
3.544200
  0
VERTEX
  8
0
  6
CONTINUOUS
 10
4.440480
 20
3.515600
  0
VERTEX
  8
0
  6
CONTINUOUS
 10
4.579080
 20
3.454880
  0
VERTEX
  8
0
  6
CONTINUOUS
 10
4.658280
 20
3.425400
  0
VERTEX
  8
0
  6
CONTINUOUS
 10
4.715040
 20
3.408680
  0
VERTEX
  8
0
  6
CONTINUOUS
 10
4.770480
 20
3.397680
  0
VERTEX
  8
0
  6
CONTINUOUS
 10
4.825920
 20
3.390640
  0
VERTEX
  8
0
  6
CONTINUOUS
 10
4.885760
 20
3.386680
  0
VERTEX
  8
0
  6
CONTINUOUS
 10
5.007640
 20
3.385800
  0
VERTEX
  8
0
  6
CONTINUOUS
 10
5.027880
 20
3.386240
  0
VERTEX
  8
0
  6
CONTINUOUS
 10
5.027880
 20
3.306600
  0
VERTEX
  8
0
  6
CONTINUOUS
 10
6.724960
 20
3.272280
  0
VERTEX
  8
0
  6
CONTINUOUS
 10
6.755760
 20
3.266120
  0
VERTEX
  8
0
  6
CONTINUOUS
 10
6.774240
 20
3.259520
  0
VERTEX
  8
0
  6
CONTINUOUS
 10
6.790960
 20
3.251160
  0
VERTEX
  8
0
  6
CONTINUOUS
 10
6.805920
 20
3.241480
  0
VERTEX
  8
0
  6
CONTINUOUS
 10
6.831880
 20
3.217720
  0
VERTEX
  8
0
  6
CONTINUOUS
 10
6.852120
 20
3.190000
  0
VERTEX
  8
0
  6
CONTINUOUS
 10
6.866640
 20
3.159640
  0
VERTEX
  8
0
  6
CONTINUOUS
 10
6.876760
 20
3.127960
  0
VERTEX
  8
0
  6
CONTINUOUS
 10
6.882040
 20
3.096280
  0
VERTEX
  8
0
  6
CONTINUOUS
 10
6.882920
 20
3.081320
  0
VERTEX
  8
0
  6
CONTINUOUS
 10
6.882920
 20
2.927320
  0
VERTEX
  8
0
  6
CONTINUOUS
 10
3.243680
 20
2.927320
  0
VERTEX
  8
0
  6
CONTINUOUS
 10
3.243680
 20
3.655960
  0
VERTEX
  8
0
  6
CONTINUOUS
 10
3.967480
 20
3.655960
  0
VERTEX
  8
0
  6
CONTINUOUS
 10
4.107400
 20
3.482600
  0
SEQEND
  8
0
  0
SOLID
  8
0
 62
    15
 10
5.412440
 20
1.495560
 11
5.408920
 21
2.239600
 12
5.472280
 22
1.491600
 13
5.468320
 23
2.236080
  0
POLYLINE
  8
0
  6
CONTINUOUS
 66
     1
 40
0.000000
 41
0.000000
  0
VERTEX
  8
0
  6
CONTINUOUS
 10
5.412440
 20
1.495560
  0
VERTEX
  8
0
  6
CONTINUOUS
 10
5.408920
 20
2.239600
  0
VERTEX
  8
0
  6
CONTINUOUS
 10
5.468320
 20
2.236080
  0
VERTEX
  8
0
  6
CONTINUOUS
 10
5.472280
 20
1.491600
  0
VERTEX
  8
0
  6
CONTINUOUS
 10
5.412440
 20
1.495560
  0
SEQEND
  8
0
  0
SOLID
  8
0
 62
    15
 10
4.719880
 20
1.609520
 11
4.715920
 21
2.354000
 12
4.744960
 22
1.628000
 13
4.741000
 23
2.372040
  0
POLYLINE
  8
0
  6
CONTINUOUS
 66
     1
 40
0.000000
 41
0.000000
  0
VERTEX
  8
0
  6
CONTINUOUS
 10
4.719880
 20
1.609520
  0
VERTEX
  8
0
  6
CONTINUOUS
 10
4.715920
 20
2.354000
  0
VERTEX
  8
0
  6
CONTINUOUS
 10
4.741000
 20
2.372040
  0
VERTEX
  8
0
  6
CONTINUOUS
 10
4.744960
 20
1.628000
  0
VERTEX
  8
0
  6
CONTINUOUS
 10
4.719880
 20
1.609520
  0
SEQEND
  8
0
  0
SOLID
  8
0
 62
    15
 10
4.744960
 20
1.628000
 11
4.741000
 21
2.372040
 12
4.768720
 22
1.642520
 13
4.764760
 23
2.386560
  0
POLYLINE
  8
0
  6
CONTINUOUS
 66
     1
 40
0.000000
 41
0.000000
  0
VERTEX
  8
0
  6
CONTINUOUS
 10
4.744960
 20
1.628000
  0
VERTEX
  8
0
  6
CONTINUOUS
 10
4.741000
 20
2.372040
  0
VERTEX
  8
0
  6
CONTINUOUS
 10
4.764760
 20
2.386560
  0
VERTEX
  8
0
  6
CONTINUOUS
 10
4.768720
 20
1.642520
  0
VERTEX
  8
0
  6
CONTINUOUS
 10
4.744960
 20
1.628000
  0
SEQEND
  8
0
  0
SOLID
  8
0
 62
    15
 10
4.768720
 20
1.642520
 11
4.764760
 21
2.386560
 12
4.791600
 22
1.653520
 13
4.787640
 23
2.397560
  0
POLYLINE
  8
0
  6
CONTINUOUS
 66
     1
 40
0.000000
 41
0.000000
  0
VERTEX
  8
0
  6
CONTINUOUS
 10
4.768720
 20
1.642520
  0
VERTEX
  8
0
  6
CONTINUOUS
 10
4.764760
 20
2.386560
  0
VERTEX
  8
0
  6
CONTINUOUS
 10
4.787640
 20
2.397560
  0
VERTEX
  8
0
  6
CONTINUOUS
 10
4.791600
 20
1.653520
  0
VERTEX
  8
0
  6
CONTINUOUS
 10
4.768720
 20
1.642520
  0
SEQEND
  8
0
  0
SOLID
  8
0
 62
    15
 10
4.791600
 20
1.653520
 11
4.787640
 21
2.397560
 12
4.836480
 22
1.665840
 13
4.832520
 23
2.410320
  0
POLYLINE
  8
0
  6
CONTINUOUS
 66
     1
 40
0.000000
 41
0.000000
  0
VERTEX
  8
0
  6
CONTINUOUS
 10
4.791600
 20
1.653520
  0
VERTEX
  8
0
  6
CONTINUOUS
 10
4.787640
 20
2.397560
  0
VERTEX
  8
0
  6
CONTINUOUS
 10
4.832520
 20
2.410320
  0
VERTEX
  8
0
  6
CONTINUOUS
 10
4.836480
 20
1.665840
  0
VERTEX
  8
0
  6
CONTINUOUS
 10
4.791600
 20
1.653520
  0
SEQEND
  8
0
  0
SOLID
  8
0
 62
    15
 10
4.836480
 20
1.665840
 11
4.832520
 21
2.410320
 12
4.881800
 22
1.666720
 13
4.877840
 23
2.410760
  0
POLYLINE
  8
0
  6
CONTINUOUS
 66
     1
 40
0.000000
 41
0.000000
  0
VERTEX
  8
0
  6
CONTINUOUS
 10
4.836480
 20
1.665840
  0
VERTEX
  8
0
  6
CONTINUOUS
 10
4.832520
 20
2.410320
  0
VERTEX
  8
0
  6
CONTINUOUS
 10
4.877840
 20
2.410760
  0
VERTEX
  8
0
  6
CONTINUOUS
 10
4.881800
 20
1.666720
  0
VERTEX
  8
0
  6
CONTINUOUS
 10
4.836480
 20
1.665840
  0
SEQEND
  8
0
  0
SOLID
  8
0
 62
    15
 10
4.881800
 20
1.666720
 11
4.877840
 21
2.410760
 12
4.929320
 22
1.657040
 13
4.925800
 23
2.401520
  0
POLYLINE
  8
0
  6
CONTINUOUS
 66
     1
 40
0.000000
 41
0.000000
  0
VERTEX
  8
0
  6
CONTINUOUS
 10
4.881800
 20
1.666720
  0
VERTEX
  8
0
  6
CONTINUOUS
 10
4.877840
 20
2.410760
  0
VERTEX
  8
0
  6
CONTINUOUS
 10
4.925800
 20
2.401520
  0
VERTEX
  8
0
  6
CONTINUOUS
 10
4.929320
 20
1.657040
  0
VERTEX
  8
0
  6
CONTINUOUS
 10
4.881800
 20
1.666720
  0
SEQEND
  8
0
  0
SOLID
  8
0
 62
    15
 10
4.929320
 20
1.657040
 11
4.925800
 21
2.401520
 12
4.982560
 22
1.639000
 13
4.978600
 23
2.383040
  0
POLYLINE
  8
0
  6
CONTINUOUS
 66
     1
 40
0.000000
 41
0.000000
  0
VERTEX
  8
0
  6
CONTINUOUS
 10
4.929320
 20
1.657040
  0
VERTEX
  8
0
  6
CONTINUOUS
 10
4.925800
 20
2.401520
  0
VERTEX
  8
0
  6
CONTINUOUS
 10
4.978600
 20
2.383040
  0
VERTEX
  8
0
  6
CONTINUOUS
 10
4.982560
 20
1.639000
  0
VERTEX
  8
0
  6
CONTINUOUS
 10
4.929320
 20
1.657040
  0
SEQEND
  8
0
  0
SOLID
  8
0
 62
    15
 10
4.982560
 20
1.639000
 11
4.978600
 21
2.383040
 12
5.042400
 22
1.613480
 13
5.038440
 23
2.357960
  0
POLYLINE
  8
0
  6
CONTINUOUS
 66
     1
 40
0.000000
 41
0.000000
  0
VERTEX
  8
0
  6
CONTINUOUS
 10
4.982560
 20
1.639000
  0
VERTEX
  8
0
  6
CONTINUOUS
 10
4.978600
 20
2.383040
  0
VERTEX
  8
0
  6
CONTINUOUS
 10
5.038440
 20
2.357960
  0
VERTEX
  8
0
  6
CONTINUOUS
 10
5.042400
 20
1.613480
  0
VERTEX
  8
0
  6
CONTINUOUS
 10
4.982560
 20
1.639000
  0
SEQEND
  8
0
  0
SOLID
  8
0
 62
    15
 10
5.042400
 20
1.613480
 11
5.038440
 21
2.357960
 12
5.111920
 22
1.582680
 13
5.107960
 23
2.326720
  0
POLYLINE
  8
0
  6
CONTINUOUS
 66
     1
 40
0.000000
 41
0.000000
  0
VERTEX
  8
0
  6
CONTINUOUS
 10
5.042400
 20
1.613480
  0
VERTEX
  8
0
  6
CONTINUOUS
 10
5.038440
 20
2.357960
  0
VERTEX
  8
0
  6
CONTINUOUS
 10
5.107960
 20
2.326720
  0
VERTEX
  8
0
  6
CONTINUOUS
 10
5.111920
 20
1.582680
  0
VERTEX
  8
0
  6
CONTINUOUS
 10
5.042400
 20
1.613480
  0
SEQEND
  8
0
  0
SOLID
  8
0
 62
    15
 10
5.111920
 20
1.582680
 11
5.107960
 21
2.326720
 12
5.182320
 22
1.553200
 13
5.178360
 23
2.297240
  0
POLYLINE
  8
0
  6
CONTINUOUS
 66
     1
 40
0.000000
 41
0.000000
  0
VERTEX
  8
0
  6
CONTINUOUS
 10
5.111920
 20
1.582680
  0
VERTEX
  8
0
  6
CONTINUOUS
 10
5.107960
 20
2.326720
  0
VERTEX
  8
0
  6
CONTINUOUS
 10
5.178360
 20
2.297240
  0
VERTEX
  8
0
  6
CONTINUOUS
 10
5.182320
 20
1.553200
  0
VERTEX
  8
0
  6
CONTINUOUS
 10
5.111920
 20
1.582680
  0
SEQEND
  8
0
  0
SOLID
  8
0
 62
    15
 10
5.182320
 20
1.553200
 11
5.178360
 21
2.297240
 12
5.244360
 22
1.530320
 13
5.240400
 23
2.274360
  0
POLYLINE
  8
0
  6
CONTINUOUS
 66
     1
 40
0.000000
 41
0.000000
  0
VERTEX
  8
0
  6
CONTINUOUS
 10
5.182320
 20
1.553200
  0
VERTEX
  8
0
  6
CONTINUOUS
 10
5.178360
 20
2.297240
  0
VERTEX
  8
0
  6
CONTINUOUS
 10
5.240400
 20
2.274360
  0
VERTEX
  8
0
  6
CONTINUOUS
 10
5.244360
 20
1.530320
  0
VERTEX
  8
0
  6
CONTINUOUS
 10
5.182320
 20
1.553200
  0
SEQEND
  8
0
  0
SOLID
  8
0
 62
    15
 10
5.244360
 20
1.530320
 11
5.240400
 21
2.274360
 12
5.301560
 22
1.514040
 13
5.297600
 23
2.258080
  0
POLYLINE
  8
0
  6
CONTINUOUS
 66
     1
 40
0.000000
 41
0.000000
  0
VERTEX
  8
0
  6
CONTINUOUS
 10
5.244360
 20
1.530320
  0
VERTEX
  8
0
  6
CONTINUOUS
 10
5.240400
 20
2.274360
  0
VERTEX
  8
0
  6
CONTINUOUS
 10
5.297600
 20
2.258080
  0
VERTEX
  8
0
  6
CONTINUOUS
 10
5.301560
 20
1.514040
  0
VERTEX
  8
0
  6
CONTINUOUS
 10
5.244360
 20
1.530320
  0
SEQEND
  8
0
  0
SOLID
  8
0
 62
    15
 10
5.301560
 20
1.514040
 11
5.297600
 21
2.258080
 12
5.356560
 22
1.502600
 13
5.353040
 23
2.246640
  0
POLYLINE
  8
0
  6
CONTINUOUS
 66
     1
 40
0.000000
 41
0.000000
  0
VERTEX
  8
0
  6
CONTINUOUS
 10
5.301560
 20
1.514040
  0
VERTEX
  8
0
  6
CONTINUOUS
 10
5.297600
 20
2.258080
  0
VERTEX
  8
0
  6
CONTINUOUS
 10
5.353040
 20
2.246640
  0
VERTEX
  8
0
  6
CONTINUOUS
 10
5.356560
 20
1.502600
  0
VERTEX
  8
0
  6
CONTINUOUS
 10
5.301560
 20
1.514040
  0
SEQEND
  8
0
  0
SOLID
  8
0
 62
    15
 10
5.356560
 20
1.502600
 11
5.353040
 21
2.246640
 12
5.412440
 22
1.495560
 13
5.408920
 23
2.239600
  0
POLYLINE
  8
0
  6
CONTINUOUS
 66
     1
 40
0.000000
 41
0.000000
  0
VERTEX
  8
0
  6
CONTINUOUS
 10
5.356560
 20
1.502600
  0
VERTEX
  8
0
  6
CONTINUOUS
 10
5.353040
 20
2.246640
  0
VERTEX
  8
0
  6
CONTINUOUS
 10
5.408920
 20
2.239600
  0
VERTEX
  8
0
  6
CONTINUOUS
 10
5.412440
 20
1.495560
  0
VERTEX
  8
0
  6
CONTINUOUS
 10
5.356560
 20
1.502600
  0
SEQEND
  8
0
  0
SOLID
  8
0
 62
    15
 10
4.693920
 20
1.587520
 11
4.689960
 21
2.331560
 12
4.719880
 22
1.609520
 13
4.715920
 23
2.354000
  0
POLYLINE
  8
0
  6
CONTINUOUS
 66
     1
 40
0.000000
 41
0.000000
  0
VERTEX
  8
0
  6
CONTINUOUS
 10
4.693920
 20
1.587520
  0
VERTEX
  8
0
  6
CONTINUOUS
 10
4.689960
 20
2.331560
  0
VERTEX
  8
0
  6
CONTINUOUS
 10
4.715920
 20
2.354000
  0
VERTEX
  8
0
  6
CONTINUOUS
 10
4.719880
 20
1.609520
  0
VERTEX
  8
0
  6
CONTINUOUS
 10
4.693920
 20
1.587520
  0
SEQEND
  8
0
  0
SOLID
  8
0
 62
    15
 10
5.472280
 20
1.491600
 11
5.468320
 21
2.236080
 12
5.538720
 22
1.490720
 13
5.534760
 23
2.234760
  0
POLYLINE
  8
0
  6
CONTINUOUS
 66
     1
 40
0.000000
 41
0.000000
  0
VERTEX
  8
0
  6
CONTINUOUS
 10
5.472280
 20
1.491600
  0
VERTEX
  8
0
  6
CONTINUOUS
 10
5.468320
 20
2.236080
  0
VERTEX
  8
0
  6
CONTINUOUS
 10
5.534760
 20
2.234760
  0
VERTEX
  8
0
  6
CONTINUOUS
 10
5.538720
 20
1.490720
  0
VERTEX
  8
0
  6
CONTINUOUS
 10
5.472280
 20
1.491600
  0
SEQEND
  8
0
  0
SOLID
  8
0
 62
    15
 10
5.614400
 20
1.411960
 11
5.610440
 21
2.156000
 12
7.300480
 22
1.378080
 13
7.296520
 23
2.122120
  0
POLYLINE
  8
0
  6
CONTINUOUS
 66
     1
 40
0.000000
 41
0.000000
  0
VERTEX
  8
0
  6
CONTINUOUS
 10
5.614400
 20
1.411960
  0
VERTEX
  8
0
  6
CONTINUOUS
 10
5.610440
 20
2.156000
  0
VERTEX
  8
0
  6
CONTINUOUS
 10
7.296520
 20
2.122120
  0
VERTEX
  8
0
  6
CONTINUOUS
 10
7.300480
 20
1.378080
  0
VERTEX
  8
0
  6
CONTINUOUS
 10
5.614400
 20
1.411960
  0
SEQEND
  8
0
  0
SOLID
  8
0
 62
    15
 10
5.538720
 20
1.490720
 11
5.534760
 21
2.234760
 12
5.614400
 22
1.491160
 13
5.610440
 23
2.235200
  0
POLYLINE
  8
0
  6
CONTINUOUS
 66
     1
 40
0.000000
 41
0.000000
  0
VERTEX
  8
0
  6
CONTINUOUS
 10
5.538720
 20
1.490720
  0
VERTEX
  8
0
  6
CONTINUOUS
 10
5.534760
 20
2.234760
  0
VERTEX
  8
0
  6
CONTINUOUS
 10
5.610440
 20
2.235200
  0
VERTEX
  8
0
  6
CONTINUOUS
 10
5.614400
 20
1.491160
  0
VERTEX
  8
0
  6
CONTINUOUS
 10
5.538720
 20
1.490720
  0
SEQEND
  8
0
  0
SOLID
  8
0
 62
    15
 10
7.300480
 20
1.378080
 11
7.296520
 21
2.122120
 12
7.342280
 22
1.371040
 13
7.338320
 23
2.115520
  0
POLYLINE
  8
0
  6
CONTINUOUS
 66
     1
 40
0.000000
 41
0.000000
  0
VERTEX
  8
0
  6
CONTINUOUS
 10
7.300480
 20
1.378080
  0
VERTEX
  8
0
  6
CONTINUOUS
 10
7.296520
 20
2.122120
  0
VERTEX
  8
0
  6
CONTINUOUS
 10
7.338320
 20
2.115520
  0
VERTEX
  8
0
  6
CONTINUOUS
 10
7.342280
 20
1.371040
  0
VERTEX
  8
0
  6
CONTINUOUS
 10
7.300480
 20
1.378080
  0
SEQEND
  8
0
  0
SOLID
  8
0
 62
    15
 10
7.342280
 20
1.371040
 11
7.338320
 21
2.115520
 12
7.377480
 22
1.356520
 13
7.373520
 23
2.100560
  0
POLYLINE
  8
0
  6
CONTINUOUS
 66
     1
 40
0.000000
 41
0.000000
  0
VERTEX
  8
0
  6
CONTINUOUS
 10
7.342280
 20
1.371040
  0
VERTEX
  8
0
  6
CONTINUOUS
 10
7.338320
 20
2.115520
  0
VERTEX
  8
0
  6
CONTINUOUS
 10
7.373520
 20
2.100560
  0
VERTEX
  8
0
  6
CONTINUOUS
 10
7.377480
 20
1.356520
  0
VERTEX
  8
0
  6
CONTINUOUS
 10
7.342280
 20
1.371040
  0
SEQEND
  8
0
  0
SOLID
  8
0
 62
    15
 10
7.377480
 20
1.356520
 11
7.373520
 21
2.100560
 12
7.406080
 22
1.335400
 13
7.402120
 23
2.079440
  0
POLYLINE
  8
0
  6
CONTINUOUS
 66
     1
 40
0.000000
 41
0.000000
  0
VERTEX
  8
0
  6
CONTINUOUS
 10
7.377480
 20
1.356520
  0
VERTEX
  8
0
  6
CONTINUOUS
 10
7.373520
 20
2.100560
  0
VERTEX
  8
0
  6
CONTINUOUS
 10
7.402120
 20
2.079440
  0
VERTEX
  8
0
  6
CONTINUOUS
 10
7.406080
 20
1.335400
  0
VERTEX
  8
0
  6
CONTINUOUS
 10
7.377480
 20
1.356520
  0
SEQEND
  8
0
  0
SOLID
  8
0
 62
    15
 10
7.406080
 20
1.335400
 11
7.402120
 21
2.079440
 12
7.428960
 22
1.309000
 13
7.425000
 23
2.053480
  0
POLYLINE
  8
0
  6
CONTINUOUS
 66
     1
 40
0.000000
 41
0.000000
  0
VERTEX
  8
0
  6
CONTINUOUS
 10
7.406080
 20
1.335400
  0
VERTEX
  8
0
  6
CONTINUOUS
 10
7.402120
 20
2.079440
  0
VERTEX
  8
0
  6
CONTINUOUS
 10
7.425000
 20
2.053480
  0
VERTEX
  8
0
  6
CONTINUOUS
 10
7.428960
 20
1.309000
  0
VERTEX
  8
0
  6
CONTINUOUS
 10
7.406080
 20
1.335400
  0
SEQEND
  8
0
  0
SOLID
  8
0
 62
    15
 10
7.428960
 20
1.309000
 11
7.425000
 21
2.053480
 12
7.446560
 22
1.279960
 13
7.442600
 23
2.024000
  0
POLYLINE
  8
0
  6
CONTINUOUS
 66
     1
 40
0.000000
 41
0.000000
  0
VERTEX
  8
0
  6
CONTINUOUS
 10
7.428960
 20
1.309000
  0
VERTEX
  8
0
  6
CONTINUOUS
 10
7.425000
 20
2.053480
  0
VERTEX
  8
0
  6
CONTINUOUS
 10
7.442600
 20
2.024000
  0
VERTEX
  8
0
  6
CONTINUOUS
 10
7.446560
 20
1.279960
  0
VERTEX
  8
0
  6
CONTINUOUS
 10
7.428960
 20
1.309000
  0
SEQEND
  8
0
  0
SOLID
  8
0
 62
    15
 10
7.458880
 20
1.248720
 11
7.454920
 21
1.992760
 12
7.466360
 22
1.217040
 13
7.462400
 23
1.961080
  0
POLYLINE
  8
0
  6
CONTINUOUS
 66
     1
 40
0.000000
 41
0.000000
  0
VERTEX
  8
0
  6
CONTINUOUS
 10
7.458880
 20
1.248720
  0
VERTEX
  8
0
  6
CONTINUOUS
 10
7.454920
 20
1.992760
  0
VERTEX
  8
0
  6
CONTINUOUS
 10
7.462400
 20
1.961080
  0
VERTEX
  8
0
  6
CONTINUOUS
 10
7.466360
 20
1.217040
  0
VERTEX
  8
0
  6
CONTINUOUS
 10
7.458880
 20
1.248720
  0
SEQEND
  8
0
  0
SOLID
  8
0
 62
    15
 10
7.446560
 20
1.279960
 11
7.442600
 21
2.024000
 12
7.458880
 22
1.248720
 13
7.454920
 23
1.992760
  0
POLYLINE
  8
0
  6
CONTINUOUS
 66
     1
 40
0.000000
 41
0.000000
  0
VERTEX
  8
0
  6
CONTINUOUS
 10
7.446560
 20
1.279960
  0
VERTEX
  8
0
  6
CONTINUOUS
 10
7.442600
 20
2.024000
  0
VERTEX
  8
0
  6
CONTINUOUS
 10
7.454920
 20
1.992760
  0
VERTEX
  8
0
  6
CONTINUOUS
 10
7.458880
 20
1.248720
  0
VERTEX
  8
0
  6
CONTINUOUS
 10
7.446560
 20
1.279960
  0
SEQEND
  8
0
  0
SOLID
  8
0
 62
    15
 10
7.466360
 20
1.217040
 11
7.462400
 21
1.961080
 12
7.469000
 22
1.186240
 13
7.465040
 23
1.930280
  0
POLYLINE
  8
0
  6
CONTINUOUS
 66
     1
 40
0.000000
 41
0.000000
  0
VERTEX
  8
0
  6
CONTINUOUS
 10
7.466360
 20
1.217040
  0
VERTEX
  8
0
  6
CONTINUOUS
 10
7.462400
 20
1.961080
  0
VERTEX
  8
0
  6
CONTINUOUS
 10
7.465040
 20
1.930280
  0
VERTEX
  8
0
  6
CONTINUOUS
 10
7.469000
 20
1.186240
  0
VERTEX
  8
0
  6
CONTINUOUS
 10
7.466360
 20
1.217040
  0
SEQEND
  8
0
  0
SOLID
  8
0
 62
    15
 10
3.830200
 20
1.032680
 11
3.826240
 21
1.776720
 12
3.830200
 22
1.760880
 13
3.826240
 23
2.504920
  0
POLYLINE
  8
0
  6
CONTINUOUS
 66
     1
 40
0.000000
 41
0.000000
  0
VERTEX
  8
0
  6
CONTINUOUS
 10
3.830200
 20
1.032680
  0
VERTEX
  8
0
  6
CONTINUOUS
 10
3.826240
 20
1.776720
  0
VERTEX
  8
0
  6
CONTINUOUS
 10
3.826240
 20
2.504920
  0
VERTEX
  8
0
  6
CONTINUOUS
 10
3.830200
 20
1.760880
  0
VERTEX
  8
0
  6
CONTINUOUS
 10
3.830200
 20
1.032680
  0
SEQEND
  8
0
  0
SOLID
  8
0
 62
    15
 10
3.830200
 20
1.760880
 11
3.826240
 21
2.504920
 12
4.554000
 22
1.760880
 13
4.550040
 23
2.504920
  0
POLYLINE
  8
0
  6
CONTINUOUS
 66
     1
 40
0.000000
 41
0.000000
  0
VERTEX
  8
0
  6
CONTINUOUS
 10
3.830200
 20
1.760880
  0
VERTEX
  8
0
  6
CONTINUOUS
 10
3.826240
 20
2.504920
  0
VERTEX
  8
0
  6
CONTINUOUS
 10
4.550040
 20
2.504920
  0
VERTEX
  8
0
  6
CONTINUOUS
 10
4.554000
 20
1.760880
  0
VERTEX
  8
0
  6
CONTINUOUS
 10
3.830200
 20
1.760880
  0
SEQEND
  8
0
  0
SOLID
  8
0
 62
    15
 10
4.554000
 20
1.760880
 11
4.550040
 21
2.504920
 12
4.693920
 22
1.587520
 13
4.689960
 23
2.331560
  0
POLYLINE
  8
0
  6
CONTINUOUS
 66
     1
 40
0.000000
 41
0.000000
  0
VERTEX
  8
0
  6
CONTINUOUS
 10
4.554000
 20
1.760880
  0
VERTEX
  8
0
  6
CONTINUOUS
 10
4.550040
 20
2.504920
  0
VERTEX
  8
0
  6
CONTINUOUS
 10
4.689960
 20
2.331560
  0
VERTEX
  8
0
  6
CONTINUOUS
 10
4.693920
 20
1.587520
  0
VERTEX
  8
0
  6
CONTINUOUS
 10
4.554000
 20
1.760880
  0
SEQEND
  8
0
  0
POLYLINE
  8
0
  6
CONTINUOUS
 66
     1
 40
0.000000
 41
0.000000
  0
VERTEX
  8
0
  6
CONTINUOUS
 10
4.693920
 20
1.587520
  0
VERTEX
  8
0
  6
CONTINUOUS
 10
4.719880
 20
1.609520
  0
VERTEX
  8
0
  6
CONTINUOUS
 10
4.744960
 20
1.628000
  0
VERTEX
  8
0
  6
CONTINUOUS
 10
4.768720
 20
1.642520
  0
VERTEX
  8
0
  6
CONTINUOUS
 10
4.791600
 20
1.653520
  0
VERTEX
  8
0
  6
CONTINUOUS
 10
4.836480
 20
1.665840
  0
VERTEX
  8
0
  6
CONTINUOUS
 10
4.881800
 20
1.666720
  0
VERTEX
  8
0
  6
CONTINUOUS
 10
4.929320
 20
1.657040
  0
VERTEX
  8
0
  6
CONTINUOUS
 10
4.982560
 20
1.639000
  0
VERTEX
  8
0
  6
CONTINUOUS
 10
5.042400
 20
1.613480
  0
VERTEX
  8
0
  6
CONTINUOUS
 10
5.111920
 20
1.582680
  0
VERTEX
  8
0
  6
CONTINUOUS
 10
5.182320
 20
1.553200
  0
VERTEX
  8
0
  6
CONTINUOUS
 10
5.244360
 20
1.530320
  0
VERTEX
  8
0
  6
CONTINUOUS
 10
5.301560
 20
1.514040
  0
VERTEX
  8
0
  6
CONTINUOUS
 10
5.356560
 20
1.502600
  0
VERTEX
  8
0
  6
CONTINUOUS
 10
5.412440
 20
1.495560
  0
VERTEX
  8
0
  6
CONTINUOUS
 10
5.472280
 20
1.491600
  0
VERTEX
  8
0
  6
CONTINUOUS
 10
5.538720
 20
1.490720
  0
VERTEX
  8
0
  6
CONTINUOUS
 10
5.614400
 20
1.491160
  0
VERTEX
  8
0
  6
CONTINUOUS
 10
5.614400
 20
1.411960
  0
VERTEX
  8
0
  6
CONTINUOUS
 10
7.300480
 20
1.378080
  0
VERTEX
  8
0
  6
CONTINUOUS
 10
7.342280
 20
1.371040
  0
VERTEX
  8
0
  6
CONTINUOUS
 10
7.377480
 20
1.356520
  0
VERTEX
  8
0
  6
CONTINUOUS
 10
7.406080
 20
1.335400
  0
VERTEX
  8
0
  6
CONTINUOUS
 10
7.428960
 20
1.309000
  0
VERTEX
  8
0
  6
CONTINUOUS
 10
7.446560
 20
1.279960
  0
VERTEX
  8
0
  6
CONTINUOUS
 10
7.458880
 20
1.248720
  0
VERTEX
  8
0
  6
CONTINUOUS
 10
7.466360
 20
1.217040
  0
VERTEX
  8
0
  6
CONTINUOUS
 10
7.469000
 20
1.186240
  0
VERTEX
  8
0
  6
CONTINUOUS
 10
7.469000
 20
1.032680
  0
VERTEX
  8
0
  6
CONTINUOUS
 10
3.830200
 20
1.032680
  0
VERTEX
  8
0
  6
CONTINUOUS
 10
3.830200
 20
1.760880
  0
VERTEX
  8
0
  6
CONTINUOUS
 10
4.554000
 20
1.760880
  0
VERTEX
  8
0
  6
CONTINUOUS
 10
4.693920
 20
1.587520
  0
SEQEND
  8
0
  0
TEXT
  8
0
 10
5.351720
 20
0.805200
 40
0.138150
  1
BA  414
 41
1.000000
  7
SN0
 71
     0
 72
     5
 11
5.940775
 21
0.805200
  0
TEXT
  8
0
 10
5.195960
 20
0.613360
 40
0.138150
  1
3/4" x 3-5/8"
 41
1.000000
  7
SN0
 71
     0
 72
     5
 11
6.094677
 21
0.613360
  0
ENDSEC
  0
EOF
