  0
SECTION
  2
HEADER
  9
$ACADVER
  1
AC1006
  9
$EXTMIN
 10
4.274600
 20
0.537680
  9
$EXTMAX
 10
6.859600
 20
2.871440
  9
$LTSCALE
 40
0.044000
  9
$PDMODE
 70
    35
  9
$PDSIZE
 40
0.035200
  0
ENDSEC
  0
SECTION
  2
TABLES
  0
TABLE
  2
LTYPE
 70
     9
  0
LTYPE
  2
CONTINUOUS
 70
    64
  3
Solid line
 72
    65
 73
     0
 40
0.000000
  0
LTYPE
  2
DASHED
 70
    64
  3
__ __ __ __ __ __ __ __ __ __ __ __ __ __ __
 72
    65
 73
     2
 40
0.000330
 49
0.000220
 49
-0.000110
  0
LTYPE
  2
HIDDEN
 70
    64
  3
 _ _ _ _ _ _ _ _ _ _ _ _ _ _ _ _ _ _ _ _ _ _
 72
    65
 73
     2
 40
0.000165
 49
0.000110
 49
-0.000055
  0
LTYPE
  2
CENTER
 70
    64
  3
____ _ ____ _ ____ _ ____ _ ____ _ ____ _ ____
 72
    65
 73
     4
 40
0.000880
 49
0.000550
 49
-0.000110
 49
0.000110
 49
-0.000110
  0
LTYPE
  2
PHANTOM
 70
    64
  3
_____ _ _ _____ _ _ _____ _ _ _____ _ _ ____
 72
    65
 73
     6
 40
0.001100
 49
0.000550
 49
-0.000110
 49
0.000110
 49
-0.000110
 49
0.000110
 49
-0.000110
  0
LTYPE
  2
DOT
 70
    64
  3
...............................................
 72
    65
 73
     2
 40
0.000110
 49
0.000000
 49
-0.000110
  0
LTYPE
  2
DASHDOT
 70
    64
  3
__ . __ . __ . __ . __ . __ . __ . __ . __ . __
 72
    65
 73
     4
 40
0.000440
 49
0.000220
 49
-0.000110
 49
0.000000
 49
-0.000110
  0
LTYPE
  2
BORDER
 70
    64
  3
__ __ . __ __ . __ __ . __ __ . __ __ . __ __
 72
    65
 73
     6
 40
0.000770
 49
0.000220
 49
-0.000110
 49
0.000220
 49
-0.000110
 49
0.000000
 49
-0.000110
  0
LTYPE
  2
DIVIDE
 70
    64
  3
__ . . __ . . __ . . __ . . __ . . __ . . __
 72
    65
 73
     6
 40
0.000550
 49
0.000220
 49
-0.000110
 49
0.000000
 49
-0.000110
 49
0.000000
 49
-0.000110
  0
LTYPE
  2
DOTDOT
 70
    64
  3
 . .  . .  . .  . .  . .  . . 
 72
    65
 73
     5
 40
0.000242
 49
-0.000110
 49
0.000000
 49
-0.000110
 49
0.000000
 49
-0.000110
  0
ENDTAB
  0
TABLE
  2
STYLE
 70
     2
  0
STYLE
 70
     0
  2
SN0
 40
0.000000
 41
0.000440
 50
0.000000
 71
     0
 42
0.000000
  3
ROMAND
  0
STYLE
 70
    68
  2
SV0
 40
0.000000
 41
0.000440
 50
0.000000
 71
     0
 42
0.000000
  3
ROMAND
  0
ENDTAB
  0
TABLE
  2
LAYER
 70
     3
  0
LAYER
  2
FOREGROUND
 70
    64
 62
     7
  6
CONTINUOUS
  0
LAYER
  2
BACKGROUND
 70
    65
 62
    -7
  6
CONTINUOUS
  0
LAYER
  2
0
 70
    64
 62
     7
  6
CONTINUOUS
  0
ENDTAB
  0
ENDSEC
  0
SECTION
  2
ENTITIES
  0
POLYLINE
  8
FOREGROUND
  6
CONTINUOUS
 66
     1
 40
0.000000
 41
0.000000
  0
VERTEX
  8
FOREGROUND
  6
CONTINUOUS
 10
0.000000
 20
3.409120
  0
VERTEX
  8
FOREGROUND
  6
CONTINUOUS
 10
8.499920
 20
3.409120
  0
VERTEX
  8
FOREGROUND
  6
CONTINUOUS
 10
8.499920
 20
-7.590880
  0
VERTEX
  8
FOREGROUND
  6
CONTINUOUS
 10
0.000000
 20
-7.590880
  0
VERTEX
  8
FOREGROUND
  6
CONTINUOUS
 10
0.000000
 20
3.409120
  0
SEQEND
  8
0
  0
POLYLINE
  8
0
  6
CONTINUOUS
 66
     1
 40
0.014080
 41
0.014080
  0
VERTEX
  8
0
  6
CONTINUOUS
 10
6.206640
 20
2.833160
  0
VERTEX
  8
0
  6
CONTINUOUS
 10
6.208840
 20
2.785200
  0
VERTEX
  8
0
  6
CONTINUOUS
 10
6.215440
 20
2.742520
  0
VERTEX
  8
0
  6
CONTINUOUS
 10
6.226000
 20
2.704680
  0
VERTEX
  8
0
  6
CONTINUOUS
 10
6.239640
 20
2.671680
  0
VERTEX
  8
0
  6
CONTINUOUS
 10
6.250640
 20
2.652320
  0
VERTEX
  8
0
  6
CONTINUOUS
 10
6.262960
 20
2.635160
  0
VERTEX
  8
0
  6
CONTINUOUS
 10
6.276160
 20
2.620200
  0
VERTEX
  8
0
  6
CONTINUOUS
 10
6.290680
 20
2.607440
  0
VERTEX
  8
0
  6
CONTINUOUS
 10
6.306080
 20
2.596440
  0
VERTEX
  8
0
  6
CONTINUOUS
 10
6.321920
 20
2.587640
  0
VERTEX
  8
0
  6
CONTINUOUS
 10
6.338640
 20
2.581040
  0
VERTEX
  8
0
  6
CONTINUOUS
 10
6.355800
 20
2.576200
  0
VERTEX
  8
0
  6
CONTINUOUS
 10
6.373400
 20
2.573120
  0
VERTEX
  8
0
  6
CONTINUOUS
 10
6.391000
 20
2.572240
  0
VERTEX
  8
0
  6
CONTINUOUS
 10
6.391000
 20
2.490400
  0
VERTEX
  8
0
  6
CONTINUOUS
 10
6.410800
 20
2.489080
  0
VERTEX
  8
0
  6
CONTINUOUS
 10
6.446000
 20
2.482480
  0
VERTEX
  8
0
  6
CONTINUOUS
 10
6.475480
 20
2.471480
  0
VERTEX
  8
0
  6
CONTINUOUS
 10
6.499240
 20
2.456520
  0
VERTEX
  8
0
  6
CONTINUOUS
 10
6.518160
 20
2.438920
  0
VERTEX
  8
0
  6
CONTINUOUS
 10
6.532240
 20
2.418680
  0
VERTEX
  8
0
  6
CONTINUOUS
 10
6.541040
 20
2.396680
  0
VERTEX
  8
0
  6
CONTINUOUS
 10
6.545440
 20
2.373800
  0
VERTEX
  8
0
  6
CONTINUOUS
 10
6.546320
 20
2.362360
  0
VERTEX
  8
0
  6
CONTINUOUS
 10
6.544120
 20
2.339480
  0
VERTEX
  8
0
  6
CONTINUOUS
 10
6.537960
 20
2.317040
  0
VERTEX
  8
0
  6
CONTINUOUS
 10
6.527840
 20
2.295920
  0
VERTEX
  8
0
  6
CONTINUOUS
 10
6.514200
 20
2.277440
  0
VERTEX
  8
0
  6
CONTINUOUS
 10
6.497480
 20
2.261160
  0
VERTEX
  8
0
  6
CONTINUOUS
 10
6.477240
 20
2.248840
  0
VERTEX
  8
0
  6
CONTINUOUS
 10
6.453920
 20
2.240480
  0
VERTEX
  8
0
  6
CONTINUOUS
 10
6.441160
 20
2.237840
  0
VERTEX
  8
0
  6
CONTINUOUS
 10
6.427960
 20
2.236960
  0
VERTEX
  8
0
  6
CONTINUOUS
 10
6.427960
 20
2.159520
  0
VERTEX
  8
0
  6
CONTINUOUS
 10
6.506280
 20
2.126960
  0
VERTEX
  8
0
  6
CONTINUOUS
 10
6.575360
 20
2.091320
  0
VERTEX
  8
0
  6
CONTINUOUS
 10
6.635640
 20
2.053040
  0
VERTEX
  8
0
  6
CONTINUOUS
 10
6.688000
 20
2.012560
  0
VERTEX
  8
0
  6
CONTINUOUS
 10
6.732000
 20
1.970320
  0
VERTEX
  8
0
  6
CONTINUOUS
 10
6.768080
 20
1.926760
  0
VERTEX
  8
0
  6
CONTINUOUS
 10
6.797560
 20
1.882320
  0
VERTEX
  8
0
  6
CONTINUOUS
 10
6.820440
 20
1.837000
  0
VERTEX
  8
0
  6
CONTINUOUS
 10
6.836720
 20
1.792120
  0
VERTEX
  8
0
  6
CONTINUOUS
 10
6.846840
 20
1.747240
  0
VERTEX
  8
0
  6
CONTINUOUS
 10
6.850800
 20
1.717760
  0
VERTEX
  8
0
  6
CONTINUOUS
 10
6.852120
 20
1.688720
  0
VERTEX
  8
0
  6
CONTINUOUS
 10
6.851680
 20
1.660560
  0
VERTEX
  8
0
  6
CONTINUOUS
 10
6.849040
 20
1.632840
  0
VERTEX
  8
0
  6
CONTINUOUS
 10
6.844200
 20
1.605560
  0
VERTEX
  8
0
  6
CONTINUOUS
 10
6.829680
 20
1.554960
  0
VERTEX
  8
0
  6
CONTINUOUS
 10
6.808560
 20
1.509200
  0
VERTEX
  8
0
  6
CONTINUOUS
 10
6.795800
 20
1.488080
  0
VERTEX
  8
0
  6
CONTINUOUS
 10
6.782160
 20
1.469160
  0
VERTEX
  8
0
  6
CONTINUOUS
 10
6.751360
 20
1.435720
  0
VERTEX
  8
0
  6
CONTINUOUS
 10
6.734640
 20
1.422080
  0
VERTEX
  8
0
  6
CONTINUOUS
 10
6.717040
 20
1.410200
  0
VERTEX
  8
0
  6
CONTINUOUS
 10
6.699000
 20
1.400520
  0
VERTEX
  8
0
  6
CONTINUOUS
 10
6.680520
 20
1.393480
  0
VERTEX
  8
0
  6
CONTINUOUS
 10
6.680520
 20
1.323080
  0
VERTEX
  8
0
  6
CONTINUOUS
 10
6.080360
 20
1.323080
  0
VERTEX
  8
0
  6
CONTINUOUS
 10
6.080360
 20
2.834480
  0
VERTEX
  8
0
  6
CONTINUOUS
 10
6.206640
 20
2.834480
  0
VERTEX
  8
0
  6
CONTINUOUS
 10
6.206640
 20
2.833160
  0
SEQEND
  8
0
  0
SOLID
  8
0
 62
    15
 10
4.623080
 20
1.902120
 11
5.271200
 21
2.273480
 12
4.623080
 22
1.824680
 13
5.271200
 23
2.196480
  0
POLYLINE
  8
0
  6
CONTINUOUS
 66
     1
 40
0.000000
 41
0.000000
  0
VERTEX
  8
0
  6
CONTINUOUS
 10
4.623080
 20
1.902120
  0
VERTEX
  8
0
  6
CONTINUOUS
 10
5.271200
 20
2.273480
  0
VERTEX
  8
0
  6
CONTINUOUS
 10
5.271200
 20
2.196480
  0
VERTEX
  8
0
  6
CONTINUOUS
 10
4.623080
 20
1.824680
  0
VERTEX
  8
0
  6
CONTINUOUS
 10
4.623080
 20
1.902120
  0
SEQEND
  8
0
  0
SOLID
  8
0
 62
     7
 10
4.405720
 20
2.435840
 11
5.053840
 21
2.807200
 12
4.416720
 22
2.382160
 13
5.065280
 23
2.753520
  0
POLYLINE
  8
0
  6
CONTINUOUS
 66
     1
 40
0.000000
 41
0.000000
  0
VERTEX
  8
0
  6
CONTINUOUS
 10
4.405720
 20
2.435840
  0
VERTEX
  8
0
  6
CONTINUOUS
 10
5.053840
 20
2.807200
  0
VERTEX
  8
0
  6
CONTINUOUS
 10
5.065280
 20
2.753520
  0
VERTEX
  8
0
  6
CONTINUOUS
 10
4.416720
 20
2.382160
  0
VERTEX
  8
0
  6
CONTINUOUS
 10
4.405720
 20
2.435840
  0
SEQEND
  8
0
  0
SOLID
  8
0
 62
     7
 10
4.416720
 20
2.382160
 11
5.065280
 21
2.753520
 12
4.434760
 22
2.336840
 13
5.082880
 23
2.708640
  0
POLYLINE
  8
0
  6
CONTINUOUS
 66
     1
 40
0.000000
 41
0.000000
  0
VERTEX
  8
0
  6
CONTINUOUS
 10
4.416720
 20
2.382160
  0
VERTEX
  8
0
  6
CONTINUOUS
 10
5.065280
 20
2.753520
  0
VERTEX
  8
0
  6
CONTINUOUS
 10
5.082880
 20
2.708640
  0
VERTEX
  8
0
  6
CONTINUOUS
 10
4.434760
 20
2.336840
  0
VERTEX
  8
0
  6
CONTINUOUS
 10
4.416720
 20
2.382160
  0
SEQEND
  8
0
  0
SOLID
  8
0
 62
     7
 10
4.434760
 20
2.336840
 11
5.082880
 21
2.708640
 12
4.457640
 22
2.300320
 13
5.106200
 23
2.672120
  0
POLYLINE
  8
0
  6
CONTINUOUS
 66
     1
 40
0.000000
 41
0.000000
  0
VERTEX
  8
0
  6
CONTINUOUS
 10
4.434760
 20
2.336840
  0
VERTEX
  8
0
  6
CONTINUOUS
 10
5.082880
 20
2.708640
  0
VERTEX
  8
0
  6
CONTINUOUS
 10
5.106200
 20
2.672120
  0
VERTEX
  8
0
  6
CONTINUOUS
 10
4.457640
 20
2.300320
  0
VERTEX
  8
0
  6
CONTINUOUS
 10
4.434760
 20
2.336840
  0
SEQEND
  8
0
  0
SOLID
  8
0
 62
     7
 10
4.457640
 20
2.300320
 11
5.106200
 21
2.672120
 12
4.485360
 22
2.272600
 13
5.133920
 23
2.643960
  0
POLYLINE
  8
0
  6
CONTINUOUS
 66
     1
 40
0.000000
 41
0.000000
  0
VERTEX
  8
0
  6
CONTINUOUS
 10
4.457640
 20
2.300320
  0
VERTEX
  8
0
  6
CONTINUOUS
 10
5.106200
 20
2.672120
  0
VERTEX
  8
0
  6
CONTINUOUS
 10
5.133920
 20
2.643960
  0
VERTEX
  8
0
  6
CONTINUOUS
 10
4.485360
 20
2.272600
  0
VERTEX
  8
0
  6
CONTINUOUS
 10
4.457640
 20
2.300320
  0
SEQEND
  8
0
  0
SOLID
  8
0
 62
     7
 10
4.485360
 20
2.272600
 11
5.133920
 21
2.643960
 12
4.516600
 22
2.252800
 13
5.165160
 23
2.624160
  0
POLYLINE
  8
0
  6
CONTINUOUS
 66
     1
 40
0.000000
 41
0.000000
  0
VERTEX
  8
0
  6
CONTINUOUS
 10
4.485360
 20
2.272600
  0
VERTEX
  8
0
  6
CONTINUOUS
 10
5.133920
 20
2.643960
  0
VERTEX
  8
0
  6
CONTINUOUS
 10
5.165160
 20
2.624160
  0
VERTEX
  8
0
  6
CONTINUOUS
 10
4.516600
 20
2.252800
  0
VERTEX
  8
0
  6
CONTINUOUS
 10
4.485360
 20
2.272600
  0
SEQEND
  8
0
  0
SOLID
  8
0
 62
    15
 10
4.516600
 20
2.252800
 11
5.165160
 21
2.624160
 12
4.550480
 22
2.240920
 13
5.198600
 23
2.612720
  0
POLYLINE
  8
0
  6
CONTINUOUS
 66
     1
 40
0.000000
 41
0.000000
  0
VERTEX
  8
0
  6
CONTINUOUS
 10
4.516600
 20
2.252800
  0
VERTEX
  8
0
  6
CONTINUOUS
 10
5.165160
 20
2.624160
  0
VERTEX
  8
0
  6
CONTINUOUS
 10
5.198600
 20
2.612720
  0
VERTEX
  8
0
  6
CONTINUOUS
 10
4.550480
 20
2.240920
  0
VERTEX
  8
0
  6
CONTINUOUS
 10
4.516600
 20
2.252800
  0
SEQEND
  8
0
  0
SOLID
  8
0
 62
    15
 10
4.550480
 20
2.240920
 11
5.198600
 21
2.612720
 12
4.585680
 22
2.237400
 13
5.233800
 23
2.608760
  0
POLYLINE
  8
0
  6
CONTINUOUS
 66
     1
 40
0.000000
 41
0.000000
  0
VERTEX
  8
0
  6
CONTINUOUS
 10
4.550480
 20
2.240920
  0
VERTEX
  8
0
  6
CONTINUOUS
 10
5.198600
 20
2.612720
  0
VERTEX
  8
0
  6
CONTINUOUS
 10
5.233800
 20
2.608760
  0
VERTEX
  8
0
  6
CONTINUOUS
 10
4.585680
 20
2.237400
  0
VERTEX
  8
0
  6
CONTINUOUS
 10
4.550480
 20
2.240920
  0
SEQEND
  8
0
  0
SOLID
  8
0
 62
    15
 10
4.585680
 20
2.237400
 11
5.233800
 21
2.608760
 12
4.585680
 22
2.155560
 13
5.233800
 23
2.526920
  0
POLYLINE
  8
0
  6
CONTINUOUS
 66
     1
 40
0.000000
 41
0.000000
  0
VERTEX
  8
0
  6
CONTINUOUS
 10
4.585680
 20
2.237400
  0
VERTEX
  8
0
  6
CONTINUOUS
 10
5.233800
 20
2.608760
  0
VERTEX
  8
0
  6
CONTINUOUS
 10
5.233800
 20
2.526920
  0
VERTEX
  8
0
  6
CONTINUOUS
 10
4.585680
 20
2.155560
  0
VERTEX
  8
0
  6
CONTINUOUS
 10
4.585680
 20
2.237400
  0
SEQEND
  8
0
  0
SOLID
  8
0
 62
    15
 10
4.585680
 20
2.155560
 11
5.233800
 21
2.526920
 12
4.623960
 22
2.151160
 13
5.272080
 23
2.522960
  0
POLYLINE
  8
0
  6
CONTINUOUS
 66
     1
 40
0.000000
 41
0.000000
  0
VERTEX
  8
0
  6
CONTINUOUS
 10
4.585680
 20
2.155560
  0
VERTEX
  8
0
  6
CONTINUOUS
 10
5.233800
 20
2.526920
  0
VERTEX
  8
0
  6
CONTINUOUS
 10
5.272080
 20
2.522960
  0
VERTEX
  8
0
  6
CONTINUOUS
 10
4.623960
 20
2.151160
  0
VERTEX
  8
0
  6
CONTINUOUS
 10
4.585680
 20
2.155560
  0
SEQEND
  8
0
  0
SOLID
  8
0
 62
    15
 10
4.623960
 20
2.151160
 11
5.272080
 21
2.522960
 12
4.656080
 22
2.142360
 13
5.304640
 23
2.513720
  0
POLYLINE
  8
0
  6
CONTINUOUS
 66
     1
 40
0.000000
 41
0.000000
  0
VERTEX
  8
0
  6
CONTINUOUS
 10
4.623960
 20
2.151160
  0
VERTEX
  8
0
  6
CONTINUOUS
 10
5.272080
 20
2.522960
  0
VERTEX
  8
0
  6
CONTINUOUS
 10
5.304640
 20
2.513720
  0
VERTEX
  8
0
  6
CONTINUOUS
 10
4.656080
 20
2.142360
  0
VERTEX
  8
0
  6
CONTINUOUS
 10
4.623960
 20
2.151160
  0
SEQEND
  8
0
  0
SOLID
  8
0
 62
    15
 10
4.656080
 20
2.142360
 11
5.304640
 21
2.513720
 12
4.682920
 22
2.129600
 13
5.331040
 23
2.500960
  0
POLYLINE
  8
0
  6
CONTINUOUS
 66
     1
 40
0.000000
 41
0.000000
  0
VERTEX
  8
0
  6
CONTINUOUS
 10
4.656080
 20
2.142360
  0
VERTEX
  8
0
  6
CONTINUOUS
 10
5.304640
 20
2.513720
  0
VERTEX
  8
0
  6
CONTINUOUS
 10
5.331040
 20
2.500960
  0
VERTEX
  8
0
  6
CONTINUOUS
 10
4.682920
 20
2.129600
  0
VERTEX
  8
0
  6
CONTINUOUS
 10
4.656080
 20
2.142360
  0
SEQEND
  8
0
  0
SOLID
  8
0
 62
     7
 10
4.682920
 20
2.129600
 11
5.331040
 21
2.500960
 12
4.704480
 22
2.112880
 13
5.352600
 23
2.484680
  0
POLYLINE
  8
0
  6
CONTINUOUS
 66
     1
 40
0.000000
 41
0.000000
  0
VERTEX
  8
0
  6
CONTINUOUS
 10
4.682920
 20
2.129600
  0
VERTEX
  8
0
  6
CONTINUOUS
 10
5.331040
 20
2.500960
  0
VERTEX
  8
0
  6
CONTINUOUS
 10
5.352600
 20
2.484680
  0
VERTEX
  8
0
  6
CONTINUOUS
 10
4.704480
 20
2.112880
  0
VERTEX
  8
0
  6
CONTINUOUS
 10
4.682920
 20
2.129600
  0
SEQEND
  8
0
  0
SOLID
  8
0
 62
     7
 10
4.704480
 20
2.112880
 11
5.352600
 21
2.484680
 12
4.720760
 22
2.093960
 13
5.368880
 23
2.465320
  0
POLYLINE
  8
0
  6
CONTINUOUS
 66
     1
 40
0.000000
 41
0.000000
  0
VERTEX
  8
0
  6
CONTINUOUS
 10
4.704480
 20
2.112880
  0
VERTEX
  8
0
  6
CONTINUOUS
 10
5.352600
 20
2.484680
  0
VERTEX
  8
0
  6
CONTINUOUS
 10
5.368880
 20
2.465320
  0
VERTEX
  8
0
  6
CONTINUOUS
 10
4.720760
 20
2.093960
  0
VERTEX
  8
0
  6
CONTINUOUS
 10
4.704480
 20
2.112880
  0
SEQEND
  8
0
  0
SOLID
  8
0
 62
     7
 10
4.720760
 20
2.093960
 11
5.368880
 21
2.465320
 12
4.732200
 22
2.072840
 13
5.380320
 23
2.444640
  0
POLYLINE
  8
0
  6
CONTINUOUS
 66
     1
 40
0.000000
 41
0.000000
  0
VERTEX
  8
0
  6
CONTINUOUS
 10
4.720760
 20
2.093960
  0
VERTEX
  8
0
  6
CONTINUOUS
 10
5.368880
 20
2.465320
  0
VERTEX
  8
0
  6
CONTINUOUS
 10
5.380320
 20
2.444640
  0
VERTEX
  8
0
  6
CONTINUOUS
 10
4.732200
 20
2.072840
  0
VERTEX
  8
0
  6
CONTINUOUS
 10
4.720760
 20
2.093960
  0
SEQEND
  8
0
  0
SOLID
  8
0
 62
     7
 10
4.732200
 20
2.072840
 11
5.380320
 21
2.444640
 12
4.738800
 22
2.050400
 13
5.386920
 23
2.422200
  0
POLYLINE
  8
0
  6
CONTINUOUS
 66
     1
 40
0.000000
 41
0.000000
  0
VERTEX
  8
0
  6
CONTINUOUS
 10
4.732200
 20
2.072840
  0
VERTEX
  8
0
  6
CONTINUOUS
 10
5.380320
 20
2.444640
  0
VERTEX
  8
0
  6
CONTINUOUS
 10
5.386920
 20
2.422200
  0
VERTEX
  8
0
  6
CONTINUOUS
 10
4.738800
 20
2.050400
  0
VERTEX
  8
0
  6
CONTINUOUS
 10
4.732200
 20
2.072840
  0
SEQEND
  8
0
  0
SOLID
  8
0
 62
    15
 10
4.738800
 20
2.050400
 11
5.386920
 21
2.422200
 12
4.741000
 22
2.027520
 13
5.389120
 23
2.398880
  0
POLYLINE
  8
0
  6
CONTINUOUS
 66
     1
 40
0.000000
 41
0.000000
  0
VERTEX
  8
0
  6
CONTINUOUS
 10
4.738800
 20
2.050400
  0
VERTEX
  8
0
  6
CONTINUOUS
 10
5.386920
 20
2.422200
  0
VERTEX
  8
0
  6
CONTINUOUS
 10
5.389120
 20
2.398880
  0
VERTEX
  8
0
  6
CONTINUOUS
 10
4.741000
 20
2.027520
  0
VERTEX
  8
0
  6
CONTINUOUS
 10
4.738800
 20
2.050400
  0
SEQEND
  8
0
  0
SOLID
  8
0
 62
    15
 10
4.741000
 20
2.027520
 11
5.389120
 21
2.398880
 12
4.738800
 22
2.004200
 13
5.387360
 23
2.376000
  0
POLYLINE
  8
0
  6
CONTINUOUS
 66
     1
 40
0.000000
 41
0.000000
  0
VERTEX
  8
0
  6
CONTINUOUS
 10
4.741000
 20
2.027520
  0
VERTEX
  8
0
  6
CONTINUOUS
 10
5.389120
 20
2.398880
  0
VERTEX
  8
0
  6
CONTINUOUS
 10
5.387360
 20
2.376000
  0
VERTEX
  8
0
  6
CONTINUOUS
 10
4.738800
 20
2.004200
  0
VERTEX
  8
0
  6
CONTINUOUS
 10
4.741000
 20
2.027520
  0
SEQEND
  8
0
  0
SOLID
  8
0
 62
    15
 10
4.738800
 20
2.004200
 11
5.387360
 21
2.376000
 12
4.732640
 22
1.982200
 13
5.381200
 23
2.353560
  0
POLYLINE
  8
0
  6
CONTINUOUS
 66
     1
 40
0.000000
 41
0.000000
  0
VERTEX
  8
0
  6
CONTINUOUS
 10
4.738800
 20
2.004200
  0
VERTEX
  8
0
  6
CONTINUOUS
 10
5.387360
 20
2.376000
  0
VERTEX
  8
0
  6
CONTINUOUS
 10
5.381200
 20
2.353560
  0
VERTEX
  8
0
  6
CONTINUOUS
 10
4.732640
 20
1.982200
  0
VERTEX
  8
0
  6
CONTINUOUS
 10
4.738800
 20
2.004200
  0
SEQEND
  8
0
  0
SOLID
  8
0
 62
    15
 10
4.732640
 20
1.982200
 11
5.381200
 21
2.353560
 12
4.722960
 22
1.961080
 13
5.371080
 23
2.332880
  0
POLYLINE
  8
0
  6
CONTINUOUS
 66
     1
 40
0.000000
 41
0.000000
  0
VERTEX
  8
0
  6
CONTINUOUS
 10
4.732640
 20
1.982200
  0
VERTEX
  8
0
  6
CONTINUOUS
 10
5.381200
 20
2.353560
  0
VERTEX
  8
0
  6
CONTINUOUS
 10
5.371080
 20
2.332880
  0
VERTEX
  8
0
  6
CONTINUOUS
 10
4.722960
 20
1.961080
  0
VERTEX
  8
0
  6
CONTINUOUS
 10
4.732640
 20
1.982200
  0
SEQEND
  8
0
  0
SOLID
  8
0
 62
    15
 10
4.722960
 20
1.961080
 11
5.371080
 21
2.332880
 12
4.709320
 22
1.942600
 13
5.357440
 23
2.313960
  0
POLYLINE
  8
0
  6
CONTINUOUS
 66
     1
 40
0.000000
 41
0.000000
  0
VERTEX
  8
0
  6
CONTINUOUS
 10
4.722960
 20
1.961080
  0
VERTEX
  8
0
  6
CONTINUOUS
 10
5.371080
 20
2.332880
  0
VERTEX
  8
0
  6
CONTINUOUS
 10
5.357440
 20
2.313960
  0
VERTEX
  8
0
  6
CONTINUOUS
 10
4.709320
 20
1.942600
  0
VERTEX
  8
0
  6
CONTINUOUS
 10
4.722960
 20
1.961080
  0
SEQEND
  8
0
  0
SOLID
  8
0
 62
    15
 10
4.709320
 20
1.942600
 11
5.357440
 21
2.313960
 12
4.692160
 22
1.926320
 13
5.340720
 23
2.298120
  0
POLYLINE
  8
0
  6
CONTINUOUS
 66
     1
 40
0.000000
 41
0.000000
  0
VERTEX
  8
0
  6
CONTINUOUS
 10
4.709320
 20
1.942600
  0
VERTEX
  8
0
  6
CONTINUOUS
 10
5.357440
 20
2.313960
  0
VERTEX
  8
0
  6
CONTINUOUS
 10
5.340720
 20
2.298120
  0
VERTEX
  8
0
  6
CONTINUOUS
 10
4.692160
 20
1.926320
  0
VERTEX
  8
0
  6
CONTINUOUS
 10
4.709320
 20
1.942600
  0
SEQEND
  8
0
  0
SOLID
  8
0
 62
    15
 10
4.401760
 20
2.498320
 11
5.049880
 21
2.870120
 12
4.405720
 22
2.435840
 13
5.053840
 23
2.807200
  0
POLYLINE
  8
0
  6
CONTINUOUS
 66
     1
 40
0.000000
 41
0.000000
  0
VERTEX
  8
0
  6
CONTINUOUS
 10
4.401760
 20
2.498320
  0
VERTEX
  8
0
  6
CONTINUOUS
 10
5.049880
 20
2.870120
  0
VERTEX
  8
0
  6
CONTINUOUS
 10
5.053840
 20
2.807200
  0
VERTEX
  8
0
  6
CONTINUOUS
 10
4.405720
 20
2.435840
  0
VERTEX
  8
0
  6
CONTINUOUS
 10
4.401760
 20
2.498320
  0
SEQEND
  8
0
  0
SOLID
  8
0
 62
    15
 10
4.692160
 20
1.926320
 11
5.340720
 21
2.298120
 12
4.671920
 22
1.914000
 13
5.320480
 23
2.285360
  0
POLYLINE
  8
0
  6
CONTINUOUS
 66
     1
 40
0.000000
 41
0.000000
  0
VERTEX
  8
0
  6
CONTINUOUS
 10
4.692160
 20
1.926320
  0
VERTEX
  8
0
  6
CONTINUOUS
 10
5.340720
 20
2.298120
  0
VERTEX
  8
0
  6
CONTINUOUS
 10
5.320480
 20
2.285360
  0
VERTEX
  8
0
  6
CONTINUOUS
 10
4.671920
 20
1.914000
  0
VERTEX
  8
0
  6
CONTINUOUS
 10
4.692160
 20
1.926320
  0
SEQEND
  8
0
  0
SOLID
  8
0
 62
     7
 10
4.623080
 20
1.824680
 11
5.271200
 21
2.196480
 12
4.676320
 22
1.803120
 13
5.324440
 23
2.174920
  0
POLYLINE
  8
0
  6
CONTINUOUS
 66
     1
 40
0.000000
 41
0.000000
  0
VERTEX
  8
0
  6
CONTINUOUS
 10
4.623080
 20
1.824680
  0
VERTEX
  8
0
  6
CONTINUOUS
 10
5.271200
 20
2.196480
  0
VERTEX
  8
0
  6
CONTINUOUS
 10
5.324440
 20
2.174920
  0
VERTEX
  8
0
  6
CONTINUOUS
 10
4.676320
 20
1.803120
  0
VERTEX
  8
0
  6
CONTINUOUS
 10
4.623080
 20
1.824680
  0
SEQEND
  8
0
  0
SOLID
  8
0
 62
     7
 10
4.676320
 20
1.803120
 11
5.324440
 21
2.174920
 12
4.725160
 22
1.780240
 13
5.373720
 23
2.152040
  0
POLYLINE
  8
0
  6
CONTINUOUS
 66
     1
 40
0.000000
 41
0.000000
  0
VERTEX
  8
0
  6
CONTINUOUS
 10
4.676320
 20
1.803120
  0
VERTEX
  8
0
  6
CONTINUOUS
 10
5.324440
 20
2.174920
  0
VERTEX
  8
0
  6
CONTINUOUS
 10
5.373720
 20
2.152040
  0
VERTEX
  8
0
  6
CONTINUOUS
 10
4.725160
 20
1.780240
  0
VERTEX
  8
0
  6
CONTINUOUS
 10
4.676320
 20
1.803120
  0
SEQEND
  8
0
  0
SOLID
  8
0
 62
     7
 10
4.725160
 20
1.780240
 11
5.373720
 21
2.152040
 12
4.770480
 22
1.756480
 13
5.418600
 23
2.127840
  0
POLYLINE
  8
0
  6
CONTINUOUS
 66
     1
 40
0.000000
 41
0.000000
  0
VERTEX
  8
0
  6
CONTINUOUS
 10
4.725160
 20
1.780240
  0
VERTEX
  8
0
  6
CONTINUOUS
 10
5.373720
 20
2.152040
  0
VERTEX
  8
0
  6
CONTINUOUS
 10
5.418600
 20
2.127840
  0
VERTEX
  8
0
  6
CONTINUOUS
 10
4.770480
 20
1.756480
  0
VERTEX
  8
0
  6
CONTINUOUS
 10
4.725160
 20
1.780240
  0
SEQEND
  8
0
  0
SOLID
  8
0
 62
     7
 10
4.770480
 20
1.756480
 11
5.418600
 21
2.127840
 12
4.811400
 22
1.730960
 13
5.459960
 23
2.102760
  0
POLYLINE
  8
0
  6
CONTINUOUS
 66
     1
 40
0.000000
 41
0.000000
  0
VERTEX
  8
0
  6
CONTINUOUS
 10
4.770480
 20
1.756480
  0
VERTEX
  8
0
  6
CONTINUOUS
 10
5.418600
 20
2.127840
  0
VERTEX
  8
0
  6
CONTINUOUS
 10
5.459960
 20
2.102760
  0
VERTEX
  8
0
  6
CONTINUOUS
 10
4.811400
 20
1.730960
  0
VERTEX
  8
0
  6
CONTINUOUS
 10
4.770480
 20
1.756480
  0
SEQEND
  8
0
  0
SOLID
  8
0
 62
     7
 10
4.811400
 20
1.730960
 11
5.459960
 21
2.102760
 12
4.848800
 22
1.704560
 13
5.497360
 23
2.076360
  0
POLYLINE
  8
0
  6
CONTINUOUS
 66
     1
 40
0.000000
 41
0.000000
  0
VERTEX
  8
0
  6
CONTINUOUS
 10
4.811400
 20
1.730960
  0
VERTEX
  8
0
  6
CONTINUOUS
 10
5.459960
 20
2.102760
  0
VERTEX
  8
0
  6
CONTINUOUS
 10
5.497360
 20
2.076360
  0
VERTEX
  8
0
  6
CONTINUOUS
 10
4.848800
 20
1.704560
  0
VERTEX
  8
0
  6
CONTINUOUS
 10
4.811400
 20
1.730960
  0
SEQEND
  8
0
  0
SOLID
  8
0
 62
     7
 10
4.848800
 20
1.704560
 11
5.497360
 21
2.076360
 12
4.882680
 22
1.677720
 13
5.531240
 23
2.049080
  0
POLYLINE
  8
0
  6
CONTINUOUS
 66
     1
 40
0.000000
 41
0.000000
  0
VERTEX
  8
0
  6
CONTINUOUS
 10
4.848800
 20
1.704560
  0
VERTEX
  8
0
  6
CONTINUOUS
 10
5.497360
 20
2.076360
  0
VERTEX
  8
0
  6
CONTINUOUS
 10
5.531240
 20
2.049080
  0
VERTEX
  8
0
  6
CONTINUOUS
 10
4.882680
 20
1.677720
  0
VERTEX
  8
0
  6
CONTINUOUS
 10
4.848800
 20
1.704560
  0
SEQEND
  8
0
  0
SOLID
  8
0
 62
     7
 10
4.882680
 20
1.677720
 11
5.531240
 21
2.049080
 12
4.939880
 22
1.620960
 13
5.588000
 23
1.992320
  0
POLYLINE
  8
0
  6
CONTINUOUS
 66
     1
 40
0.000000
 41
0.000000
  0
VERTEX
  8
0
  6
CONTINUOUS
 10
4.882680
 20
1.677720
  0
VERTEX
  8
0
  6
CONTINUOUS
 10
5.531240
 20
2.049080
  0
VERTEX
  8
0
  6
CONTINUOUS
 10
5.588000
 20
1.992320
  0
VERTEX
  8
0
  6
CONTINUOUS
 10
4.939880
 20
1.620960
  0
VERTEX
  8
0
  6
CONTINUOUS
 10
4.882680
 20
1.677720
  0
SEQEND
  8
0
  0
SOLID
  8
0
 62
     7
 10
4.939880
 20
1.620960
 11
5.588000
 21
1.992320
 12
4.983440
 22
1.562000
 13
5.632000
 23
1.933800
  0
POLYLINE
  8
0
  6
CONTINUOUS
 66
     1
 40
0.000000
 41
0.000000
  0
VERTEX
  8
0
  6
CONTINUOUS
 10
4.939880
 20
1.620960
  0
VERTEX
  8
0
  6
CONTINUOUS
 10
5.588000
 20
1.992320
  0
VERTEX
  8
0
  6
CONTINUOUS
 10
5.632000
 20
1.933800
  0
VERTEX
  8
0
  6
CONTINUOUS
 10
4.983440
 20
1.562000
  0
VERTEX
  8
0
  6
CONTINUOUS
 10
4.939880
 20
1.620960
  0
SEQEND
  8
0
  0
SOLID
  8
0
 62
     7
 10
4.983440
 20
1.562000
 11
5.632000
 21
1.933800
 12
5.015120
 22
1.502160
 13
5.663680
 23
1.873520
  0
POLYLINE
  8
0
  6
CONTINUOUS
 66
     1
 40
0.000000
 41
0.000000
  0
VERTEX
  8
0
  6
CONTINUOUS
 10
4.983440
 20
1.562000
  0
VERTEX
  8
0
  6
CONTINUOUS
 10
5.632000
 20
1.933800
  0
VERTEX
  8
0
  6
CONTINUOUS
 10
5.663680
 20
1.873520
  0
VERTEX
  8
0
  6
CONTINUOUS
 10
5.015120
 20
1.502160
  0
VERTEX
  8
0
  6
CONTINUOUS
 10
4.983440
 20
1.562000
  0
SEQEND
  8
0
  0
SOLID
  8
0
 62
     7
 10
5.015120
 20
1.502160
 11
5.663680
 21
1.873520
 12
5.035360
 22
1.441880
 13
5.683920
 23
1.813680
  0
POLYLINE
  8
0
  6
CONTINUOUS
 66
     1
 40
0.000000
 41
0.000000
  0
VERTEX
  8
0
  6
CONTINUOUS
 10
5.015120
 20
1.502160
  0
VERTEX
  8
0
  6
CONTINUOUS
 10
5.663680
 20
1.873520
  0
VERTEX
  8
0
  6
CONTINUOUS
 10
5.683920
 20
1.813680
  0
VERTEX
  8
0
  6
CONTINUOUS
 10
5.035360
 20
1.441880
  0
VERTEX
  8
0
  6
CONTINUOUS
 10
5.015120
 20
1.502160
  0
SEQEND
  8
0
  0
SOLID
  8
0
 62
    15
 10
5.035360
 20
1.441880
 11
5.683920
 21
1.813680
 12
5.045480
 22
1.382920
 13
5.694040
 23
1.754280
  0
POLYLINE
  8
0
  6
CONTINUOUS
 66
     1
 40
0.000000
 41
0.000000
  0
VERTEX
  8
0
  6
CONTINUOUS
 10
5.035360
 20
1.441880
  0
VERTEX
  8
0
  6
CONTINUOUS
 10
5.683920
 20
1.813680
  0
VERTEX
  8
0
  6
CONTINUOUS
 10
5.694040
 20
1.754280
  0
VERTEX
  8
0
  6
CONTINUOUS
 10
5.045480
 20
1.382920
  0
VERTEX
  8
0
  6
CONTINUOUS
 10
5.035360
 20
1.441880
  0
SEQEND
  8
0
  0
SOLID
  8
0
 62
    15
 10
5.045480
 20
1.382920
 11
5.694040
 21
1.754280
 12
5.046360
 22
1.325280
 13
5.694920
 23
1.697080
  0
POLYLINE
  8
0
  6
CONTINUOUS
 66
     1
 40
0.000000
 41
0.000000
  0
VERTEX
  8
0
  6
CONTINUOUS
 10
5.045480
 20
1.382920
  0
VERTEX
  8
0
  6
CONTINUOUS
 10
5.694040
 20
1.754280
  0
VERTEX
  8
0
  6
CONTINUOUS
 10
5.694920
 20
1.697080
  0
VERTEX
  8
0
  6
CONTINUOUS
 10
5.046360
 20
1.325280
  0
VERTEX
  8
0
  6
CONTINUOUS
 10
5.045480
 20
1.382920
  0
SEQEND
  8
0
  0
SOLID
  8
0
 62
    15
 10
5.046360
 20
1.325280
 11
5.694920
 21
1.697080
 12
5.038880
 22
1.270720
 13
5.687440
 23
1.642520
  0
POLYLINE
  8
0
  6
CONTINUOUS
 66
     1
 40
0.000000
 41
0.000000
  0
VERTEX
  8
0
  6
CONTINUOUS
 10
5.046360
 20
1.325280
  0
VERTEX
  8
0
  6
CONTINUOUS
 10
5.694920
 20
1.697080
  0
VERTEX
  8
0
  6
CONTINUOUS
 10
5.687440
 20
1.642520
  0
VERTEX
  8
0
  6
CONTINUOUS
 10
5.038880
 20
1.270720
  0
VERTEX
  8
0
  6
CONTINUOUS
 10
5.046360
 20
1.325280
  0
SEQEND
  8
0
  0
SOLID
  8
0
 62
    15
 10
5.038880
 20
1.270720
 11
5.687440
 21
1.642520
 12
5.024360
 22
1.220120
 13
5.672480
 23
1.591480
  0
POLYLINE
  8
0
  6
CONTINUOUS
 66
     1
 40
0.000000
 41
0.000000
  0
VERTEX
  8
0
  6
CONTINUOUS
 10
5.038880
 20
1.270720
  0
VERTEX
  8
0
  6
CONTINUOUS
 10
5.687440
 20
1.642520
  0
VERTEX
  8
0
  6
CONTINUOUS
 10
5.672480
 20
1.591480
  0
VERTEX
  8
0
  6
CONTINUOUS
 10
5.024360
 20
1.220120
  0
VERTEX
  8
0
  6
CONTINUOUS
 10
5.038880
 20
1.270720
  0
SEQEND
  8
0
  0
SOLID
  8
0
 62
    15
 10
5.024360
 20
1.220120
 11
5.672480
 21
1.591480
 12
5.003240
 22
1.173920
 13
5.651360
 23
1.545720
  0
POLYLINE
  8
0
  6
CONTINUOUS
 66
     1
 40
0.000000
 41
0.000000
  0
VERTEX
  8
0
  6
CONTINUOUS
 10
5.024360
 20
1.220120
  0
VERTEX
  8
0
  6
CONTINUOUS
 10
5.672480
 20
1.591480
  0
VERTEX
  8
0
  6
CONTINUOUS
 10
5.651360
 20
1.545720
  0
VERTEX
  8
0
  6
CONTINUOUS
 10
5.003240
 20
1.173920
  0
VERTEX
  8
0
  6
CONTINUOUS
 10
5.024360
 20
1.220120
  0
SEQEND
  8
0
  0
SOLID
  8
0
 62
    15
 10
5.003240
 20
1.173920
 11
5.651360
 21
1.545720
 12
4.976840
 22
1.133880
 13
5.624960
 23
1.505680
  0
POLYLINE
  8
0
  6
CONTINUOUS
 66
     1
 40
0.000000
 41
0.000000
  0
VERTEX
  8
0
  6
CONTINUOUS
 10
5.003240
 20
1.173920
  0
VERTEX
  8
0
  6
CONTINUOUS
 10
5.651360
 20
1.545720
  0
VERTEX
  8
0
  6
CONTINUOUS
 10
5.624960
 20
1.505680
  0
VERTEX
  8
0
  6
CONTINUOUS
 10
4.976840
 20
1.133880
  0
VERTEX
  8
0
  6
CONTINUOUS
 10
5.003240
 20
1.173920
  0
SEQEND
  8
0
  0
SOLID
  8
0
 62
    15
 10
4.976840
 20
1.133880
 11
5.624960
 21
1.505680
 12
4.946040
 22
1.100880
 13
5.594160
 23
1.472240
  0
POLYLINE
  8
0
  6
CONTINUOUS
 66
     1
 40
0.000000
 41
0.000000
  0
VERTEX
  8
0
  6
CONTINUOUS
 10
4.976840
 20
1.133880
  0
VERTEX
  8
0
  6
CONTINUOUS
 10
5.624960
 20
1.505680
  0
VERTEX
  8
0
  6
CONTINUOUS
 10
5.594160
 20
1.472240
  0
VERTEX
  8
0
  6
CONTINUOUS
 10
4.946040
 20
1.100880
  0
VERTEX
  8
0
  6
CONTINUOUS
 10
4.976840
 20
1.133880
  0
SEQEND
  8
0
  0
SOLID
  8
0
 62
    15
 10
4.875200
 20
1.058640
 11
5.523320
 21
1.430000
 12
4.875200
 22
0.988240
 13
5.523320
 23
1.359600
  0
POLYLINE
  8
0
  6
CONTINUOUS
 66
     1
 40
0.000000
 41
0.000000
  0
VERTEX
  8
0
  6
CONTINUOUS
 10
4.875200
 20
1.058640
  0
VERTEX
  8
0
  6
CONTINUOUS
 10
5.523320
 20
1.430000
  0
VERTEX
  8
0
  6
CONTINUOUS
 10
5.523320
 20
1.359600
  0
VERTEX
  8
0
  6
CONTINUOUS
 10
4.875200
 20
0.988240
  0
VERTEX
  8
0
  6
CONTINUOUS
 10
4.875200
 20
1.058640
  0
SEQEND
  8
0
  0
SOLID
  8
0
 62
    15
 10
4.946040
 20
1.100880
 11
5.594160
 21
1.472240
 12
4.911720
 22
1.075360
 13
5.560280
 23
1.446720
  0
POLYLINE
  8
0
  6
CONTINUOUS
 66
     1
 40
0.000000
 41
0.000000
  0
VERTEX
  8
0
  6
CONTINUOUS
 10
4.946040
 20
1.100880
  0
VERTEX
  8
0
  6
CONTINUOUS
 10
5.594160
 20
1.472240
  0
VERTEX
  8
0
  6
CONTINUOUS
 10
5.560280
 20
1.446720
  0
VERTEX
  8
0
  6
CONTINUOUS
 10
4.911720
 20
1.075360
  0
VERTEX
  8
0
  6
CONTINUOUS
 10
4.946040
 20
1.100880
  0
SEQEND
  8
0
  0
SOLID
  8
0
 62
    15
 10
4.275040
 20
2.499640
 11
4.923600
 21
2.871000
 12
4.401760
 22
2.499640
 13
5.049880
 23
2.871000
  0
POLYLINE
  8
0
  6
CONTINUOUS
 66
     1
 40
0.000000
 41
0.000000
  0
VERTEX
  8
0
  6
CONTINUOUS
 10
4.275040
 20
2.499640
  0
VERTEX
  8
0
  6
CONTINUOUS
 10
4.923600
 20
2.871000
  0
VERTEX
  8
0
  6
CONTINUOUS
 10
5.049880
 20
2.871000
  0
VERTEX
  8
0
  6
CONTINUOUS
 10
4.401760
 20
2.499640
  0
VERTEX
  8
0
  6
CONTINUOUS
 10
4.275040
 20
2.499640
  0
SEQEND
  8
0
  0
SOLID
  8
0
 62
    15
 10
4.401760
 20
2.499640
 11
5.049880
 21
2.871000
 12
4.401760
 22
2.498320
 13
5.049880
 23
2.870120
  0
POLYLINE
  8
0
  6
CONTINUOUS
 66
     1
 40
0.000000
 41
0.000000
  0
VERTEX
  8
0
  6
CONTINUOUS
 10
4.401760
 20
2.499640
  0
VERTEX
  8
0
  6
CONTINUOUS
 10
5.049880
 20
2.871000
  0
VERTEX
  8
0
  6
CONTINUOUS
 10
5.049880
 20
2.870120
  0
VERTEX
  8
0
  6
CONTINUOUS
 10
4.401760
 20
2.498320
  0
VERTEX
  8
0
  6
CONTINUOUS
 10
4.401760
 20
2.499640
  0
SEQEND
  8
0
  0
POLYLINE
  8
0
  6
CONTINUOUS
 66
     1
 40
0.000000
 41
0.000000
  0
VERTEX
  8
0
  6
CONTINUOUS
 10
4.401760
 20
2.498320
  0
VERTEX
  8
0
  6
CONTINUOUS
 10
4.405720
 20
2.435840
  0
VERTEX
  8
0
  6
CONTINUOUS
 10
4.416720
 20
2.382160
  0
VERTEX
  8
0
  6
CONTINUOUS
 10
4.434760
 20
2.336840
  0
VERTEX
  8
0
  6
CONTINUOUS
 10
4.457640
 20
2.300320
  0
VERTEX
  8
0
  6
CONTINUOUS
 10
4.485360
 20
2.272600
  0
VERTEX
  8
0
  6
CONTINUOUS
 10
4.516600
 20
2.252800
  0
VERTEX
  8
0
  6
CONTINUOUS
 10
4.550480
 20
2.240920
  0
VERTEX
  8
0
  6
CONTINUOUS
 10
4.585680
 20
2.237400
  0
VERTEX
  8
0
  6
CONTINUOUS
 10
4.585680
 20
2.155560
  0
VERTEX
  8
0
  6
CONTINUOUS
 10
4.623960
 20
2.151160
  0
VERTEX
  8
0
  6
CONTINUOUS
 10
4.656080
 20
2.142360
  0
VERTEX
  8
0
  6
CONTINUOUS
 10
4.682920
 20
2.129600
  0
VERTEX
  8
0
  6
CONTINUOUS
 10
4.704480
 20
2.112880
  0
VERTEX
  8
0
  6
CONTINUOUS
 10
4.720760
 20
2.093960
  0
VERTEX
  8
0
  6
CONTINUOUS
 10
4.732200
 20
2.072840
  0
VERTEX
  8
0
  6
CONTINUOUS
 10
4.738800
 20
2.050400
  0
VERTEX
  8
0
  6
CONTINUOUS
 10
4.741000
 20
2.027520
  0
VERTEX
  8
0
  6
CONTINUOUS
 10
4.738800
 20
2.004200
  0
VERTEX
  8
0
  6
CONTINUOUS
 10
4.732640
 20
1.982200
  0
VERTEX
  8
0
  6
CONTINUOUS
 10
4.722960
 20
1.961080
  0
VERTEX
  8
0
  6
CONTINUOUS
 10
4.709320
 20
1.942600
  0
VERTEX
  8
0
  6
CONTINUOUS
 10
4.692160
 20
1.926320
  0
VERTEX
  8
0
  6
CONTINUOUS
 10
4.671920
 20
1.914000
  0
VERTEX
  8
0
  6
CONTINUOUS
 10
4.649040
 20
1.905640
  0
VERTEX
  8
0
  6
CONTINUOUS
 10
4.623080
 20
1.902120
  0
VERTEX
  8
0
  6
CONTINUOUS
 10
4.623080
 20
1.824680
  0
VERTEX
  8
0
  6
CONTINUOUS
 10
4.676320
 20
1.803120
  0
VERTEX
  8
0
  6
CONTINUOUS
 10
4.725160
 20
1.780240
  0
VERTEX
  8
0
  6
CONTINUOUS
 10
4.770480
 20
1.756480
  0
VERTEX
  8
0
  6
CONTINUOUS
 10
4.811400
 20
1.730960
  0
VERTEX
  8
0
  6
CONTINUOUS
 10
4.848800
 20
1.704560
  0
VERTEX
  8
0
  6
CONTINUOUS
 10
4.882680
 20
1.677720
  0
VERTEX
  8
0
  6
CONTINUOUS
 10
4.939880
 20
1.620960
  0
VERTEX
  8
0
  6
CONTINUOUS
 10
4.983440
 20
1.562000
  0
VERTEX
  8
0
  6
CONTINUOUS
 10
5.015120
 20
1.502160
  0
VERTEX
  8
0
  6
CONTINUOUS
 10
5.035360
 20
1.441880
  0
VERTEX
  8
0
  6
CONTINUOUS
 10
5.045480
 20
1.382920
  0
VERTEX
  8
0
  6
CONTINUOUS
 10
5.046360
 20
1.325280
  0
VERTEX
  8
0
  6
CONTINUOUS
 10
5.038880
 20
1.270720
  0
VERTEX
  8
0
  6
CONTINUOUS
 10
5.024360
 20
1.220120
  0
VERTEX
  8
0
  6
CONTINUOUS
 10
5.003240
 20
1.173920
  0
VERTEX
  8
0
  6
CONTINUOUS
 10
4.976840
 20
1.133880
  0
VERTEX
  8
0
  6
CONTINUOUS
 10
4.946040
 20
1.100880
  0
VERTEX
  8
0
  6
CONTINUOUS
 10
4.911720
 20
1.075360
  0
VERTEX
  8
0
  6
CONTINUOUS
 10
4.875200
 20
1.058640
  0
VERTEX
  8
0
  6
CONTINUOUS
 10
4.875200
 20
0.988240
  0
VERTEX
  8
0
  6
CONTINUOUS
 10
4.275040
 20
0.988240
  0
VERTEX
  8
0
  6
CONTINUOUS
 10
4.275040
 20
2.499640
  0
VERTEX
  8
0
  6
CONTINUOUS
 10
4.401760
 20
2.499640
  0
VERTEX
  8
0
  6
CONTINUOUS
 10
4.401760
 20
2.498320
  0
SEQEND
  8
0
  0
TEXT
  8
0
 10
4.689080
 20
0.773080
 40
0.138152
  1
BA  413
 41
1.000000
  7
SN0
 71
     0
 72
     5
 11
5.278977
 21
0.773080
  0
TEXT
  8
0
 10
4.533320
 20
0.581680
 40
0.138152
  1
3/4" x 1-1/2"
 41
1.000000
  7
SN0
 71
     0
 72
     5
 11
5.433288
 21
0.581680
  0
ENDSEC
  0
EOF
