  0
SECTION
  2
HEADER
  9
$ACADVER
  1
AC1006
  9
$EXTMIN
 10
3.102880
 20
0.409640
  9
$EXTMAX
 10
6.821760
 20
2.019160
  9
$LTSCALE
 40
0.044000
  9
$PDMODE
 70
    35
  9
$PDSIZE
 40
0.035200
  0
ENDSEC
  0
SECTION
  2
TABLES
  0
TABLE
  2
LTYPE
 70
     9
  0
LTYPE
  2
CONTINUOUS
 70
    64
  3
Solid line
 72
    65
 73
     0
 40
0.000000
  0
LTYPE
  2
DASHED
 70
    64
  3
__ __ __ __ __ __ __ __ __ __ __ __ __ __ __
 72
    65
 73
     2
 40
0.000330
 49
0.000220
 49
-0.000110
  0
LTYPE
  2
HIDDEN
 70
    64
  3
 _ _ _ _ _ _ _ _ _ _ _ _ _ _ _ _ _ _ _ _ _ _
 72
    65
 73
     2
 40
0.000165
 49
0.000110
 49
-0.000055
  0
LTYPE
  2
CENTER
 70
    64
  3
____ _ ____ _ ____ _ ____ _ ____ _ ____ _ ____
 72
    65
 73
     4
 40
0.000880
 49
0.000550
 49
-0.000110
 49
0.000110
 49
-0.000110
  0
LTYPE
  2
PHANTOM
 70
    64
  3
_____ _ _ _____ _ _ _____ _ _ _____ _ _ ____
 72
    65
 73
     6
 40
0.001100
 49
0.000550
 49
-0.000110
 49
0.000110
 49
-0.000110
 49
0.000110
 49
-0.000110
  0
LTYPE
  2
DOT
 70
    64
  3
...............................................
 72
    65
 73
     2
 40
0.000110
 49
0.000000
 49
-0.000110
  0
LTYPE
  2
DASHDOT
 70
    64
  3
__ . __ . __ . __ . __ . __ . __ . __ . __ . __
 72
    65
 73
     4
 40
0.000440
 49
0.000220
 49
-0.000110
 49
0.000000
 49
-0.000110
  0
LTYPE
  2
BORDER
 70
    64
  3
__ __ . __ __ . __ __ . __ __ . __ __ . __ __
 72
    65
 73
     6
 40
0.000770
 49
0.000220
 49
-0.000110
 49
0.000220
 49
-0.000110
 49
0.000000
 49
-0.000110
  0
LTYPE
  2
DIVIDE
 70
    64
  3
__ . . __ . . __ . . __ . . __ . . __ . . __
 72
    65
 73
     6
 40
0.000550
 49
0.000220
 49
-0.000110
 49
0.000000
 49
-0.000110
 49
0.000000
 49
-0.000110
  0
LTYPE
  2
DOTDOT
 70
    64
  3
 . .  . .  . .  . .  . .  . . 
 72
    65
 73
     5
 40
0.000242
 49
-0.000110
 49
0.000000
 49
-0.000110
 49
0.000000
 49
-0.000110
  0
ENDTAB
  0
TABLE
  2
STYLE
 70
     2
  0
STYLE
 70
     0
  2
SN0
 40
0.000000
 41
0.000440
 50
0.000000
 71
     0
 42
0.000000
  3
ROMAND
  0
STYLE
 70
    68
  2
SV0
 40
0.000000
 41
0.000440
 50
0.000000
 71
     0
 42
0.000000
  3
ROMAND
  0
ENDTAB
  0
TABLE
  2
LAYER
 70
     3
  0
LAYER
  2
FOREGROUND
 70
    64
 62
     7
  6
CONTINUOUS
  0
LAYER
  2
BACKGROUND
 70
    65
 62
    -7
  6
CONTINUOUS
  0
LAYER
  2
0
 70
    64
 62
     7
  6
CONTINUOUS
  0
ENDTAB
  0
ENDSEC
  0
SECTION
  2
ENTITIES
  0
POLYLINE
  8
FOREGROUND
  6
CONTINUOUS
 66
     1
 40
0.000000
 41
0.000000
  0
VERTEX
  8
FOREGROUND
  6
CONTINUOUS
 10
0.000000
 20
2.428800
  0
VERTEX
  8
FOREGROUND
  6
CONTINUOUS
 10
8.499920
 20
2.428800
  0
VERTEX
  8
FOREGROUND
  6
CONTINUOUS
 10
8.499920
 20
-8.571200
  0
VERTEX
  8
FOREGROUND
  6
CONTINUOUS
 10
0.000000
 20
-8.571200
  0
VERTEX
  8
FOREGROUND
  6
CONTINUOUS
 10
0.000000
 20
2.428800
  0
SEQEND
  8
0
  0
POLYLINE
  8
0
  6
CONTINUOUS
 66
     1
 40
0.014080
 41
0.014080
  0
VERTEX
  8
0
  6
CONTINUOUS
 10
5.940440
 20
0.687720
  0
VERTEX
  8
0
  6
CONTINUOUS
 10
5.982680
 20
0.862840
  0
VERTEX
  8
0
  6
CONTINUOUS
 10
6.005120
 20
0.858880
  0
VERTEX
  8
0
  6
CONTINUOUS
 10
6.026680
 20
0.856680
  0
VERTEX
  8
0
  6
CONTINUOUS
 10
6.048240
 20
0.856680
  0
VERTEX
  8
0
  6
CONTINUOUS
 10
6.090040
 20
0.862400
  0
VERTEX
  8
0
  6
CONTINUOUS
 10
6.110280
 20
0.867680
  0
VERTEX
  8
0
  6
CONTINUOUS
 10
6.130080
 20
0.874720
  0
VERTEX
  8
0
  6
CONTINUOUS
 10
6.167920
 20
0.893200
  0
VERTEX
  8
0
  6
CONTINUOUS
 10
6.204440
 20
0.916960
  0
VERTEX
  8
0
  6
CONTINUOUS
 10
6.238320
 20
0.945120
  0
VERTEX
  8
0
  6
CONTINUOUS
 10
6.285840
 20
0.993960
  0
VERTEX
  8
0
  6
CONTINUOUS
 10
6.328080
 20
1.048080
  0
VERTEX
  8
0
  6
CONTINUOUS
 10
6.365040
 20
1.105280
  0
VERTEX
  8
0
  6
CONTINUOUS
 10
6.405960
 20
1.181400
  0
VERTEX
  8
0
  6
CONTINUOUS
 10
6.435880
 20
1.251360
  0
VERTEX
  8
0
  6
CONTINUOUS
 10
6.468880
 20
1.342440
  0
VERTEX
  8
0
  6
CONTINUOUS
 10
6.497480
 20
1.406240
  0
VERTEX
  8
0
  6
CONTINUOUS
 10
6.532680
 20
1.470040
  0
VERTEX
  8
0
  6
CONTINUOUS
 10
6.552920
 20
1.500840
  0
VERTEX
  8
0
  6
CONTINUOUS
 10
6.574920
 20
1.530760
  0
VERTEX
  8
0
  6
CONTINUOUS
 10
6.610560
 20
1.572560
  0
VERTEX
  8
0
  6
CONTINUOUS
 10
6.651040
 20
1.609960
  0
VERTEX
  8
0
  6
CONTINUOUS
 10
6.695040
 20
1.641200
  0
VERTEX
  8
0
  6
CONTINUOUS
 10
6.726720
 20
1.658360
  0
VERTEX
  8
0
  6
CONTINUOUS
 10
6.760600
 20
1.671560
  0
VERTEX
  8
0
  6
CONTINUOUS
 10
6.796240
 20
1.681240
  0
VERTEX
  8
0
  6
CONTINUOUS
 10
6.814720
 20
1.684320
  0
VERTEX
  8
0
  6
CONTINUOUS
 10
6.814720
 20
1.894640
  0
VERTEX
  8
0
  6
CONTINUOUS
 10
6.815600
 20
1.892880
  0
VERTEX
  8
0
  6
CONTINUOUS
 10
6.499680
 20
1.892880
  0
VERTEX
  8
0
  6
CONTINUOUS
 10
5.758720
 20
1.042360
  0
VERTEX
  8
0
  6
CONTINUOUS
 10
5.758720
 20
0.699160
  0
VERTEX
  8
0
  6
CONTINUOUS
 10
5.941760
 20
0.685520
  0
VERTEX
  8
0
  6
CONTINUOUS
 10
5.940440
 20
0.687720
  0
SEQEND
  8
0
  0
SOLID
  8
0
 62
     7
 10
3.766840
 20
1.341120
 11
4.411000
 21
0.972400
 12
3.731200
 22
1.267640
 13
4.375800
 23
0.898480
  0
POLYLINE
  8
0
  6
CONTINUOUS
 66
     1
 40
0.000000
 41
0.000000
  0
VERTEX
  8
0
  6
CONTINUOUS
 10
3.766840
 20
1.341120
  0
VERTEX
  8
0
  6
CONTINUOUS
 10
4.411000
 20
0.972400
  0
VERTEX
  8
0
  6
CONTINUOUS
 10
4.375800
 20
0.898480
  0
VERTEX
  8
0
  6
CONTINUOUS
 10
3.731200
 20
1.267640
  0
VERTEX
  8
0
  6
CONTINUOUS
 10
3.766840
 20
1.341120
  0
SEQEND
  8
0
  0
SOLID
  8
0
 62
     7
 10
4.159320
 20
2.018280
 11
4.803480
 21
1.649560
 12
4.159320
 22
1.807960
 13
4.803480
 23
1.439240
  0
POLYLINE
  8
0
  6
CONTINUOUS
 66
     1
 40
0.000000
 41
0.000000
  0
VERTEX
  8
0
  6
CONTINUOUS
 10
4.159320
 20
2.018280
  0
VERTEX
  8
0
  6
CONTINUOUS
 10
4.803480
 20
1.649560
  0
VERTEX
  8
0
  6
CONTINUOUS
 10
4.803480
 20
1.439240
  0
VERTEX
  8
0
  6
CONTINUOUS
 10
4.159320
 20
1.807960
  0
VERTEX
  8
0
  6
CONTINUOUS
 10
4.159320
 20
2.018280
  0
SEQEND
  8
0
  0
SOLID
  8
0
 62
    15
 10
4.159320
 20
1.807960
 11
4.803480
 21
1.439240
 12
4.088040
 22
1.789480
 13
4.732200
 23
1.420320
  0
POLYLINE
  8
0
  6
CONTINUOUS
 66
     1
 40
0.000000
 41
0.000000
  0
VERTEX
  8
0
  6
CONTINUOUS
 10
4.159320
 20
1.807960
  0
VERTEX
  8
0
  6
CONTINUOUS
 10
4.803480
 20
1.439240
  0
VERTEX
  8
0
  6
CONTINUOUS
 10
4.732200
 20
1.420320
  0
VERTEX
  8
0
  6
CONTINUOUS
 10
4.088040
 20
1.789480
  0
VERTEX
  8
0
  6
CONTINUOUS
 10
4.159320
 20
1.807960
  0
SEQEND
  8
0
  0
SOLID
  8
0
 62
    15
 10
4.088040
 20
1.789480
 11
4.732200
 21
1.420320
 12
4.024240
 22
1.755600
 13
4.668840
 23
1.386440
  0
POLYLINE
  8
0
  6
CONTINUOUS
 66
     1
 40
0.000000
 41
0.000000
  0
VERTEX
  8
0
  6
CONTINUOUS
 10
4.088040
 20
1.789480
  0
VERTEX
  8
0
  6
CONTINUOUS
 10
4.732200
 20
1.420320
  0
VERTEX
  8
0
  6
CONTINUOUS
 10
4.668840
 20
1.386440
  0
VERTEX
  8
0
  6
CONTINUOUS
 10
4.024240
 20
1.755600
  0
VERTEX
  8
0
  6
CONTINUOUS
 10
4.088040
 20
1.789480
  0
SEQEND
  8
0
  0
SOLID
  8
0
 62
    15
 10
4.024240
 20
1.755600
 11
4.668840
 21
1.386440
 12
3.968360
 22
1.709400
 13
4.612520
 23
1.340680
  0
POLYLINE
  8
0
  6
CONTINUOUS
 66
     1
 40
0.000000
 41
0.000000
  0
VERTEX
  8
0
  6
CONTINUOUS
 10
4.024240
 20
1.755600
  0
VERTEX
  8
0
  6
CONTINUOUS
 10
4.668840
 20
1.386440
  0
VERTEX
  8
0
  6
CONTINUOUS
 10
4.612520
 20
1.340680
  0
VERTEX
  8
0
  6
CONTINUOUS
 10
3.968360
 20
1.709400
  0
VERTEX
  8
0
  6
CONTINUOUS
 10
4.024240
 20
1.755600
  0
SEQEND
  8
0
  0
SOLID
  8
0
 62
    15
 10
3.968360
 20
1.709400
 11
4.612520
 21
1.340680
 12
3.919080
 22
1.654840
 13
4.563680
 23
1.285680
  0
POLYLINE
  8
0
  6
CONTINUOUS
 66
     1
 40
0.000000
 41
0.000000
  0
VERTEX
  8
0
  6
CONTINUOUS
 10
3.968360
 20
1.709400
  0
VERTEX
  8
0
  6
CONTINUOUS
 10
4.612520
 20
1.340680
  0
VERTEX
  8
0
  6
CONTINUOUS
 10
4.563680
 20
1.285680
  0
VERTEX
  8
0
  6
CONTINUOUS
 10
3.919080
 20
1.654840
  0
VERTEX
  8
0
  6
CONTINUOUS
 10
3.968360
 20
1.709400
  0
SEQEND
  8
0
  0
SOLID
  8
0
 62
    15
 10
3.919080
 20
1.654840
 11
4.563680
 21
1.285680
 12
3.877280
 22
1.594120
 13
4.521440
 23
1.224960
  0
POLYLINE
  8
0
  6
CONTINUOUS
 66
     1
 40
0.000000
 41
0.000000
  0
VERTEX
  8
0
  6
CONTINUOUS
 10
3.919080
 20
1.654840
  0
VERTEX
  8
0
  6
CONTINUOUS
 10
4.563680
 20
1.285680
  0
VERTEX
  8
0
  6
CONTINUOUS
 10
4.521440
 20
1.224960
  0
VERTEX
  8
0
  6
CONTINUOUS
 10
3.877280
 20
1.594120
  0
VERTEX
  8
0
  6
CONTINUOUS
 10
3.919080
 20
1.654840
  0
SEQEND
  8
0
  0
SOLID
  8
0
 62
     7
 10
3.877280
 20
1.594120
 11
4.521440
 21
1.224960
 12
3.842080
 22
1.530320
 13
4.486240
 23
1.161160
  0
POLYLINE
  8
0
  6
CONTINUOUS
 66
     1
 40
0.000000
 41
0.000000
  0
VERTEX
  8
0
  6
CONTINUOUS
 10
3.877280
 20
1.594120
  0
VERTEX
  8
0
  6
CONTINUOUS
 10
4.521440
 20
1.224960
  0
VERTEX
  8
0
  6
CONTINUOUS
 10
4.486240
 20
1.161160
  0
VERTEX
  8
0
  6
CONTINUOUS
 10
3.842080
 20
1.530320
  0
VERTEX
  8
0
  6
CONTINUOUS
 10
3.877280
 20
1.594120
  0
SEQEND
  8
0
  0
SOLID
  8
0
 62
     7
 10
3.842080
 20
1.530320
 11
4.486240
 21
1.161160
 12
3.813480
 22
1.466520
 13
4.458080
 23
1.097800
  0
POLYLINE
  8
0
  6
CONTINUOUS
 66
     1
 40
0.000000
 41
0.000000
  0
VERTEX
  8
0
  6
CONTINUOUS
 10
3.842080
 20
1.530320
  0
VERTEX
  8
0
  6
CONTINUOUS
 10
4.486240
 20
1.161160
  0
VERTEX
  8
0
  6
CONTINUOUS
 10
4.458080
 20
1.097800
  0
VERTEX
  8
0
  6
CONTINUOUS
 10
3.813480
 20
1.466520
  0
VERTEX
  8
0
  6
CONTINUOUS
 10
3.842080
 20
1.530320
  0
SEQEND
  8
0
  0
SOLID
  8
0
 62
     7
 10
3.813480
 20
1.466520
 11
4.458080
 21
1.097800
 12
3.791480
 22
1.405800
 13
4.435640
 23
1.037080
  0
POLYLINE
  8
0
  6
CONTINUOUS
 66
     1
 40
0.000000
 41
0.000000
  0
VERTEX
  8
0
  6
CONTINUOUS
 10
3.813480
 20
1.466520
  0
VERTEX
  8
0
  6
CONTINUOUS
 10
4.458080
 20
1.097800
  0
VERTEX
  8
0
  6
CONTINUOUS
 10
4.435640
 20
1.037080
  0
VERTEX
  8
0
  6
CONTINUOUS
 10
3.791480
 20
1.405800
  0
VERTEX
  8
0
  6
CONTINUOUS
 10
3.813480
 20
1.466520
  0
SEQEND
  8
0
  0
SOLID
  8
0
 62
     7
 10
3.791480
 20
1.405800
 11
4.435640
 21
1.037080
 12
3.766840
 22
1.341120
 13
4.411000
 23
0.972400
  0
POLYLINE
  8
0
  6
CONTINUOUS
 66
     1
 40
0.000000
 41
0.000000
  0
VERTEX
  8
0
  6
CONTINUOUS
 10
3.791480
 20
1.405800
  0
VERTEX
  8
0
  6
CONTINUOUS
 10
4.435640
 20
1.037080
  0
VERTEX
  8
0
  6
CONTINUOUS
 10
4.411000
 20
0.972400
  0
VERTEX
  8
0
  6
CONTINUOUS
 10
3.766840
 20
1.341120
  0
VERTEX
  8
0
  6
CONTINUOUS
 10
3.791480
 20
1.405800
  0
SEQEND
  8
0
  0
SOLID
  8
0
 62
    15
 10
3.286360
 20
0.809160
 11
3.930520
 21
0.440440
 12
3.103320
 22
0.822800
 13
3.747920
 23
0.454080
  0
POLYLINE
  8
0
  6
CONTINUOUS
 66
     1
 40
0.000000
 41
0.000000
  0
VERTEX
  8
0
  6
CONTINUOUS
 10
3.286360
 20
0.809160
  0
VERTEX
  8
0
  6
CONTINUOUS
 10
3.930520
 20
0.440440
  0
VERTEX
  8
0
  6
CONTINUOUS
 10
3.747920
 20
0.454080
  0
VERTEX
  8
0
  6
CONTINUOUS
 10
3.103320
 20
0.822800
  0
VERTEX
  8
0
  6
CONTINUOUS
 10
3.286360
 20
0.809160
  0
SEQEND
  8
0
  0
SOLID
  8
0
 62
    15
 10
3.731200
 20
1.267640
 11
4.375800
 21
0.898480
 12
3.685440
 22
1.190640
 13
4.330040
 23
0.821920
  0
POLYLINE
  8
0
  6
CONTINUOUS
 66
     1
 40
0.000000
 41
0.000000
  0
VERTEX
  8
0
  6
CONTINUOUS
 10
3.731200
 20
1.267640
  0
VERTEX
  8
0
  6
CONTINUOUS
 10
4.375800
 20
0.898480
  0
VERTEX
  8
0
  6
CONTINUOUS
 10
4.330040
 20
0.821920
  0
VERTEX
  8
0
  6
CONTINUOUS
 10
3.685440
 20
1.190640
  0
VERTEX
  8
0
  6
CONTINUOUS
 10
3.731200
 20
1.267640
  0
SEQEND
  8
0
  0
SOLID
  8
0
 62
    15
 10
3.685440
 20
1.190640
 11
4.330040
 21
0.821920
 12
3.630440
 22
1.117600
 13
4.274600
 23
0.748880
  0
POLYLINE
  8
0
  6
CONTINUOUS
 66
     1
 40
0.000000
 41
0.000000
  0
VERTEX
  8
0
  6
CONTINUOUS
 10
3.685440
 20
1.190640
  0
VERTEX
  8
0
  6
CONTINUOUS
 10
4.330040
 20
0.821920
  0
VERTEX
  8
0
  6
CONTINUOUS
 10
4.274600
 20
0.748880
  0
VERTEX
  8
0
  6
CONTINUOUS
 10
3.630440
 20
1.117600
  0
VERTEX
  8
0
  6
CONTINUOUS
 10
3.685440
 20
1.190640
  0
SEQEND
  8
0
  0
SOLID
  8
0
 62
    15
 10
3.630440
 20
1.117600
 11
4.274600
 21
0.748880
 12
3.566200
 22
1.054240
 13
4.210360
 23
0.685520
  0
POLYLINE
  8
0
  6
CONTINUOUS
 66
     1
 40
0.000000
 41
0.000000
  0
VERTEX
  8
0
  6
CONTINUOUS
 10
3.630440
 20
1.117600
  0
VERTEX
  8
0
  6
CONTINUOUS
 10
4.274600
 20
0.748880
  0
VERTEX
  8
0
  6
CONTINUOUS
 10
4.210360
 20
0.685520
  0
VERTEX
  8
0
  6
CONTINUOUS
 10
3.566200
 20
1.054240
  0
VERTEX
  8
0
  6
CONTINUOUS
 10
3.630440
 20
1.117600
  0
SEQEND
  8
0
  0
SOLID
  8
0
 62
    15
 10
3.566200
 20
1.054240
 11
4.210360
 21
0.685520
 12
3.531000
 22
1.028280
 13
4.175160
 23
0.659560
  0
POLYLINE
  8
0
  6
CONTINUOUS
 66
     1
 40
0.000000
 41
0.000000
  0
VERTEX
  8
0
  6
CONTINUOUS
 10
3.566200
 20
1.054240
  0
VERTEX
  8
0
  6
CONTINUOUS
 10
4.210360
 20
0.685520
  0
VERTEX
  8
0
  6
CONTINUOUS
 10
4.175160
 20
0.659560
  0
VERTEX
  8
0
  6
CONTINUOUS
 10
3.531000
 20
1.028280
  0
VERTEX
  8
0
  6
CONTINUOUS
 10
3.566200
 20
1.054240
  0
SEQEND
  8
0
  0
SOLID
  8
0
 62
    15
 10
3.531000
 20
1.028280
 11
4.175160
 21
0.659560
 12
3.494040
 22
1.007160
 13
4.138200
 23
0.638440
  0
POLYLINE
  8
0
  6
CONTINUOUS
 66
     1
 40
0.000000
 41
0.000000
  0
VERTEX
  8
0
  6
CONTINUOUS
 10
3.531000
 20
1.028280
  0
VERTEX
  8
0
  6
CONTINUOUS
 10
4.175160
 20
0.659560
  0
VERTEX
  8
0
  6
CONTINUOUS
 10
4.138200
 20
0.638440
  0
VERTEX
  8
0
  6
CONTINUOUS
 10
3.494040
 20
1.007160
  0
VERTEX
  8
0
  6
CONTINUOUS
 10
3.531000
 20
1.028280
  0
SEQEND
  8
0
  0
SOLID
  8
0
 62
    15
 10
3.494040
 20
1.007160
 11
4.138200
 21
0.638440
 12
3.454880
 22
0.991760
 13
4.099040
 23
0.622600
  0
POLYLINE
  8
0
  6
CONTINUOUS
 66
     1
 40
0.000000
 41
0.000000
  0
VERTEX
  8
0
  6
CONTINUOUS
 10
3.494040
 20
1.007160
  0
VERTEX
  8
0
  6
CONTINUOUS
 10
4.138200
 20
0.638440
  0
VERTEX
  8
0
  6
CONTINUOUS
 10
4.099040
 20
0.622600
  0
VERTEX
  8
0
  6
CONTINUOUS
 10
3.454880
 20
0.991760
  0
VERTEX
  8
0
  6
CONTINUOUS
 10
3.494040
 20
1.007160
  0
SEQEND
  8
0
  0
SOLID
  8
0
 62
    15
 10
3.454880
 20
0.991760
 11
4.099040
 21
0.622600
 12
3.413960
 22
0.982520
 13
4.058560
 23
0.613800
  0
POLYLINE
  8
0
  6
CONTINUOUS
 66
     1
 40
0.000000
 41
0.000000
  0
VERTEX
  8
0
  6
CONTINUOUS
 10
3.454880
 20
0.991760
  0
VERTEX
  8
0
  6
CONTINUOUS
 10
4.099040
 20
0.622600
  0
VERTEX
  8
0
  6
CONTINUOUS
 10
4.058560
 20
0.613800
  0
VERTEX
  8
0
  6
CONTINUOUS
 10
3.413960
 20
0.982520
  0
VERTEX
  8
0
  6
CONTINUOUS
 10
3.454880
 20
0.991760
  0
SEQEND
  8
0
  0
SOLID
  8
0
 62
    15
 10
3.413960
 20
0.982520
 11
4.058560
 21
0.613800
 12
3.371720
 22
0.980760
 13
4.015880
 23
0.611600
  0
POLYLINE
  8
0
  6
CONTINUOUS
 66
     1
 40
0.000000
 41
0.000000
  0
VERTEX
  8
0
  6
CONTINUOUS
 10
3.413960
 20
0.982520
  0
VERTEX
  8
0
  6
CONTINUOUS
 10
4.058560
 20
0.613800
  0
VERTEX
  8
0
  6
CONTINUOUS
 10
4.015880
 20
0.611600
  0
VERTEX
  8
0
  6
CONTINUOUS
 10
3.371720
 20
0.980760
  0
VERTEX
  8
0
  6
CONTINUOUS
 10
3.413960
 20
0.982520
  0
SEQEND
  8
0
  0
SOLID
  8
0
 62
    15
 10
3.371720
 20
0.980760
 11
4.015880
 21
0.611600
 12
3.327280
 22
0.986480
 13
3.971880
 23
0.617760
  0
POLYLINE
  8
0
  6
CONTINUOUS
 66
     1
 40
0.000000
 41
0.000000
  0
VERTEX
  8
0
  6
CONTINUOUS
 10
3.371720
 20
0.980760
  0
VERTEX
  8
0
  6
CONTINUOUS
 10
4.015880
 20
0.611600
  0
VERTEX
  8
0
  6
CONTINUOUS
 10
3.971880
 20
0.617760
  0
VERTEX
  8
0
  6
CONTINUOUS
 10
3.327280
 20
0.986480
  0
VERTEX
  8
0
  6
CONTINUOUS
 10
3.371720
 20
0.980760
  0
SEQEND
  8
0
  0
SOLID
  8
0
 62
     7
 10
3.327280
 20
0.986480
 11
3.971880
 21
0.617760
 12
3.285040
 22
0.811360
 13
3.929200
 23
0.442640
  0
POLYLINE
  8
0
  6
CONTINUOUS
 66
     1
 40
0.000000
 41
0.000000
  0
VERTEX
  8
0
  6
CONTINUOUS
 10
3.327280
 20
0.986480
  0
VERTEX
  8
0
  6
CONTINUOUS
 10
3.971880
 20
0.617760
  0
VERTEX
  8
0
  6
CONTINUOUS
 10
3.929200
 20
0.442640
  0
VERTEX
  8
0
  6
CONTINUOUS
 10
3.285040
 20
0.811360
  0
VERTEX
  8
0
  6
CONTINUOUS
 10
3.327280
 20
0.986480
  0
SEQEND
  8
0
  0
SOLID
  8
0
 62
    15
 10
3.285040
 20
0.811360
 11
3.929200
 21
0.442640
 12
3.286360
 22
0.809160
 13
3.930520
 23
0.440440
  0
POLYLINE
  8
0
  6
CONTINUOUS
 66
     1
 40
0.000000
 41
0.000000
  0
VERTEX
  8
0
  6
CONTINUOUS
 10
3.285040
 20
0.811360
  0
VERTEX
  8
0
  6
CONTINUOUS
 10
3.929200
 20
0.442640
  0
VERTEX
  8
0
  6
CONTINUOUS
 10
3.930520
 20
0.440440
  0
VERTEX
  8
0
  6
CONTINUOUS
 10
3.286360
 20
0.809160
  0
VERTEX
  8
0
  6
CONTINUOUS
 10
3.285040
 20
0.811360
  0
SEQEND
  8
0
  0
POLYLINE
  8
0
  6
CONTINUOUS
 66
     1
 40
0.000000
 41
0.000000
  0
VERTEX
  8
0
  6
CONTINUOUS
 10
3.286360
 20
0.809160
  0
VERTEX
  8
0
  6
CONTINUOUS
 10
3.103320
 20
0.822800
  0
VERTEX
  8
0
  6
CONTINUOUS
 10
3.103320
 20
1.166000
  0
VERTEX
  8
0
  6
CONTINUOUS
 10
3.844280
 20
2.016960
  0
VERTEX
  8
0
  6
CONTINUOUS
 10
4.160200
 20
2.016960
  0
VERTEX
  8
0
  6
CONTINUOUS
 10
4.159320
 20
2.018280
  0
VERTEX
  8
0
  6
CONTINUOUS
 10
4.159320
 20
1.807960
  0
VERTEX
  8
0
  6
CONTINUOUS
 10
4.088040
 20
1.789480
  0
VERTEX
  8
0
  6
CONTINUOUS
 10
4.024240
 20
1.755600
  0
VERTEX
  8
0
  6
CONTINUOUS
 10
3.968360
 20
1.709400
  0
VERTEX
  8
0
  6
CONTINUOUS
 10
3.919080
 20
1.654840
  0
VERTEX
  8
0
  6
CONTINUOUS
 10
3.877280
 20
1.594120
  0
VERTEX
  8
0
  6
CONTINUOUS
 10
3.842080
 20
1.530320
  0
VERTEX
  8
0
  6
CONTINUOUS
 10
3.813480
 20
1.466520
  0
VERTEX
  8
0
  6
CONTINUOUS
 10
3.791480
 20
1.405800
  0
VERTEX
  8
0
  6
CONTINUOUS
 10
3.766840
 20
1.341120
  0
VERTEX
  8
0
  6
CONTINUOUS
 10
3.731200
 20
1.267640
  0
VERTEX
  8
0
  6
CONTINUOUS
 10
3.685440
 20
1.190640
  0
VERTEX
  8
0
  6
CONTINUOUS
 10
3.630440
 20
1.117600
  0
VERTEX
  8
0
  6
CONTINUOUS
 10
3.566200
 20
1.054240
  0
VERTEX
  8
0
  6
CONTINUOUS
 10
3.531000
 20
1.028280
  0
VERTEX
  8
0
  6
CONTINUOUS
 10
3.494040
 20
1.007160
  0
VERTEX
  8
0
  6
CONTINUOUS
 10
3.454880
 20
0.991760
  0
VERTEX
  8
0
  6
CONTINUOUS
 10
3.413960
 20
0.982520
  0
VERTEX
  8
0
  6
CONTINUOUS
 10
3.371720
 20
0.980760
  0
VERTEX
  8
0
  6
CONTINUOUS
 10
3.327280
 20
0.986480
  0
VERTEX
  8
0
  6
CONTINUOUS
 10
3.285040
 20
0.811360
  0
VERTEX
  8
0
  6
CONTINUOUS
 10
3.286360
 20
0.809160
  0
SEQEND
  8
0
  0
TEXT
  8
0
 10
4.444000
 20
0.645040
 40
0.138068
  1
BA  411
 41
1.000000
  7
SN0
 71
     0
 72
     5
 11
5.034186
 21
0.645040
  0
TEXT
  8
0
 10
4.242040
 20
0.453640
 40
0.138068
  1
7/16" x 1-5/8"
 41
1.000000
  7
SN0
 71
     0
 72
     5
 11
5.234981
 21
0.453640
  0
ENDSEC
  0
EOF
