  0
SECTION
  2
HEADER
  9
$ACADVER
  1
AC1006
  9
$EXTMIN
 10
2.039400
 20
0.668360
  9
$EXTMAX
 10
7.524440
 20
4.018520
  9
$LTSCALE
 40
0.044000
  9
$PDMODE
 70
    35
  9
$PDSIZE
 40
0.035200
  0
ENDSEC
  0
SECTION
  2
TABLES
  0
TABLE
  2
LTYPE
 70
     9
  0
LTYPE
  2
CONTINUOUS
 70
    64
  3
Solid line
 72
    65
 73
     0
 40
0.000000
  0
LTYPE
  2
DASHED
 70
    64
  3
__ __ __ __ __ __ __ __ __ __ __ __ __ __ __
 72
    65
 73
     2
 40
0.000330
 49
0.000220
 49
-0.000110
  0
LTYPE
  2
HIDDEN
 70
    64
  3
 _ _ _ _ _ _ _ _ _ _ _ _ _ _ _ _ _ _ _ _ _ _
 72
    65
 73
     2
 40
0.000165
 49
0.000110
 49
-0.000055
  0
LTYPE
  2
CENTER
 70
    64
  3
____ _ ____ _ ____ _ ____ _ ____ _ ____ _ ____
 72
    65
 73
     4
 40
0.000880
 49
0.000550
 49
-0.000110
 49
0.000110
 49
-0.000110
  0
LTYPE
  2
PHANTOM
 70
    64
  3
_____ _ _ _____ _ _ _____ _ _ _____ _ _ ____
 72
    65
 73
     6
 40
0.001100
 49
0.000550
 49
-0.000110
 49
0.000110
 49
-0.000110
 49
0.000110
 49
-0.000110
  0
LTYPE
  2
DOT
 70
    64
  3
...............................................
 72
    65
 73
     2
 40
0.000110
 49
0.000000
 49
-0.000110
  0
LTYPE
  2
DASHDOT
 70
    64
  3
__ . __ . __ . __ . __ . __ . __ . __ . __ . __
 72
    65
 73
     4
 40
0.000440
 49
0.000220
 49
-0.000110
 49
0.000000
 49
-0.000110
  0
LTYPE
  2
BORDER
 70
    64
  3
__ __ . __ __ . __ __ . __ __ . __ __ . __ __
 72
    65
 73
     6
 40
0.000770
 49
0.000220
 49
-0.000110
 49
0.000220
 49
-0.000110
 49
0.000000
 49
-0.000110
  0
LTYPE
  2
DIVIDE
 70
    64
  3
__ . . __ . . __ . . __ . . __ . . __ . . __
 72
    65
 73
     6
 40
0.000550
 49
0.000220
 49
-0.000110
 49
0.000000
 49
-0.000110
 49
0.000000
 49
-0.000110
  0
LTYPE
  2
DOTDOT
 70
    64
  3
 . .  . .  . .  . .  . .  . . 
 72
    65
 73
     5
 40
0.000242
 49
-0.000110
 49
0.000000
 49
-0.000110
 49
0.000000
 49
-0.000110
  0
ENDTAB
  0
TABLE
  2
STYLE
 70
     2
  0
STYLE
 70
     0
  2
SN0
 40
0.000000
 41
0.000440
 50
0.000000
 71
     0
 42
0.000000
  3
ROMAND
  0
STYLE
 70
    68
  2
SV0
 40
0.000000
 41
0.000440
 50
0.000000
 71
     0
 42
0.000000
  3
ROMAND
  0
ENDTAB
  0
TABLE
  2
LAYER
 70
     3
  0
LAYER
  2
FOREGROUND
 70
    64
 62
     7
  6
CONTINUOUS
  0
LAYER
  2
BACKGROUND
 70
    65
 62
    -7
  6
CONTINUOUS
  0
LAYER
  2
0
 70
    64
 62
     7
  6
CONTINUOUS
  0
ENDTAB
  0
ENDSEC
  0
SECTION
  2
ENTITIES
  0
POLYLINE
  8
FOREGROUND
  6
CONTINUOUS
 66
     1
 40
0.000000
 41
0.000000
  0
VERTEX
  8
FOREGROUND
  6
CONTINUOUS
 10
0.000000
 20
4.686880
  0
VERTEX
  8
FOREGROUND
  6
CONTINUOUS
 10
8.499920
 20
4.686880
  0
VERTEX
  8
FOREGROUND
  6
CONTINUOUS
 10
8.499920
 20
-6.313120
  0
VERTEX
  8
FOREGROUND
  6
CONTINUOUS
 10
0.000000
 20
-6.313120
  0
VERTEX
  8
FOREGROUND
  6
CONTINUOUS
 10
0.000000
 20
4.686880
  0
SEQEND
  8
0
  0
POLYLINE
  8
0
  6
CONTINUOUS
 66
     1
 40
0.014080
 41
0.014080
  0
VERTEX
  8
0
  6
CONTINUOUS
 10
2.047320
 20
3.815680
  0
VERTEX
  8
0
  6
CONTINUOUS
 10
2.047320
 20
3.250720
  0
VERTEX
  8
0
  6
CONTINUOUS
 10
7.338760
 20
3.250720
  0
VERTEX
  8
0
  6
CONTINUOUS
 10
7.338760
 20
3.483920
  0
VERTEX
  8
0
  6
CONTINUOUS
 10
6.031080
 20
4.011040
  0
VERTEX
  8
0
  6
CONTINUOUS
 10
4.428160
 20
4.011040
  0
VERTEX
  8
0
  6
CONTINUOUS
 10
4.414520
 20
3.815680
  0
VERTEX
  8
0
  6
CONTINUOUS
 10
4.324320
 20
3.815240
  0
VERTEX
  8
0
  6
CONTINUOUS
 10
4.312440
 20
3.842520
  0
VERTEX
  8
0
  6
CONTINUOUS
 10
4.296600
 20
3.867600
  0
VERTEX
  8
0
  6
CONTINUOUS
 10
4.277680
 20
3.890040
  0
VERTEX
  8
0
  6
CONTINUOUS
 10
4.255240
 20
3.908960
  0
VERTEX
  8
0
  6
CONTINUOUS
 10
4.230160
 20
3.924800
  0
VERTEX
  8
0
  6
CONTINUOUS
 10
4.202440
 20
3.936240
  0
VERTEX
  8
0
  6
CONTINUOUS
 10
4.172960
 20
3.943280
  0
VERTEX
  8
0
  6
CONTINUOUS
 10
4.157560
 20
3.945480
  0
VERTEX
  8
0
  6
CONTINUOUS
 10
4.125880
 20
3.945480
  0
VERTEX
  8
0
  6
CONTINUOUS
 10
4.095520
 20
3.940200
  0
VERTEX
  8
0
  6
CONTINUOUS
 10
4.066920
 20
3.930960
  0
VERTEX
  8
0
  6
CONTINUOUS
 10
4.040520
 20
3.917320
  0
VERTEX
  8
0
  6
CONTINUOUS
 10
4.016760
 20
3.899720
  0
VERTEX
  8
0
  6
CONTINUOUS
 10
3.995640
 20
3.879040
  0
VERTEX
  8
0
  6
CONTINUOUS
 10
3.978040
 20
3.855280
  0
VERTEX
  8
0
  6
CONTINUOUS
 10
3.964400
 20
3.828880
  0
VERTEX
  8
0
  6
CONTINUOUS
 10
3.959120
 20
3.814800
  0
VERTEX
  8
0
  6
CONTINUOUS
 10
3.875960
 20
3.817000
  0
VERTEX
  8
0
  6
CONTINUOUS
 10
3.864080
 20
3.844280
  0
VERTEX
  8
0
  6
CONTINUOUS
 10
3.848680
 20
3.869360
  0
VERTEX
  8
0
  6
CONTINUOUS
 10
3.829320
 20
3.891800
  0
VERTEX
  8
0
  6
CONTINUOUS
 10
3.806880
 20
3.910720
  0
VERTEX
  8
0
  6
CONTINUOUS
 10
3.781800
 20
3.926560
  0
VERTEX
  8
0
  6
CONTINUOUS
 10
3.754520
 20
3.938000
  0
VERTEX
  8
0
  6
CONTINUOUS
 10
3.725040
 20
3.945040
  0
VERTEX
  8
0
  6
CONTINUOUS
 10
3.709640
 20
3.947240
  0
VERTEX
  8
0
  6
CONTINUOUS
 10
3.677960
 20
3.947240
  0
VERTEX
  8
0
  6
CONTINUOUS
 10
3.647600
 20
3.941960
  0
VERTEX
  8
0
  6
CONTINUOUS
 10
3.619000
 20
3.932720
  0
VERTEX
  8
0
  6
CONTINUOUS
 10
3.592600
 20
3.919080
  0
VERTEX
  8
0
  6
CONTINUOUS
 10
3.568400
 20
3.901920
  0
VERTEX
  8
0
  6
CONTINUOUS
 10
3.547720
 20
3.881240
  0
VERTEX
  8
0
  6
CONTINUOUS
 10
3.530120
 20
3.857480
  0
VERTEX
  8
0
  6
CONTINUOUS
 10
3.516040
 20
3.831080
  0
VERTEX
  8
0
  6
CONTINUOUS
 10
3.510760
 20
3.817000
  0
VERTEX
  8
0
  6
CONTINUOUS
 10
3.423200
 20
3.816560
  0
VERTEX
  8
0
  6
CONTINUOUS
 10
3.411320
 20
3.843840
  0
VERTEX
  8
0
  6
CONTINUOUS
 10
3.395480
 20
3.868920
  0
VERTEX
  8
0
  6
CONTINUOUS
 10
3.376560
 20
3.891360
  0
VERTEX
  8
0
  6
CONTINUOUS
 10
3.354120
 20
3.910280
  0
VERTEX
  8
0
  6
CONTINUOUS
 10
3.329040
 20
3.926120
  0
VERTEX
  8
0
  6
CONTINUOUS
 10
3.301320
 20
3.937560
  0
VERTEX
  8
0
  6
CONTINUOUS
 10
3.271840
 20
3.944600
  0
VERTEX
  8
0
  6
CONTINUOUS
 10
3.256440
 20
3.946800
  0
VERTEX
  8
0
  6
CONTINUOUS
 10
3.224760
 20
3.946800
  0
VERTEX
  8
0
  6
CONTINUOUS
 10
3.194400
 20
3.941520
  0
VERTEX
  8
0
  6
CONTINUOUS
 10
3.165800
 20
3.932280
  0
VERTEX
  8
0
  6
CONTINUOUS
 10
3.139400
 20
3.918640
  0
VERTEX
  8
0
  6
CONTINUOUS
 10
3.115640
 20
3.901040
  0
VERTEX
  8
0
  6
CONTINUOUS
 10
3.094520
 20
3.880360
  0
VERTEX
  8
0
  6
CONTINUOUS
 10
3.076920
 20
3.856600
  0
VERTEX
  8
0
  6
CONTINUOUS
 10
3.063280
 20
3.830200
  0
VERTEX
  8
0
  6
CONTINUOUS
 10
3.058000
 20
3.816120
  0
VERTEX
  8
0
  6
CONTINUOUS
 10
2.976160
 20
3.817000
  0
VERTEX
  8
0
  6
CONTINUOUS
 10
2.964280
 20
3.844280
  0
VERTEX
  8
0
  6
CONTINUOUS
 10
2.948440
 20
3.869360
  0
VERTEX
  8
0
  6
CONTINUOUS
 10
2.929520
 20
3.891800
  0
VERTEX
  8
0
  6
CONTINUOUS
 10
2.907080
 20
3.910720
  0
VERTEX
  8
0
  6
CONTINUOUS
 10
2.882000
 20
3.926120
  0
VERTEX
  8
0
  6
CONTINUOUS
 10
2.854280
 20
3.938000
  0
VERTEX
  8
0
  6
CONTINUOUS
 10
2.824800
 20
3.945040
  0
VERTEX
  8
0
  6
CONTINUOUS
 10
2.809400
 20
3.947240
  0
VERTEX
  8
0
  6
CONTINUOUS
 10
2.777720
 20
3.947240
  0
VERTEX
  8
0
  6
CONTINUOUS
 10
2.747360
 20
3.941960
  0
VERTEX
  8
0
  6
CONTINUOUS
 10
2.718760
 20
3.932720
  0
VERTEX
  8
0
  6
CONTINUOUS
 10
2.692360
 20
3.919080
  0
VERTEX
  8
0
  6
CONTINUOUS
 10
2.668600
 20
3.901480
  0
VERTEX
  8
0
  6
CONTINUOUS
 10
2.647480
 20
3.880800
  0
VERTEX
  8
0
  6
CONTINUOUS
 10
2.629880
 20
3.857040
  0
VERTEX
  8
0
  6
CONTINUOUS
 10
2.616240
 20
3.830640
  0
VERTEX
  8
0
  6
CONTINUOUS
 10
2.610960
 20
3.816560
  0
VERTEX
  8
0
  6
CONTINUOUS
 10
2.523400
 20
3.816560
  0
VERTEX
  8
0
  6
CONTINUOUS
 10
2.511520
 20
3.843840
  0
VERTEX
  8
0
  6
CONTINUOUS
 10
2.496120
 20
3.868920
  0
VERTEX
  8
0
  6
CONTINUOUS
 10
2.476760
 20
3.891360
  0
VERTEX
  8
0
  6
CONTINUOUS
 10
2.454320
 20
3.910280
  0
VERTEX
  8
0
  6
CONTINUOUS
 10
2.429240
 20
3.926120
  0
VERTEX
  8
0
  6
CONTINUOUS
 10
2.401960
 20
3.937560
  0
VERTEX
  8
0
  6
CONTINUOUS
 10
2.372480
 20
3.944600
  0
VERTEX
  8
0
  6
CONTINUOUS
 10
2.357080
 20
3.946800
  0
VERTEX
  8
0
  6
CONTINUOUS
 10
2.325400
 20
3.946800
  0
VERTEX
  8
0
  6
CONTINUOUS
 10
2.295040
 20
3.941520
  0
VERTEX
  8
0
  6
CONTINUOUS
 10
2.266440
 20
3.932280
  0
VERTEX
  8
0
  6
CONTINUOUS
 10
2.240040
 20
3.918640
  0
VERTEX
  8
0
  6
CONTINUOUS
 10
2.215840
 20
3.901040
  0
VERTEX
  8
0
  6
CONTINUOUS
 10
2.195160
 20
3.880360
  0
VERTEX
  8
0
  6
CONTINUOUS
 10
2.177560
 20
3.856600
  0
VERTEX
  8
0
  6
CONTINUOUS
 10
2.163480
 20
3.830200
  0
VERTEX
  8
0
  6
CONTINUOUS
 10
2.158200
 20
3.816120
  0
VERTEX
  8
0
  6
CONTINUOUS
 10
2.047320
 20
3.815680
  0
SEQEND
  8
0
  0
SOLID
  8
0
 62
    15
 10
3.505920
 20
1.852840
 11
3.513840
 21
2.600840
 12
3.531000
 22
1.837440
 13
3.538920
 23
2.585440
  0
POLYLINE
  8
0
  6
CONTINUOUS
 66
     1
 40
0.000000
 41
0.000000
  0
VERTEX
  8
0
  6
CONTINUOUS
 10
3.505920
 20
1.852840
  0
VERTEX
  8
0
  6
CONTINUOUS
 10
3.513840
 20
2.600840
  0
VERTEX
  8
0
  6
CONTINUOUS
 10
3.538920
 20
2.585440
  0
VERTEX
  8
0
  6
CONTINUOUS
 10
3.531000
 20
1.837440
  0
VERTEX
  8
0
  6
CONTINUOUS
 10
3.505920
 20
1.852840
  0
SEQEND
  8
0
  0
SOLID
  8
0
 62
    15
 10
2.224200
 20
1.742400
 11
2.232120
 21
2.490840
 12
2.335520
 22
1.743280
 13
2.343440
 23
2.491280
  0
POLYLINE
  8
0
  6
CONTINUOUS
 66
     1
 40
0.000000
 41
0.000000
  0
VERTEX
  8
0
  6
CONTINUOUS
 10
2.224200
 20
1.742400
  0
VERTEX
  8
0
  6
CONTINUOUS
 10
2.232120
 20
2.490840
  0
VERTEX
  8
0
  6
CONTINUOUS
 10
2.343440
 20
2.491280
  0
VERTEX
  8
0
  6
CONTINUOUS
 10
2.335520
 20
1.743280
  0
VERTEX
  8
0
  6
CONTINUOUS
 10
2.224200
 20
1.742400
  0
SEQEND
  8
0
  0
SOLID
  8
0
 62
    15
 10
2.362800
 20
1.795640
 11
2.370720
 21
2.544080
 12
2.382160
 22
1.818080
 13
2.390080
 23
2.566520
  0
POLYLINE
  8
0
  6
CONTINUOUS
 66
     1
 40
0.000000
 41
0.000000
  0
VERTEX
  8
0
  6
CONTINUOUS
 10
2.362800
 20
1.795640
  0
VERTEX
  8
0
  6
CONTINUOUS
 10
2.370720
 20
2.544080
  0
VERTEX
  8
0
  6
CONTINUOUS
 10
2.390080
 20
2.566520
  0
VERTEX
  8
0
  6
CONTINUOUS
 10
2.382160
 20
1.818080
  0
VERTEX
  8
0
  6
CONTINUOUS
 10
2.362800
 20
1.795640
  0
SEQEND
  8
0
  0
SOLID
  8
0
 62
    15
 10
2.382160
 20
1.818080
 11
2.390080
 21
2.566520
 12
2.404600
 22
1.837000
 13
2.412520
 23
2.585440
  0
POLYLINE
  8
0
  6
CONTINUOUS
 66
     1
 40
0.000000
 41
0.000000
  0
VERTEX
  8
0
  6
CONTINUOUS
 10
2.382160
 20
1.818080
  0
VERTEX
  8
0
  6
CONTINUOUS
 10
2.390080
 20
2.566520
  0
VERTEX
  8
0
  6
CONTINUOUS
 10
2.412520
 20
2.585440
  0
VERTEX
  8
0
  6
CONTINUOUS
 10
2.404600
 20
1.837000
  0
VERTEX
  8
0
  6
CONTINUOUS
 10
2.382160
 20
1.818080
  0
SEQEND
  8
0
  0
SOLID
  8
0
 62
    15
 10
2.404600
 20
1.837000
 11
2.412520
 21
2.585440
 12
2.429680
 22
1.852840
 13
2.437600
 23
2.600840
  0
POLYLINE
  8
0
  6
CONTINUOUS
 66
     1
 40
0.000000
 41
0.000000
  0
VERTEX
  8
0
  6
CONTINUOUS
 10
2.404600
 20
1.837000
  0
VERTEX
  8
0
  6
CONTINUOUS
 10
2.412520
 20
2.585440
  0
VERTEX
  8
0
  6
CONTINUOUS
 10
2.437600
 20
2.600840
  0
VERTEX
  8
0
  6
CONTINUOUS
 10
2.429680
 20
1.852840
  0
VERTEX
  8
0
  6
CONTINUOUS
 10
2.404600
 20
1.837000
  0
SEQEND
  8
0
  0
SOLID
  8
0
 62
    15
 10
2.429680
 20
1.852840
 11
2.437600
 21
2.600840
 12
2.457400
 22
1.864280
 13
2.465320
 23
2.612720
  0
POLYLINE
  8
0
  6
CONTINUOUS
 66
     1
 40
0.000000
 41
0.000000
  0
VERTEX
  8
0
  6
CONTINUOUS
 10
2.429680
 20
1.852840
  0
VERTEX
  8
0
  6
CONTINUOUS
 10
2.437600
 20
2.600840
  0
VERTEX
  8
0
  6
CONTINUOUS
 10
2.465320
 20
2.612720
  0
VERTEX
  8
0
  6
CONTINUOUS
 10
2.457400
 20
1.864280
  0
VERTEX
  8
0
  6
CONTINUOUS
 10
2.429680
 20
1.852840
  0
SEQEND
  8
0
  0
SOLID
  8
0
 62
    15
 10
2.457400
 20
1.864280
 11
2.465320
 21
2.612720
 12
2.486880
 22
1.871760
 13
2.494800
 23
2.619760
  0
POLYLINE
  8
0
  6
CONTINUOUS
 66
     1
 40
0.000000
 41
0.000000
  0
VERTEX
  8
0
  6
CONTINUOUS
 10
2.457400
 20
1.864280
  0
VERTEX
  8
0
  6
CONTINUOUS
 10
2.465320
 20
2.612720
  0
VERTEX
  8
0
  6
CONTINUOUS
 10
2.494800
 20
2.619760
  0
VERTEX
  8
0
  6
CONTINUOUS
 10
2.486880
 20
1.871760
  0
VERTEX
  8
0
  6
CONTINUOUS
 10
2.457400
 20
1.864280
  0
SEQEND
  8
0
  0
SOLID
  8
0
 62
    15
 10
2.486880
 20
1.871760
 11
2.494800
 21
2.619760
 12
2.518120
 22
1.873960
 13
2.526040
 23
2.622400
  0
POLYLINE
  8
0
  6
CONTINUOUS
 66
     1
 40
0.000000
 41
0.000000
  0
VERTEX
  8
0
  6
CONTINUOUS
 10
2.486880
 20
1.871760
  0
VERTEX
  8
0
  6
CONTINUOUS
 10
2.494800
 20
2.619760
  0
VERTEX
  8
0
  6
CONTINUOUS
 10
2.526040
 20
2.622400
  0
VERTEX
  8
0
  6
CONTINUOUS
 10
2.518120
 20
1.873960
  0
VERTEX
  8
0
  6
CONTINUOUS
 10
2.486880
 20
1.871760
  0
SEQEND
  8
0
  0
SOLID
  8
0
 62
    15
 10
2.518120
 20
1.873960
 11
2.526040
 21
2.622400
 12
2.549360
 22
1.871760
 13
2.557280
 23
2.619760
  0
POLYLINE
  8
0
  6
CONTINUOUS
 66
     1
 40
0.000000
 41
0.000000
  0
VERTEX
  8
0
  6
CONTINUOUS
 10
2.518120
 20
1.873960
  0
VERTEX
  8
0
  6
CONTINUOUS
 10
2.526040
 20
2.622400
  0
VERTEX
  8
0
  6
CONTINUOUS
 10
2.557280
 20
2.619760
  0
VERTEX
  8
0
  6
CONTINUOUS
 10
2.549360
 20
1.871760
  0
VERTEX
  8
0
  6
CONTINUOUS
 10
2.518120
 20
1.873960
  0
SEQEND
  8
0
  0
SOLID
  8
0
 62
    15
 10
2.549360
 20
1.871760
 11
2.557280
 21
2.619760
 12
2.578840
 22
1.864280
 13
2.586760
 23
2.612720
  0
POLYLINE
  8
0
  6
CONTINUOUS
 66
     1
 40
0.000000
 41
0.000000
  0
VERTEX
  8
0
  6
CONTINUOUS
 10
2.549360
 20
1.871760
  0
VERTEX
  8
0
  6
CONTINUOUS
 10
2.557280
 20
2.619760
  0
VERTEX
  8
0
  6
CONTINUOUS
 10
2.586760
 20
2.612720
  0
VERTEX
  8
0
  6
CONTINUOUS
 10
2.578840
 20
1.864280
  0
VERTEX
  8
0
  6
CONTINUOUS
 10
2.549360
 20
1.871760
  0
SEQEND
  8
0
  0
SOLID
  8
0
 62
    15
 10
2.578840
 20
1.864280
 11
2.586760
 21
2.612720
 12
2.606120
 22
1.852840
 13
2.614480
 23
2.601280
  0
POLYLINE
  8
0
  6
CONTINUOUS
 66
     1
 40
0.000000
 41
0.000000
  0
VERTEX
  8
0
  6
CONTINUOUS
 10
2.578840
 20
1.864280
  0
VERTEX
  8
0
  6
CONTINUOUS
 10
2.586760
 20
2.612720
  0
VERTEX
  8
0
  6
CONTINUOUS
 10
2.614480
 20
2.601280
  0
VERTEX
  8
0
  6
CONTINUOUS
 10
2.606120
 20
1.852840
  0
VERTEX
  8
0
  6
CONTINUOUS
 10
2.578840
 20
1.864280
  0
SEQEND
  8
0
  0
SOLID
  8
0
 62
    15
 10
2.606120
 20
1.852840
 11
2.614480
 21
2.601280
 12
2.631640
 22
1.837440
 13
2.639560
 23
2.585440
  0
POLYLINE
  8
0
  6
CONTINUOUS
 66
     1
 40
0.000000
 41
0.000000
  0
VERTEX
  8
0
  6
CONTINUOUS
 10
2.606120
 20
1.852840
  0
VERTEX
  8
0
  6
CONTINUOUS
 10
2.614480
 20
2.601280
  0
VERTEX
  8
0
  6
CONTINUOUS
 10
2.639560
 20
2.585440
  0
VERTEX
  8
0
  6
CONTINUOUS
 10
2.631640
 20
1.837440
  0
VERTEX
  8
0
  6
CONTINUOUS
 10
2.606120
 20
1.852840
  0
SEQEND
  8
0
  0
SOLID
  8
0
 62
    15
 10
2.631640
 20
1.837440
 11
2.639560
 21
2.585440
 12
2.653640
 22
1.818080
 13
2.662000
 23
2.566520
  0
POLYLINE
  8
0
  6
CONTINUOUS
 66
     1
 40
0.000000
 41
0.000000
  0
VERTEX
  8
0
  6
CONTINUOUS
 10
2.631640
 20
1.837440
  0
VERTEX
  8
0
  6
CONTINUOUS
 10
2.639560
 20
2.585440
  0
VERTEX
  8
0
  6
CONTINUOUS
 10
2.662000
 20
2.566520
  0
VERTEX
  8
0
  6
CONTINUOUS
 10
2.653640
 20
1.818080
  0
VERTEX
  8
0
  6
CONTINUOUS
 10
2.631640
 20
1.837440
  0
SEQEND
  8
0
  0
SOLID
  8
0
 62
    15
 10
2.653640
 20
1.818080
 11
2.662000
 21
2.566520
 12
2.673000
 22
1.796080
 13
2.681360
 23
2.544080
  0
POLYLINE
  8
0
  6
CONTINUOUS
 66
     1
 40
0.000000
 41
0.000000
  0
VERTEX
  8
0
  6
CONTINUOUS
 10
2.653640
 20
1.818080
  0
VERTEX
  8
0
  6
CONTINUOUS
 10
2.662000
 20
2.566520
  0
VERTEX
  8
0
  6
CONTINUOUS
 10
2.681360
 20
2.544080
  0
VERTEX
  8
0
  6
CONTINUOUS
 10
2.673000
 20
1.796080
  0
VERTEX
  8
0
  6
CONTINUOUS
 10
2.653640
 20
1.818080
  0
SEQEND
  8
0
  0
SOLID
  8
0
 62
    15
 10
2.673000
 20
1.796080
 11
2.681360
 21
2.544080
 12
2.688840
 22
1.771000
 13
2.696760
 23
2.519000
  0
POLYLINE
  8
0
  6
CONTINUOUS
 66
     1
 40
0.000000
 41
0.000000
  0
VERTEX
  8
0
  6
CONTINUOUS
 10
2.673000
 20
1.796080
  0
VERTEX
  8
0
  6
CONTINUOUS
 10
2.681360
 20
2.544080
  0
VERTEX
  8
0
  6
CONTINUOUS
 10
2.696760
 20
2.519000
  0
VERTEX
  8
0
  6
CONTINUOUS
 10
2.688840
 20
1.771000
  0
VERTEX
  8
0
  6
CONTINUOUS
 10
2.673000
 20
1.796080
  0
SEQEND
  8
0
  0
SOLID
  8
0
 62
    15
 10
2.688840
 20
1.771000
 11
2.696760
 21
2.519000
 12
2.700720
 22
1.743280
 13
2.708640
 23
2.491720
  0
POLYLINE
  8
0
  6
CONTINUOUS
 66
     1
 40
0.000000
 41
0.000000
  0
VERTEX
  8
0
  6
CONTINUOUS
 10
2.688840
 20
1.771000
  0
VERTEX
  8
0
  6
CONTINUOUS
 10
2.696760
 20
2.519000
  0
VERTEX
  8
0
  6
CONTINUOUS
 10
2.708640
 20
2.491720
  0
VERTEX
  8
0
  6
CONTINUOUS
 10
2.700720
 20
1.743280
  0
VERTEX
  8
0
  6
CONTINUOUS
 10
2.688840
 20
1.771000
  0
SEQEND
  8
0
  0
SOLID
  8
0
 62
    15
 10
2.700720
 20
1.743280
 11
2.708640
 21
2.491720
 12
2.787840
 22
1.743280
 13
2.796200
 23
2.491280
  0
POLYLINE
  8
0
  6
CONTINUOUS
 66
     1
 40
0.000000
 41
0.000000
  0
VERTEX
  8
0
  6
CONTINUOUS
 10
2.700720
 20
1.743280
  0
VERTEX
  8
0
  6
CONTINUOUS
 10
2.708640
 20
2.491720
  0
VERTEX
  8
0
  6
CONTINUOUS
 10
2.796200
 20
2.491280
  0
VERTEX
  8
0
  6
CONTINUOUS
 10
2.787840
 20
1.743280
  0
VERTEX
  8
0
  6
CONTINUOUS
 10
2.700720
 20
1.743280
  0
SEQEND
  8
0
  0
SOLID
  8
0
 62
    15
 10
2.787840
 20
1.743280
 11
2.796200
 21
2.491280
 12
2.799720
 22
1.770560
 13
2.807640
 23
2.519000
  0
POLYLINE
  8
0
  6
CONTINUOUS
 66
     1
 40
0.000000
 41
0.000000
  0
VERTEX
  8
0
  6
CONTINUOUS
 10
2.787840
 20
1.743280
  0
VERTEX
  8
0
  6
CONTINUOUS
 10
2.796200
 20
2.491280
  0
VERTEX
  8
0
  6
CONTINUOUS
 10
2.807640
 20
2.519000
  0
VERTEX
  8
0
  6
CONTINUOUS
 10
2.799720
 20
1.770560
  0
VERTEX
  8
0
  6
CONTINUOUS
 10
2.787840
 20
1.743280
  0
SEQEND
  8
0
  0
SOLID
  8
0
 62
    15
 10
2.799720
 20
1.770560
 11
2.807640
 21
2.519000
 12
2.815560
 22
1.795640
 13
2.823480
 23
2.544080
  0
POLYLINE
  8
0
  6
CONTINUOUS
 66
     1
 40
0.000000
 41
0.000000
  0
VERTEX
  8
0
  6
CONTINUOUS
 10
2.799720
 20
1.770560
  0
VERTEX
  8
0
  6
CONTINUOUS
 10
2.807640
 20
2.519000
  0
VERTEX
  8
0
  6
CONTINUOUS
 10
2.823480
 20
2.544080
  0
VERTEX
  8
0
  6
CONTINUOUS
 10
2.815560
 20
1.795640
  0
VERTEX
  8
0
  6
CONTINUOUS
 10
2.799720
 20
1.770560
  0
SEQEND
  8
0
  0
SOLID
  8
0
 62
    15
 10
2.815560
 20
1.795640
 11
2.823480
 21
2.544080
 12
2.834480
 22
1.818080
 13
2.842840
 23
2.566520
  0
POLYLINE
  8
0
  6
CONTINUOUS
 66
     1
 40
0.000000
 41
0.000000
  0
VERTEX
  8
0
  6
CONTINUOUS
 10
2.815560
 20
1.795640
  0
VERTEX
  8
0
  6
CONTINUOUS
 10
2.823480
 20
2.544080
  0
VERTEX
  8
0
  6
CONTINUOUS
 10
2.842840
 20
2.566520
  0
VERTEX
  8
0
  6
CONTINUOUS
 10
2.834480
 20
1.818080
  0
VERTEX
  8
0
  6
CONTINUOUS
 10
2.815560
 20
1.795640
  0
SEQEND
  8
0
  0
SOLID
  8
0
 62
    15
 10
2.834480
 20
1.818080
 11
2.842840
 21
2.566520
 12
2.856920
 22
1.837440
 13
2.865280
 23
2.585440
  0
POLYLINE
  8
0
  6
CONTINUOUS
 66
     1
 40
0.000000
 41
0.000000
  0
VERTEX
  8
0
  6
CONTINUOUS
 10
2.834480
 20
1.818080
  0
VERTEX
  8
0
  6
CONTINUOUS
 10
2.842840
 20
2.566520
  0
VERTEX
  8
0
  6
CONTINUOUS
 10
2.865280
 20
2.585440
  0
VERTEX
  8
0
  6
CONTINUOUS
 10
2.856920
 20
1.837440
  0
VERTEX
  8
0
  6
CONTINUOUS
 10
2.834480
 20
1.818080
  0
SEQEND
  8
0
  0
SOLID
  8
0
 62
    15
 10
2.856920
 20
1.837440
 11
2.865280
 21
2.585440
 12
2.882440
 22
1.852840
 13
2.890360
 23
2.601280
  0
POLYLINE
  8
0
  6
CONTINUOUS
 66
     1
 40
0.000000
 41
0.000000
  0
VERTEX
  8
0
  6
CONTINUOUS
 10
2.856920
 20
1.837440
  0
VERTEX
  8
0
  6
CONTINUOUS
 10
2.865280
 20
2.585440
  0
VERTEX
  8
0
  6
CONTINUOUS
 10
2.890360
 20
2.601280
  0
VERTEX
  8
0
  6
CONTINUOUS
 10
2.882440
 20
1.852840
  0
VERTEX
  8
0
  6
CONTINUOUS
 10
2.856920
 20
1.837440
  0
SEQEND
  8
0
  0
SOLID
  8
0
 62
    15
 10
2.882440
 20
1.852840
 11
2.890360
 21
2.601280
 12
2.909720
 22
1.864720
 13
2.918080
 23
2.612720
  0
POLYLINE
  8
0
  6
CONTINUOUS
 66
     1
 40
0.000000
 41
0.000000
  0
VERTEX
  8
0
  6
CONTINUOUS
 10
2.882440
 20
1.852840
  0
VERTEX
  8
0
  6
CONTINUOUS
 10
2.890360
 20
2.601280
  0
VERTEX
  8
0
  6
CONTINUOUS
 10
2.918080
 20
2.612720
  0
VERTEX
  8
0
  6
CONTINUOUS
 10
2.909720
 20
1.864720
  0
VERTEX
  8
0
  6
CONTINUOUS
 10
2.882440
 20
1.852840
  0
SEQEND
  8
0
  0
SOLID
  8
0
 62
    15
 10
2.909720
 20
1.864720
 11
2.918080
 21
2.612720
 12
2.939200
 22
1.871760
 13
2.947560
 23
2.620200
  0
POLYLINE
  8
0
  6
CONTINUOUS
 66
     1
 40
0.000000
 41
0.000000
  0
VERTEX
  8
0
  6
CONTINUOUS
 10
2.909720
 20
1.864720
  0
VERTEX
  8
0
  6
CONTINUOUS
 10
2.918080
 20
2.612720
  0
VERTEX
  8
0
  6
CONTINUOUS
 10
2.947560
 20
2.620200
  0
VERTEX
  8
0
  6
CONTINUOUS
 10
2.939200
 20
1.871760
  0
VERTEX
  8
0
  6
CONTINUOUS
 10
2.909720
 20
1.864720
  0
SEQEND
  8
0
  0
SOLID
  8
0
 62
    15
 10
2.939200
 20
1.871760
 11
2.947560
 21
2.620200
 12
2.970440
 22
1.874400
 13
2.978800
 23
2.622400
  0
POLYLINE
  8
0
  6
CONTINUOUS
 66
     1
 40
0.000000
 41
0.000000
  0
VERTEX
  8
0
  6
CONTINUOUS
 10
2.939200
 20
1.871760
  0
VERTEX
  8
0
  6
CONTINUOUS
 10
2.947560
 20
2.620200
  0
VERTEX
  8
0
  6
CONTINUOUS
 10
2.978800
 20
2.622400
  0
VERTEX
  8
0
  6
CONTINUOUS
 10
2.970440
 20
1.874400
  0
VERTEX
  8
0
  6
CONTINUOUS
 10
2.939200
 20
1.871760
  0
SEQEND
  8
0
  0
SOLID
  8
0
 62
    15
 10
2.970440
 20
1.874400
 11
2.978800
 21
2.622400
 12
3.001680
 22
1.871760
 13
3.009600
 23
2.620200
  0
POLYLINE
  8
0
  6
CONTINUOUS
 66
     1
 40
0.000000
 41
0.000000
  0
VERTEX
  8
0
  6
CONTINUOUS
 10
2.970440
 20
1.874400
  0
VERTEX
  8
0
  6
CONTINUOUS
 10
2.978800
 20
2.622400
  0
VERTEX
  8
0
  6
CONTINUOUS
 10
3.009600
 20
2.620200
  0
VERTEX
  8
0
  6
CONTINUOUS
 10
3.001680
 20
1.871760
  0
VERTEX
  8
0
  6
CONTINUOUS
 10
2.970440
 20
1.874400
  0
SEQEND
  8
0
  0
SOLID
  8
0
 62
    15
 10
3.001680
 20
1.871760
 11
3.009600
 21
2.620200
 12
3.031160
 22
1.864720
 13
3.039080
 23
2.612720
  0
POLYLINE
  8
0
  6
CONTINUOUS
 66
     1
 40
0.000000
 41
0.000000
  0
VERTEX
  8
0
  6
CONTINUOUS
 10
3.001680
 20
1.871760
  0
VERTEX
  8
0
  6
CONTINUOUS
 10
3.009600
 20
2.620200
  0
VERTEX
  8
0
  6
CONTINUOUS
 10
3.039080
 20
2.612720
  0
VERTEX
  8
0
  6
CONTINUOUS
 10
3.031160
 20
1.864720
  0
VERTEX
  8
0
  6
CONTINUOUS
 10
3.001680
 20
1.871760
  0
SEQEND
  8
0
  0
SOLID
  8
0
 62
    15
 10
3.031160
 20
1.864720
 11
3.039080
 21
2.612720
 12
3.058880
 22
1.852840
 13
3.066800
 23
2.601280
  0
POLYLINE
  8
0
  6
CONTINUOUS
 66
     1
 40
0.000000
 41
0.000000
  0
VERTEX
  8
0
  6
CONTINUOUS
 10
3.031160
 20
1.864720
  0
VERTEX
  8
0
  6
CONTINUOUS
 10
3.039080
 20
2.612720
  0
VERTEX
  8
0
  6
CONTINUOUS
 10
3.066800
 20
2.601280
  0
VERTEX
  8
0
  6
CONTINUOUS
 10
3.058880
 20
1.852840
  0
VERTEX
  8
0
  6
CONTINUOUS
 10
3.031160
 20
1.864720
  0
SEQEND
  8
0
  0
SOLID
  8
0
 62
    15
 10
3.058880
 20
1.852840
 11
3.066800
 21
2.601280
 12
3.083960
 22
1.837440
 13
3.091880
 23
2.585440
  0
POLYLINE
  8
0
  6
CONTINUOUS
 66
     1
 40
0.000000
 41
0.000000
  0
VERTEX
  8
0
  6
CONTINUOUS
 10
3.058880
 20
1.852840
  0
VERTEX
  8
0
  6
CONTINUOUS
 10
3.066800
 20
2.601280
  0
VERTEX
  8
0
  6
CONTINUOUS
 10
3.091880
 20
2.585440
  0
VERTEX
  8
0
  6
CONTINUOUS
 10
3.083960
 20
1.837440
  0
VERTEX
  8
0
  6
CONTINUOUS
 10
3.058880
 20
1.852840
  0
SEQEND
  8
0
  0
SOLID
  8
0
 62
    15
 10
3.083960
 20
1.837440
 11
3.091880
 21
2.585440
 12
3.106400
 22
1.818520
 13
3.114320
 23
2.566520
  0
POLYLINE
  8
0
  6
CONTINUOUS
 66
     1
 40
0.000000
 41
0.000000
  0
VERTEX
  8
0
  6
CONTINUOUS
 10
3.083960
 20
1.837440
  0
VERTEX
  8
0
  6
CONTINUOUS
 10
3.091880
 20
2.585440
  0
VERTEX
  8
0
  6
CONTINUOUS
 10
3.114320
 20
2.566520
  0
VERTEX
  8
0
  6
CONTINUOUS
 10
3.106400
 20
1.818520
  0
VERTEX
  8
0
  6
CONTINUOUS
 10
3.083960
 20
1.837440
  0
SEQEND
  8
0
  0
SOLID
  8
0
 62
    15
 10
3.106400
 20
1.818520
 11
3.114320
 21
2.566520
 12
3.125760
 22
1.796080
 13
3.133680
 23
2.544520
  0
POLYLINE
  8
0
  6
CONTINUOUS
 66
     1
 40
0.000000
 41
0.000000
  0
VERTEX
  8
0
  6
CONTINUOUS
 10
3.106400
 20
1.818520
  0
VERTEX
  8
0
  6
CONTINUOUS
 10
3.114320
 20
2.566520
  0
VERTEX
  8
0
  6
CONTINUOUS
 10
3.133680
 20
2.544520
  0
VERTEX
  8
0
  6
CONTINUOUS
 10
3.125760
 20
1.796080
  0
VERTEX
  8
0
  6
CONTINUOUS
 10
3.106400
 20
1.818520
  0
SEQEND
  8
0
  0
SOLID
  8
0
 62
    15
 10
3.125760
 20
1.796080
 11
3.133680
 21
2.544520
 12
3.141160
 22
1.771000
 13
3.149520
 23
2.519440
  0
POLYLINE
  8
0
  6
CONTINUOUS
 66
     1
 40
0.000000
 41
0.000000
  0
VERTEX
  8
0
  6
CONTINUOUS
 10
3.125760
 20
1.796080
  0
VERTEX
  8
0
  6
CONTINUOUS
 10
3.133680
 20
2.544520
  0
VERTEX
  8
0
  6
CONTINUOUS
 10
3.149520
 20
2.519440
  0
VERTEX
  8
0
  6
CONTINUOUS
 10
3.141160
 20
1.771000
  0
VERTEX
  8
0
  6
CONTINUOUS
 10
3.125760
 20
1.796080
  0
SEQEND
  8
0
  0
SOLID
  8
0
 62
    15
 10
3.141160
 20
1.771000
 11
3.149520
 21
2.519440
 12
3.153040
 22
1.743720
 13
3.161400
 23
2.491720
  0
POLYLINE
  8
0
  6
CONTINUOUS
 66
     1
 40
0.000000
 41
0.000000
  0
VERTEX
  8
0
  6
CONTINUOUS
 10
3.141160
 20
1.771000
  0
VERTEX
  8
0
  6
CONTINUOUS
 10
3.149520
 20
2.519440
  0
VERTEX
  8
0
  6
CONTINUOUS
 10
3.161400
 20
2.491720
  0
VERTEX
  8
0
  6
CONTINUOUS
 10
3.153040
 20
1.743720
  0
VERTEX
  8
0
  6
CONTINUOUS
 10
3.141160
 20
1.771000
  0
SEQEND
  8
0
  0
SOLID
  8
0
 62
    15
 10
3.153040
 20
1.743720
 11
3.161400
 21
2.491720
 12
3.234880
 22
1.742840
 13
3.243240
 23
2.491280
  0
POLYLINE
  8
0
  6
CONTINUOUS
 66
     1
 40
0.000000
 41
0.000000
  0
VERTEX
  8
0
  6
CONTINUOUS
 10
3.153040
 20
1.743720
  0
VERTEX
  8
0
  6
CONTINUOUS
 10
3.161400
 20
2.491720
  0
VERTEX
  8
0
  6
CONTINUOUS
 10
3.243240
 20
2.491280
  0
VERTEX
  8
0
  6
CONTINUOUS
 10
3.234880
 20
1.742840
  0
VERTEX
  8
0
  6
CONTINUOUS
 10
3.153040
 20
1.743720
  0
SEQEND
  8
0
  0
SOLID
  8
0
 62
    15
 10
3.234880
 20
1.742840
 11
3.243240
 21
2.491280
 12
3.246760
 22
1.770560
 13
3.254680
 23
2.519000
  0
POLYLINE
  8
0
  6
CONTINUOUS
 66
     1
 40
0.000000
 41
0.000000
  0
VERTEX
  8
0
  6
CONTINUOUS
 10
3.234880
 20
1.742840
  0
VERTEX
  8
0
  6
CONTINUOUS
 10
3.243240
 20
2.491280
  0
VERTEX
  8
0
  6
CONTINUOUS
 10
3.254680
 20
2.519000
  0
VERTEX
  8
0
  6
CONTINUOUS
 10
3.246760
 20
1.770560
  0
VERTEX
  8
0
  6
CONTINUOUS
 10
3.234880
 20
1.742840
  0
SEQEND
  8
0
  0
SOLID
  8
0
 62
    15
 10
3.246760
 20
1.770560
 11
3.254680
 21
2.519000
 12
3.262600
 22
1.795640
 13
3.270520
 23
2.544080
  0
POLYLINE
  8
0
  6
CONTINUOUS
 66
     1
 40
0.000000
 41
0.000000
  0
VERTEX
  8
0
  6
CONTINUOUS
 10
3.246760
 20
1.770560
  0
VERTEX
  8
0
  6
CONTINUOUS
 10
3.254680
 20
2.519000
  0
VERTEX
  8
0
  6
CONTINUOUS
 10
3.270520
 20
2.544080
  0
VERTEX
  8
0
  6
CONTINUOUS
 10
3.262600
 20
1.795640
  0
VERTEX
  8
0
  6
CONTINUOUS
 10
3.246760
 20
1.770560
  0
SEQEND
  8
0
  0
SOLID
  8
0
 62
    15
 10
3.262600
 20
1.795640
 11
3.270520
 21
2.544080
 12
3.281520
 22
1.818080
 13
3.289880
 23
2.566080
  0
POLYLINE
  8
0
  6
CONTINUOUS
 66
     1
 40
0.000000
 41
0.000000
  0
VERTEX
  8
0
  6
CONTINUOUS
 10
3.262600
 20
1.795640
  0
VERTEX
  8
0
  6
CONTINUOUS
 10
3.270520
 20
2.544080
  0
VERTEX
  8
0
  6
CONTINUOUS
 10
3.289880
 20
2.566080
  0
VERTEX
  8
0
  6
CONTINUOUS
 10
3.281520
 20
1.818080
  0
VERTEX
  8
0
  6
CONTINUOUS
 10
3.262600
 20
1.795640
  0
SEQEND
  8
0
  0
SOLID
  8
0
 62
    15
 10
3.281520
 20
1.818080
 11
3.289880
 21
2.566080
 12
3.303960
 22
1.837000
 13
3.312320
 23
2.585440
  0
POLYLINE
  8
0
  6
CONTINUOUS
 66
     1
 40
0.000000
 41
0.000000
  0
VERTEX
  8
0
  6
CONTINUOUS
 10
3.281520
 20
1.818080
  0
VERTEX
  8
0
  6
CONTINUOUS
 10
3.289880
 20
2.566080
  0
VERTEX
  8
0
  6
CONTINUOUS
 10
3.312320
 20
2.585440
  0
VERTEX
  8
0
  6
CONTINUOUS
 10
3.303960
 20
1.837000
  0
VERTEX
  8
0
  6
CONTINUOUS
 10
3.281520
 20
1.818080
  0
SEQEND
  8
0
  0
SOLID
  8
0
 62
    15
 10
3.303960
 20
1.837000
 11
3.312320
 21
2.585440
 12
3.329480
 22
1.852840
 13
3.337400
 23
2.600840
  0
POLYLINE
  8
0
  6
CONTINUOUS
 66
     1
 40
0.000000
 41
0.000000
  0
VERTEX
  8
0
  6
CONTINUOUS
 10
3.303960
 20
1.837000
  0
VERTEX
  8
0
  6
CONTINUOUS
 10
3.312320
 20
2.585440
  0
VERTEX
  8
0
  6
CONTINUOUS
 10
3.337400
 20
2.600840
  0
VERTEX
  8
0
  6
CONTINUOUS
 10
3.329480
 20
1.852840
  0
VERTEX
  8
0
  6
CONTINUOUS
 10
3.303960
 20
1.837000
  0
SEQEND
  8
0
  0
SOLID
  8
0
 62
    15
 10
3.329480
 20
1.852840
 11
3.337400
 21
2.600840
 12
3.356760
 22
1.864280
 13
3.365120
 23
2.612720
  0
POLYLINE
  8
0
  6
CONTINUOUS
 66
     1
 40
0.000000
 41
0.000000
  0
VERTEX
  8
0
  6
CONTINUOUS
 10
3.329480
 20
1.852840
  0
VERTEX
  8
0
  6
CONTINUOUS
 10
3.337400
 20
2.600840
  0
VERTEX
  8
0
  6
CONTINUOUS
 10
3.365120
 20
2.612720
  0
VERTEX
  8
0
  6
CONTINUOUS
 10
3.356760
 20
1.864280
  0
VERTEX
  8
0
  6
CONTINUOUS
 10
3.329480
 20
1.852840
  0
SEQEND
  8
0
  0
SOLID
  8
0
 62
    15
 10
3.356760
 20
1.864280
 11
3.365120
 21
2.612720
 12
3.386680
 22
1.871760
 13
3.394600
 23
2.619760
  0
POLYLINE
  8
0
  6
CONTINUOUS
 66
     1
 40
0.000000
 41
0.000000
  0
VERTEX
  8
0
  6
CONTINUOUS
 10
3.356760
 20
1.864280
  0
VERTEX
  8
0
  6
CONTINUOUS
 10
3.365120
 20
2.612720
  0
VERTEX
  8
0
  6
CONTINUOUS
 10
3.394600
 20
2.619760
  0
VERTEX
  8
0
  6
CONTINUOUS
 10
3.386680
 20
1.871760
  0
VERTEX
  8
0
  6
CONTINUOUS
 10
3.356760
 20
1.864280
  0
SEQEND
  8
0
  0
SOLID
  8
0
 62
    15
 10
3.386680
 20
1.871760
 11
3.394600
 21
2.619760
 12
3.417920
 22
1.873960
 13
3.425840
 23
2.622400
  0
POLYLINE
  8
0
  6
CONTINUOUS
 66
     1
 40
0.000000
 41
0.000000
  0
VERTEX
  8
0
  6
CONTINUOUS
 10
3.386680
 20
1.871760
  0
VERTEX
  8
0
  6
CONTINUOUS
 10
3.394600
 20
2.619760
  0
VERTEX
  8
0
  6
CONTINUOUS
 10
3.425840
 20
2.622400
  0
VERTEX
  8
0
  6
CONTINUOUS
 10
3.417920
 20
1.873960
  0
VERTEX
  8
0
  6
CONTINUOUS
 10
3.386680
 20
1.871760
  0
SEQEND
  8
0
  0
SOLID
  8
0
 62
    15
 10
3.417920
 20
1.873960
 11
3.425840
 21
2.622400
 12
3.448720
 22
1.871760
 13
3.456640
 23
2.619760
  0
POLYLINE
  8
0
  6
CONTINUOUS
 66
     1
 40
0.000000
 41
0.000000
  0
VERTEX
  8
0
  6
CONTINUOUS
 10
3.417920
 20
1.873960
  0
VERTEX
  8
0
  6
CONTINUOUS
 10
3.425840
 20
2.622400
  0
VERTEX
  8
0
  6
CONTINUOUS
 10
3.456640
 20
2.619760
  0
VERTEX
  8
0
  6
CONTINUOUS
 10
3.448720
 20
1.871760
  0
VERTEX
  8
0
  6
CONTINUOUS
 10
3.417920
 20
1.873960
  0
SEQEND
  8
0
  0
SOLID
  8
0
 62
    15
 10
3.448720
 20
1.871760
 11
3.456640
 21
2.619760
 12
3.478200
 22
1.864280
 13
3.486560
 23
2.612720
  0
POLYLINE
  8
0
  6
CONTINUOUS
 66
     1
 40
0.000000
 41
0.000000
  0
VERTEX
  8
0
  6
CONTINUOUS
 10
3.448720
 20
1.871760
  0
VERTEX
  8
0
  6
CONTINUOUS
 10
3.456640
 20
2.619760
  0
VERTEX
  8
0
  6
CONTINUOUS
 10
3.486560
 20
2.612720
  0
VERTEX
  8
0
  6
CONTINUOUS
 10
3.478200
 20
1.864280
  0
VERTEX
  8
0
  6
CONTINUOUS
 10
3.448720
 20
1.871760
  0
SEQEND
  8
0
  0
SOLID
  8
0
 62
    15
 10
3.478200
 20
1.864280
 11
3.486560
 21
2.612720
 12
3.505920
 22
1.852840
 13
3.513840
 23
2.600840
  0
POLYLINE
  8
0
  6
CONTINUOUS
 66
     1
 40
0.000000
 41
0.000000
  0
VERTEX
  8
0
  6
CONTINUOUS
 10
3.478200
 20
1.864280
  0
VERTEX
  8
0
  6
CONTINUOUS
 10
3.486560
 20
2.612720
  0
VERTEX
  8
0
  6
CONTINUOUS
 10
3.513840
 20
2.600840
  0
VERTEX
  8
0
  6
CONTINUOUS
 10
3.505920
 20
1.852840
  0
VERTEX
  8
0
  6
CONTINUOUS
 10
3.478200
 20
1.864280
  0
SEQEND
  8
0
  0
SOLID
  8
0
 62
    15
 10
2.335520
 20
1.743280
 11
2.343440
 21
2.491280
 12
2.346960
 22
1.770560
 13
2.355320
 23
2.519000
  0
POLYLINE
  8
0
  6
CONTINUOUS
 66
     1
 40
0.000000
 41
0.000000
  0
VERTEX
  8
0
  6
CONTINUOUS
 10
2.335520
 20
1.743280
  0
VERTEX
  8
0
  6
CONTINUOUS
 10
2.343440
 20
2.491280
  0
VERTEX
  8
0
  6
CONTINUOUS
 10
2.355320
 20
2.519000
  0
VERTEX
  8
0
  6
CONTINUOUS
 10
2.346960
 20
1.770560
  0
VERTEX
  8
0
  6
CONTINUOUS
 10
2.335520
 20
1.743280
  0
SEQEND
  8
0
  0
SOLID
  8
0
 62
    15
 10
3.531000
 20
1.837440
 11
3.538920
 21
2.585440
 12
3.553440
 22
1.818080
 13
3.561360
 23
2.566520
  0
POLYLINE
  8
0
  6
CONTINUOUS
 66
     1
 40
0.000000
 41
0.000000
  0
VERTEX
  8
0
  6
CONTINUOUS
 10
3.531000
 20
1.837440
  0
VERTEX
  8
0
  6
CONTINUOUS
 10
3.538920
 20
2.585440
  0
VERTEX
  8
0
  6
CONTINUOUS
 10
3.561360
 20
2.566520
  0
VERTEX
  8
0
  6
CONTINUOUS
 10
3.553440
 20
1.818080
  0
VERTEX
  8
0
  6
CONTINUOUS
 10
3.531000
 20
1.837440
  0
SEQEND
  8
0
  0
SOLID
  8
0
 62
    15
 10
3.553440
 20
1.818080
 11
3.561360
 21
2.566520
 12
3.572800
 22
1.796080
 13
3.580720
 23
2.544080
  0
POLYLINE
  8
0
  6
CONTINUOUS
 66
     1
 40
0.000000
 41
0.000000
  0
VERTEX
  8
0
  6
CONTINUOUS
 10
3.553440
 20
1.818080
  0
VERTEX
  8
0
  6
CONTINUOUS
 10
3.561360
 20
2.566520
  0
VERTEX
  8
0
  6
CONTINUOUS
 10
3.580720
 20
2.544080
  0
VERTEX
  8
0
  6
CONTINUOUS
 10
3.572800
 20
1.796080
  0
VERTEX
  8
0
  6
CONTINUOUS
 10
3.553440
 20
1.818080
  0
SEQEND
  8
0
  0
SOLID
  8
0
 62
    15
 10
3.572800
 20
1.796080
 11
3.580720
 21
2.544080
 12
3.588640
 22
1.771000
 13
3.596560
 23
2.519000
  0
POLYLINE
  8
0
  6
CONTINUOUS
 66
     1
 40
0.000000
 41
0.000000
  0
VERTEX
  8
0
  6
CONTINUOUS
 10
3.572800
 20
1.796080
  0
VERTEX
  8
0
  6
CONTINUOUS
 10
3.580720
 20
2.544080
  0
VERTEX
  8
0
  6
CONTINUOUS
 10
3.596560
 20
2.519000
  0
VERTEX
  8
0
  6
CONTINUOUS
 10
3.588640
 20
1.771000
  0
VERTEX
  8
0
  6
CONTINUOUS
 10
3.572800
 20
1.796080
  0
SEQEND
  8
0
  0
SOLID
  8
0
 62
    15
 10
3.588640
 20
1.771000
 11
3.596560
 21
2.519000
 12
3.600080
 22
1.743280
 13
3.608440
 23
2.491720
  0
POLYLINE
  8
0
  6
CONTINUOUS
 66
     1
 40
0.000000
 41
0.000000
  0
VERTEX
  8
0
  6
CONTINUOUS
 10
3.588640
 20
1.771000
  0
VERTEX
  8
0
  6
CONTINUOUS
 10
3.596560
 20
2.519000
  0
VERTEX
  8
0
  6
CONTINUOUS
 10
3.608440
 20
2.491720
  0
VERTEX
  8
0
  6
CONTINUOUS
 10
3.600080
 20
1.743280
  0
VERTEX
  8
0
  6
CONTINUOUS
 10
3.588640
 20
1.771000
  0
SEQEND
  8
0
  0
SOLID
  8
0
 62
    15
 10
3.600080
 20
1.743280
 11
3.608440
 21
2.491720
 12
3.688080
 22
1.743720
 13
3.696000
 23
2.491720
  0
POLYLINE
  8
0
  6
CONTINUOUS
 66
     1
 40
0.000000
 41
0.000000
  0
VERTEX
  8
0
  6
CONTINUOUS
 10
3.600080
 20
1.743280
  0
VERTEX
  8
0
  6
CONTINUOUS
 10
3.608440
 20
2.491720
  0
VERTEX
  8
0
  6
CONTINUOUS
 10
3.696000
 20
2.491720
  0
VERTEX
  8
0
  6
CONTINUOUS
 10
3.688080
 20
1.743720
  0
VERTEX
  8
0
  6
CONTINUOUS
 10
3.600080
 20
1.743280
  0
SEQEND
  8
0
  0
SOLID
  8
0
 62
    15
 10
3.688080
 20
1.743720
 11
3.696000
 21
2.491720
 12
3.699520
 22
1.771000
 13
3.707880
 23
2.519440
  0
POLYLINE
  8
0
  6
CONTINUOUS
 66
     1
 40
0.000000
 41
0.000000
  0
VERTEX
  8
0
  6
CONTINUOUS
 10
3.688080
 20
1.743720
  0
VERTEX
  8
0
  6
CONTINUOUS
 10
3.696000
 20
2.491720
  0
VERTEX
  8
0
  6
CONTINUOUS
 10
3.707880
 20
2.519440
  0
VERTEX
  8
0
  6
CONTINUOUS
 10
3.699520
 20
1.771000
  0
VERTEX
  8
0
  6
CONTINUOUS
 10
3.688080
 20
1.743720
  0
SEQEND
  8
0
  0
SOLID
  8
0
 62
    15
 10
3.699520
 20
1.771000
 11
3.707880
 21
2.519440
 12
3.715360
 22
1.796080
 13
3.723280
 23
2.544520
  0
POLYLINE
  8
0
  6
CONTINUOUS
 66
     1
 40
0.000000
 41
0.000000
  0
VERTEX
  8
0
  6
CONTINUOUS
 10
3.699520
 20
1.771000
  0
VERTEX
  8
0
  6
CONTINUOUS
 10
3.707880
 20
2.519440
  0
VERTEX
  8
0
  6
CONTINUOUS
 10
3.723280
 20
2.544520
  0
VERTEX
  8
0
  6
CONTINUOUS
 10
3.715360
 20
1.796080
  0
VERTEX
  8
0
  6
CONTINUOUS
 10
3.699520
 20
1.771000
  0
SEQEND
  8
0
  0
SOLID
  8
0
 62
    15
 10
3.715360
 20
1.796080
 11
3.723280
 21
2.544520
 12
3.734720
 22
1.818520
 13
3.742640
 23
2.566520
  0
POLYLINE
  8
0
  6
CONTINUOUS
 66
     1
 40
0.000000
 41
0.000000
  0
VERTEX
  8
0
  6
CONTINUOUS
 10
3.715360
 20
1.796080
  0
VERTEX
  8
0
  6
CONTINUOUS
 10
3.723280
 20
2.544520
  0
VERTEX
  8
0
  6
CONTINUOUS
 10
3.742640
 20
2.566520
  0
VERTEX
  8
0
  6
CONTINUOUS
 10
3.734720
 20
1.818520
  0
VERTEX
  8
0
  6
CONTINUOUS
 10
3.715360
 20
1.796080
  0
SEQEND
  8
0
  0
SOLID
  8
0
 62
    15
 10
3.734720
 20
1.818520
 11
3.742640
 21
2.566520
 12
3.757160
 22
1.837880
 13
3.765080
 23
2.585880
  0
POLYLINE
  8
0
  6
CONTINUOUS
 66
     1
 40
0.000000
 41
0.000000
  0
VERTEX
  8
0
  6
CONTINUOUS
 10
3.734720
 20
1.818520
  0
VERTEX
  8
0
  6
CONTINUOUS
 10
3.742640
 20
2.566520
  0
VERTEX
  8
0
  6
CONTINUOUS
 10
3.765080
 20
2.585880
  0
VERTEX
  8
0
  6
CONTINUOUS
 10
3.757160
 20
1.837880
  0
VERTEX
  8
0
  6
CONTINUOUS
 10
3.734720
 20
1.818520
  0
SEQEND
  8
0
  0
SOLID
  8
0
 62
    15
 10
3.757160
 20
1.837880
 11
3.765080
 21
2.585880
 12
3.782240
 22
1.853280
 13
3.790600
 23
2.601280
  0
POLYLINE
  8
0
  6
CONTINUOUS
 66
     1
 40
0.000000
 41
0.000000
  0
VERTEX
  8
0
  6
CONTINUOUS
 10
3.757160
 20
1.837880
  0
VERTEX
  8
0
  6
CONTINUOUS
 10
3.765080
 20
2.585880
  0
VERTEX
  8
0
  6
CONTINUOUS
 10
3.790600
 20
2.601280
  0
VERTEX
  8
0
  6
CONTINUOUS
 10
3.782240
 20
1.853280
  0
VERTEX
  8
0
  6
CONTINUOUS
 10
3.757160
 20
1.837880
  0
SEQEND
  8
0
  0
SOLID
  8
0
 62
    15
 10
3.782240
 20
1.853280
 11
3.790600
 21
2.601280
 12
3.809960
 22
1.864720
 13
3.817880
 23
2.613160
  0
POLYLINE
  8
0
  6
CONTINUOUS
 66
     1
 40
0.000000
 41
0.000000
  0
VERTEX
  8
0
  6
CONTINUOUS
 10
3.782240
 20
1.853280
  0
VERTEX
  8
0
  6
CONTINUOUS
 10
3.790600
 20
2.601280
  0
VERTEX
  8
0
  6
CONTINUOUS
 10
3.817880
 20
2.613160
  0
VERTEX
  8
0
  6
CONTINUOUS
 10
3.809960
 20
1.864720
  0
VERTEX
  8
0
  6
CONTINUOUS
 10
3.782240
 20
1.853280
  0
SEQEND
  8
0
  0
SOLID
  8
0
 62
    15
 10
3.809960
 20
1.864720
 11
3.817880
 21
2.613160
 12
3.839440
 22
1.872200
 13
3.847360
 23
2.620200
  0
POLYLINE
  8
0
  6
CONTINUOUS
 66
     1
 40
0.000000
 41
0.000000
  0
VERTEX
  8
0
  6
CONTINUOUS
 10
3.809960
 20
1.864720
  0
VERTEX
  8
0
  6
CONTINUOUS
 10
3.817880
 20
2.613160
  0
VERTEX
  8
0
  6
CONTINUOUS
 10
3.847360
 20
2.620200
  0
VERTEX
  8
0
  6
CONTINUOUS
 10
3.839440
 20
1.872200
  0
VERTEX
  8
0
  6
CONTINUOUS
 10
3.809960
 20
1.864720
  0
SEQEND
  8
0
  0
SOLID
  8
0
 62
    15
 10
3.839440
 20
1.872200
 11
3.847360
 21
2.620200
 12
3.870680
 22
1.874400
 13
3.878600
 23
2.622840
  0
POLYLINE
  8
0
  6
CONTINUOUS
 66
     1
 40
0.000000
 41
0.000000
  0
VERTEX
  8
0
  6
CONTINUOUS
 10
3.839440
 20
1.872200
  0
VERTEX
  8
0
  6
CONTINUOUS
 10
3.847360
 20
2.620200
  0
VERTEX
  8
0
  6
CONTINUOUS
 10
3.878600
 20
2.622840
  0
VERTEX
  8
0
  6
CONTINUOUS
 10
3.870680
 20
1.874400
  0
VERTEX
  8
0
  6
CONTINUOUS
 10
3.839440
 20
1.872200
  0
SEQEND
  8
0
  0
SOLID
  8
0
 62
    15
 10
3.870680
 20
1.874400
 11
3.878600
 21
2.622840
 12
3.901920
 22
1.872200
 13
3.909840
 23
2.620200
  0
POLYLINE
  8
0
  6
CONTINUOUS
 66
     1
 40
0.000000
 41
0.000000
  0
VERTEX
  8
0
  6
CONTINUOUS
 10
3.870680
 20
1.874400
  0
VERTEX
  8
0
  6
CONTINUOUS
 10
3.878600
 20
2.622840
  0
VERTEX
  8
0
  6
CONTINUOUS
 10
3.909840
 20
2.620200
  0
VERTEX
  8
0
  6
CONTINUOUS
 10
3.901920
 20
1.872200
  0
VERTEX
  8
0
  6
CONTINUOUS
 10
3.870680
 20
1.874400
  0
SEQEND
  8
0
  0
SOLID
  8
0
 62
    15
 10
3.901920
 20
1.872200
 11
3.909840
 21
2.620200
 12
3.931400
 22
1.864720
 13
3.939320
 23
2.613160
  0
POLYLINE
  8
0
  6
CONTINUOUS
 66
     1
 40
0.000000
 41
0.000000
  0
VERTEX
  8
0
  6
CONTINUOUS
 10
3.901920
 20
1.872200
  0
VERTEX
  8
0
  6
CONTINUOUS
 10
3.909840
 20
2.620200
  0
VERTEX
  8
0
  6
CONTINUOUS
 10
3.939320
 20
2.613160
  0
VERTEX
  8
0
  6
CONTINUOUS
 10
3.931400
 20
1.864720
  0
VERTEX
  8
0
  6
CONTINUOUS
 10
3.901920
 20
1.872200
  0
SEQEND
  8
0
  0
SOLID
  8
0
 62
    15
 10
3.931400
 20
1.864720
 11
3.939320
 21
2.613160
 12
3.958680
 22
1.853280
 13
3.967040
 23
2.601720
  0
POLYLINE
  8
0
  6
CONTINUOUS
 66
     1
 40
0.000000
 41
0.000000
  0
VERTEX
  8
0
  6
CONTINUOUS
 10
3.931400
 20
1.864720
  0
VERTEX
  8
0
  6
CONTINUOUS
 10
3.939320
 20
2.613160
  0
VERTEX
  8
0
  6
CONTINUOUS
 10
3.967040
 20
2.601720
  0
VERTEX
  8
0
  6
CONTINUOUS
 10
3.958680
 20
1.853280
  0
VERTEX
  8
0
  6
CONTINUOUS
 10
3.931400
 20
1.864720
  0
SEQEND
  8
0
  0
SOLID
  8
0
 62
    15
 10
3.958680
 20
1.853280
 11
3.967040
 21
2.601720
 12
3.983760
 22
1.837880
 13
3.992120
 23
2.585880
  0
POLYLINE
  8
0
  6
CONTINUOUS
 66
     1
 40
0.000000
 41
0.000000
  0
VERTEX
  8
0
  6
CONTINUOUS
 10
3.958680
 20
1.853280
  0
VERTEX
  8
0
  6
CONTINUOUS
 10
3.967040
 20
2.601720
  0
VERTEX
  8
0
  6
CONTINUOUS
 10
3.992120
 20
2.585880
  0
VERTEX
  8
0
  6
CONTINUOUS
 10
3.983760
 20
1.837880
  0
VERTEX
  8
0
  6
CONTINUOUS
 10
3.958680
 20
1.853280
  0
SEQEND
  8
0
  0
SOLID
  8
0
 62
    15
 10
3.983760
 20
1.837880
 11
3.992120
 21
2.585880
 12
4.006200
 22
1.818520
 13
4.014560
 23
2.566960
  0
POLYLINE
  8
0
  6
CONTINUOUS
 66
     1
 40
0.000000
 41
0.000000
  0
VERTEX
  8
0
  6
CONTINUOUS
 10
3.983760
 20
1.837880
  0
VERTEX
  8
0
  6
CONTINUOUS
 10
3.992120
 20
2.585880
  0
VERTEX
  8
0
  6
CONTINUOUS
 10
4.014560
 20
2.566960
  0
VERTEX
  8
0
  6
CONTINUOUS
 10
4.006200
 20
1.818520
  0
VERTEX
  8
0
  6
CONTINUOUS
 10
3.983760
 20
1.837880
  0
SEQEND
  8
0
  0
SOLID
  8
0
 62
    15
 10
4.006200
 20
1.818520
 11
4.014560
 21
2.566960
 12
4.025560
 22
1.796520
 13
4.033920
 23
2.544520
  0
POLYLINE
  8
0
  6
CONTINUOUS
 66
     1
 40
0.000000
 41
0.000000
  0
VERTEX
  8
0
  6
CONTINUOUS
 10
4.006200
 20
1.818520
  0
VERTEX
  8
0
  6
CONTINUOUS
 10
4.014560
 20
2.566960
  0
VERTEX
  8
0
  6
CONTINUOUS
 10
4.033920
 20
2.544520
  0
VERTEX
  8
0
  6
CONTINUOUS
 10
4.025560
 20
1.796520
  0
VERTEX
  8
0
  6
CONTINUOUS
 10
4.006200
 20
1.818520
  0
SEQEND
  8
0
  0
SOLID
  8
0
 62
    15
 10
4.025560
 20
1.796520
 11
4.033920
 21
2.544520
 12
4.041400
 22
1.771440
 13
4.049320
 23
2.519440
  0
POLYLINE
  8
0
  6
CONTINUOUS
 66
     1
 40
0.000000
 41
0.000000
  0
VERTEX
  8
0
  6
CONTINUOUS
 10
4.025560
 20
1.796520
  0
VERTEX
  8
0
  6
CONTINUOUS
 10
4.033920
 20
2.544520
  0
VERTEX
  8
0
  6
CONTINUOUS
 10
4.049320
 20
2.519440
  0
VERTEX
  8
0
  6
CONTINUOUS
 10
4.041400
 20
1.771440
  0
VERTEX
  8
0
  6
CONTINUOUS
 10
4.025560
 20
1.796520
  0
SEQEND
  8
0
  0
SOLID
  8
0
 62
    15
 10
4.041400
 20
1.771440
 11
4.049320
 21
2.519440
 12
4.053280
 22
1.744160
 13
4.061200
 23
2.492160
  0
POLYLINE
  8
0
  6
CONTINUOUS
 66
     1
 40
0.000000
 41
0.000000
  0
VERTEX
  8
0
  6
CONTINUOUS
 10
4.041400
 20
1.771440
  0
VERTEX
  8
0
  6
CONTINUOUS
 10
4.049320
 20
2.519440
  0
VERTEX
  8
0
  6
CONTINUOUS
 10
4.061200
 20
2.492160
  0
VERTEX
  8
0
  6
CONTINUOUS
 10
4.053280
 20
1.744160
  0
VERTEX
  8
0
  6
CONTINUOUS
 10
4.041400
 20
1.771440
  0
SEQEND
  8
0
  0
SOLID
  8
0
 62
    15
 10
4.053280
 20
1.744160
 11
4.061200
 21
2.492160
 12
4.136000
 22
1.741520
 13
4.144360
 23
2.489960
  0
POLYLINE
  8
0
  6
CONTINUOUS
 66
     1
 40
0.000000
 41
0.000000
  0
VERTEX
  8
0
  6
CONTINUOUS
 10
4.053280
 20
1.744160
  0
VERTEX
  8
0
  6
CONTINUOUS
 10
4.061200
 20
2.492160
  0
VERTEX
  8
0
  6
CONTINUOUS
 10
4.144360
 20
2.489960
  0
VERTEX
  8
0
  6
CONTINUOUS
 10
4.136000
 20
1.741520
  0
VERTEX
  8
0
  6
CONTINUOUS
 10
4.053280
 20
1.744160
  0
SEQEND
  8
0
  0
SOLID
  8
0
 62
    15
 10
4.136000
 20
1.741520
 11
4.144360
 21
2.489960
 12
4.147880
 22
1.769240
 13
4.155800
 23
2.517240
  0
POLYLINE
  8
0
  6
CONTINUOUS
 66
     1
 40
0.000000
 41
0.000000
  0
VERTEX
  8
0
  6
CONTINUOUS
 10
4.136000
 20
1.741520
  0
VERTEX
  8
0
  6
CONTINUOUS
 10
4.144360
 20
2.489960
  0
VERTEX
  8
0
  6
CONTINUOUS
 10
4.155800
 20
2.517240
  0
VERTEX
  8
0
  6
CONTINUOUS
 10
4.147880
 20
1.769240
  0
VERTEX
  8
0
  6
CONTINUOUS
 10
4.136000
 20
1.741520
  0
SEQEND
  8
0
  0
SOLID
  8
0
 62
    15
 10
4.147880
 20
1.769240
 11
4.155800
 21
2.517240
 12
4.163720
 22
1.794320
 13
4.171640
 23
2.542320
  0
POLYLINE
  8
0
  6
CONTINUOUS
 66
     1
 40
0.000000
 41
0.000000
  0
VERTEX
  8
0
  6
CONTINUOUS
 10
4.147880
 20
1.769240
  0
VERTEX
  8
0
  6
CONTINUOUS
 10
4.155800
 20
2.517240
  0
VERTEX
  8
0
  6
CONTINUOUS
 10
4.171640
 20
2.542320
  0
VERTEX
  8
0
  6
CONTINUOUS
 10
4.163720
 20
1.794320
  0
VERTEX
  8
0
  6
CONTINUOUS
 10
4.147880
 20
1.769240
  0
SEQEND
  8
0
  0
SOLID
  8
0
 62
    15
 10
4.163720
 20
1.794320
 11
4.171640
 21
2.542320
 12
4.182640
 22
1.816320
 13
4.191000
 23
2.564760
  0
POLYLINE
  8
0
  6
CONTINUOUS
 66
     1
 40
0.000000
 41
0.000000
  0
VERTEX
  8
0
  6
CONTINUOUS
 10
4.163720
 20
1.794320
  0
VERTEX
  8
0
  6
CONTINUOUS
 10
4.171640
 20
2.542320
  0
VERTEX
  8
0
  6
CONTINUOUS
 10
4.191000
 20
2.564760
  0
VERTEX
  8
0
  6
CONTINUOUS
 10
4.182640
 20
1.816320
  0
VERTEX
  8
0
  6
CONTINUOUS
 10
4.163720
 20
1.794320
  0
SEQEND
  8
0
  0
SOLID
  8
0
 62
    15
 10
4.182640
 20
1.816320
 11
4.191000
 21
2.564760
 12
4.205080
 22
1.835680
 13
4.213440
 23
2.584120
  0
POLYLINE
  8
0
  6
CONTINUOUS
 66
     1
 40
0.000000
 41
0.000000
  0
VERTEX
  8
0
  6
CONTINUOUS
 10
4.182640
 20
1.816320
  0
VERTEX
  8
0
  6
CONTINUOUS
 10
4.191000
 20
2.564760
  0
VERTEX
  8
0
  6
CONTINUOUS
 10
4.213440
 20
2.584120
  0
VERTEX
  8
0
  6
CONTINUOUS
 10
4.205080
 20
1.835680
  0
VERTEX
  8
0
  6
CONTINUOUS
 10
4.182640
 20
1.816320
  0
SEQEND
  8
0
  0
SOLID
  8
0
 62
    15
 10
4.205080
 20
1.835680
 11
4.213440
 21
2.584120
 12
4.230600
 22
1.851080
 13
4.238520
 23
2.599520
  0
POLYLINE
  8
0
  6
CONTINUOUS
 66
     1
 40
0.000000
 41
0.000000
  0
VERTEX
  8
0
  6
CONTINUOUS
 10
4.205080
 20
1.835680
  0
VERTEX
  8
0
  6
CONTINUOUS
 10
4.213440
 20
2.584120
  0
VERTEX
  8
0
  6
CONTINUOUS
 10
4.238520
 20
2.599520
  0
VERTEX
  8
0
  6
CONTINUOUS
 10
4.230600
 20
1.851080
  0
VERTEX
  8
0
  6
CONTINUOUS
 10
4.205080
 20
1.835680
  0
SEQEND
  8
0
  0
SOLID
  8
0
 62
    15
 10
4.230600
 20
1.851080
 11
4.238520
 21
2.599520
 12
4.257880
 22
1.862960
 13
4.266240
 23
2.610960
  0
POLYLINE
  8
0
  6
CONTINUOUS
 66
     1
 40
0.000000
 41
0.000000
  0
VERTEX
  8
0
  6
CONTINUOUS
 10
4.230600
 20
1.851080
  0
VERTEX
  8
0
  6
CONTINUOUS
 10
4.238520
 20
2.599520
  0
VERTEX
  8
0
  6
CONTINUOUS
 10
4.266240
 20
2.610960
  0
VERTEX
  8
0
  6
CONTINUOUS
 10
4.257880
 20
1.862960
  0
VERTEX
  8
0
  6
CONTINUOUS
 10
4.230600
 20
1.851080
  0
SEQEND
  8
0
  0
SOLID
  8
0
 62
    15
 10
4.257880
 20
1.862960
 11
4.266240
 21
2.610960
 12
4.287800
 22
1.870000
 13
4.295720
 23
2.618440
  0
POLYLINE
  8
0
  6
CONTINUOUS
 66
     1
 40
0.000000
 41
0.000000
  0
VERTEX
  8
0
  6
CONTINUOUS
 10
4.257880
 20
1.862960
  0
VERTEX
  8
0
  6
CONTINUOUS
 10
4.266240
 20
2.610960
  0
VERTEX
  8
0
  6
CONTINUOUS
 10
4.295720
 20
2.618440
  0
VERTEX
  8
0
  6
CONTINUOUS
 10
4.287800
 20
1.870000
  0
VERTEX
  8
0
  6
CONTINUOUS
 10
4.257880
 20
1.862960
  0
SEQEND
  8
0
  0
SOLID
  8
0
 62
    15
 10
4.287800
 20
1.870000
 11
4.295720
 21
2.618440
 12
4.318600
 22
1.872640
 13
4.326960
 23
2.620640
  0
POLYLINE
  8
0
  6
CONTINUOUS
 66
     1
 40
0.000000
 41
0.000000
  0
VERTEX
  8
0
  6
CONTINUOUS
 10
4.287800
 20
1.870000
  0
VERTEX
  8
0
  6
CONTINUOUS
 10
4.295720
 20
2.618440
  0
VERTEX
  8
0
  6
CONTINUOUS
 10
4.326960
 20
2.620640
  0
VERTEX
  8
0
  6
CONTINUOUS
 10
4.318600
 20
1.872640
  0
VERTEX
  8
0
  6
CONTINUOUS
 10
4.287800
 20
1.870000
  0
SEQEND
  8
0
  0
SOLID
  8
0
 62
    15
 10
4.318600
 20
1.872640
 11
4.326960
 21
2.620640
 12
4.349840
 22
1.870000
 13
4.357760
 23
2.618440
  0
POLYLINE
  8
0
  6
CONTINUOUS
 66
     1
 40
0.000000
 41
0.000000
  0
VERTEX
  8
0
  6
CONTINUOUS
 10
4.318600
 20
1.872640
  0
VERTEX
  8
0
  6
CONTINUOUS
 10
4.326960
 20
2.620640
  0
VERTEX
  8
0
  6
CONTINUOUS
 10
4.357760
 20
2.618440
  0
VERTEX
  8
0
  6
CONTINUOUS
 10
4.349840
 20
1.870000
  0
VERTEX
  8
0
  6
CONTINUOUS
 10
4.318600
 20
1.872640
  0
SEQEND
  8
0
  0
SOLID
  8
0
 62
    15
 10
4.349840
 20
1.870000
 11
4.357760
 21
2.618440
 12
4.379320
 22
1.862960
 13
4.387680
 23
2.610960
  0
POLYLINE
  8
0
  6
CONTINUOUS
 66
     1
 40
0.000000
 41
0.000000
  0
VERTEX
  8
0
  6
CONTINUOUS
 10
4.349840
 20
1.870000
  0
VERTEX
  8
0
  6
CONTINUOUS
 10
4.357760
 20
2.618440
  0
VERTEX
  8
0
  6
CONTINUOUS
 10
4.387680
 20
2.610960
  0
VERTEX
  8
0
  6
CONTINUOUS
 10
4.379320
 20
1.862960
  0
VERTEX
  8
0
  6
CONTINUOUS
 10
4.349840
 20
1.870000
  0
SEQEND
  8
0
  0
SOLID
  8
0
 62
    15
 10
4.379320
 20
1.862960
 11
4.387680
 21
2.610960
 12
4.407040
 22
1.851520
 13
4.414960
 23
2.599520
  0
POLYLINE
  8
0
  6
CONTINUOUS
 66
     1
 40
0.000000
 41
0.000000
  0
VERTEX
  8
0
  6
CONTINUOUS
 10
4.379320
 20
1.862960
  0
VERTEX
  8
0
  6
CONTINUOUS
 10
4.387680
 20
2.610960
  0
VERTEX
  8
0
  6
CONTINUOUS
 10
4.414960
 20
2.599520
  0
VERTEX
  8
0
  6
CONTINUOUS
 10
4.407040
 20
1.851520
  0
VERTEX
  8
0
  6
CONTINUOUS
 10
4.379320
 20
1.862960
  0
SEQEND
  8
0
  0
SOLID
  8
0
 62
    15
 10
4.407040
 20
1.851520
 11
4.414960
 21
2.599520
 12
4.432120
 22
1.835680
 13
4.440040
 23
2.584120
  0
POLYLINE
  8
0
  6
CONTINUOUS
 66
     1
 40
0.000000
 41
0.000000
  0
VERTEX
  8
0
  6
CONTINUOUS
 10
4.407040
 20
1.851520
  0
VERTEX
  8
0
  6
CONTINUOUS
 10
4.414960
 20
2.599520
  0
VERTEX
  8
0
  6
CONTINUOUS
 10
4.440040
 20
2.584120
  0
VERTEX
  8
0
  6
CONTINUOUS
 10
4.432120
 20
1.835680
  0
VERTEX
  8
0
  6
CONTINUOUS
 10
4.407040
 20
1.851520
  0
SEQEND
  8
0
  0
SOLID
  8
0
 62
    15
 10
4.432120
 20
1.835680
 11
4.440040
 21
2.584120
 12
4.454560
 22
1.816760
 13
4.462480
 23
2.564760
  0
POLYLINE
  8
0
  6
CONTINUOUS
 66
     1
 40
0.000000
 41
0.000000
  0
VERTEX
  8
0
  6
CONTINUOUS
 10
4.432120
 20
1.835680
  0
VERTEX
  8
0
  6
CONTINUOUS
 10
4.440040
 20
2.584120
  0
VERTEX
  8
0
  6
CONTINUOUS
 10
4.462480
 20
2.564760
  0
VERTEX
  8
0
  6
CONTINUOUS
 10
4.454560
 20
1.816760
  0
VERTEX
  8
0
  6
CONTINUOUS
 10
4.432120
 20
1.835680
  0
SEQEND
  8
0
  0
SOLID
  8
0
 62
    15
 10
4.454560
 20
1.816760
 11
4.462480
 21
2.564760
 12
4.473920
 22
1.794320
 13
4.481840
 23
2.542760
  0
POLYLINE
  8
0
  6
CONTINUOUS
 66
     1
 40
0.000000
 41
0.000000
  0
VERTEX
  8
0
  6
CONTINUOUS
 10
4.454560
 20
1.816760
  0
VERTEX
  8
0
  6
CONTINUOUS
 10
4.462480
 20
2.564760
  0
VERTEX
  8
0
  6
CONTINUOUS
 10
4.481840
 20
2.542760
  0
VERTEX
  8
0
  6
CONTINUOUS
 10
4.473920
 20
1.794320
  0
VERTEX
  8
0
  6
CONTINUOUS
 10
4.454560
 20
1.816760
  0
SEQEND
  8
0
  0
SOLID
  8
0
 62
    15
 10
4.473920
 20
1.794320
 11
4.481840
 21
2.542760
 12
4.489320
 22
1.769240
 13
4.497680
 23
2.517680
  0
POLYLINE
  8
0
  6
CONTINUOUS
 66
     1
 40
0.000000
 41
0.000000
  0
VERTEX
  8
0
  6
CONTINUOUS
 10
4.473920
 20
1.794320
  0
VERTEX
  8
0
  6
CONTINUOUS
 10
4.481840
 20
2.542760
  0
VERTEX
  8
0
  6
CONTINUOUS
 10
4.497680
 20
2.517680
  0
VERTEX
  8
0
  6
CONTINUOUS
 10
4.489320
 20
1.769240
  0
VERTEX
  8
0
  6
CONTINUOUS
 10
4.473920
 20
1.794320
  0
SEQEND
  8
0
  0
SOLID
  8
0
 62
    15
 10
4.489320
 20
1.769240
 11
4.497680
 21
2.517680
 12
4.501200
 22
1.741960
 13
4.509560
 23
2.490400
  0
POLYLINE
  8
0
  6
CONTINUOUS
 66
     1
 40
0.000000
 41
0.000000
  0
VERTEX
  8
0
  6
CONTINUOUS
 10
4.489320
 20
1.769240
  0
VERTEX
  8
0
  6
CONTINUOUS
 10
4.497680
 20
2.517680
  0
VERTEX
  8
0
  6
CONTINUOUS
 10
4.509560
 20
2.490400
  0
VERTEX
  8
0
  6
CONTINUOUS
 10
4.501200
 20
1.741960
  0
VERTEX
  8
0
  6
CONTINUOUS
 10
4.489320
 20
1.769240
  0
SEQEND
  8
0
  0
SOLID
  8
0
 62
    15
 10
4.501200
 20
1.741960
 11
4.509560
 21
2.490400
 12
4.591840
 22
1.742840
 13
4.599760
 23
2.490840
  0
POLYLINE
  8
0
  6
CONTINUOUS
 66
     1
 40
0.000000
 41
0.000000
  0
VERTEX
  8
0
  6
CONTINUOUS
 10
4.501200
 20
1.741960
  0
VERTEX
  8
0
  6
CONTINUOUS
 10
4.509560
 20
2.490400
  0
VERTEX
  8
0
  6
CONTINUOUS
 10
4.599760
 20
2.490840
  0
VERTEX
  8
0
  6
CONTINUOUS
 10
4.591840
 20
1.742840
  0
VERTEX
  8
0
  6
CONTINUOUS
 10
4.501200
 20
1.741960
  0
SEQEND
  8
0
  0
SOLID
  8
0
 62
    15
 10
4.591840
 20
1.742840
 11
4.599760
 21
2.490840
 12
4.605040
 22
1.937760
 13
4.613400
 23
2.686200
  0
POLYLINE
  8
0
  6
CONTINUOUS
 66
     1
 40
0.000000
 41
0.000000
  0
VERTEX
  8
0
  6
CONTINUOUS
 10
4.591840
 20
1.742840
  0
VERTEX
  8
0
  6
CONTINUOUS
 10
4.599760
 20
2.490840
  0
VERTEX
  8
0
  6
CONTINUOUS
 10
4.613400
 20
2.686200
  0
VERTEX
  8
0
  6
CONTINUOUS
 10
4.605040
 20
1.937760
  0
VERTEX
  8
0
  6
CONTINUOUS
 10
4.591840
 20
1.742840
  0
SEQEND
  8
0
  0
SOLID
  8
0
 62
    15
 10
4.605040
 20
1.937760
 11
4.613400
 21
2.686200
 12
6.208400
 22
1.937760
 13
6.216320
 23
2.686200
  0
POLYLINE
  8
0
  6
CONTINUOUS
 66
     1
 40
0.000000
 41
0.000000
  0
VERTEX
  8
0
  6
CONTINUOUS
 10
4.605040
 20
1.937760
  0
VERTEX
  8
0
  6
CONTINUOUS
 10
4.613400
 20
2.686200
  0
VERTEX
  8
0
  6
CONTINUOUS
 10
6.216320
 20
2.686200
  0
VERTEX
  8
0
  6
CONTINUOUS
 10
6.208400
 20
1.937760
  0
VERTEX
  8
0
  6
CONTINUOUS
 10
4.605040
 20
1.937760
  0
SEQEND
  8
0
  0
SOLID
  8
0
 62
    15
 10
7.516080
 20
1.410640
 11
7.524000
 21
2.159080
 12
7.516080
 22
1.177440
 13
7.524000
 23
1.925880
  0
POLYLINE
  8
0
  6
CONTINUOUS
 66
     1
 40
0.000000
 41
0.000000
  0
VERTEX
  8
0
  6
CONTINUOUS
 10
7.516080
 20
1.410640
  0
VERTEX
  8
0
  6
CONTINUOUS
 10
7.524000
 20
2.159080
  0
VERTEX
  8
0
  6
CONTINUOUS
 10
7.524000
 20
1.925880
  0
VERTEX
  8
0
  6
CONTINUOUS
 10
7.516080
 20
1.177440
  0
VERTEX
  8
0
  6
CONTINUOUS
 10
7.516080
 20
1.410640
  0
SEQEND
  8
0
  0
SOLID
  8
0
 62
    15
 10
6.208400
 20
1.937760
 11
6.216320
 21
2.686200
 12
7.516080
 22
1.410640
 13
7.524000
 23
2.159080
  0
POLYLINE
  8
0
  6
CONTINUOUS
 66
     1
 40
0.000000
 41
0.000000
  0
VERTEX
  8
0
  6
CONTINUOUS
 10
6.208400
 20
1.937760
  0
VERTEX
  8
0
  6
CONTINUOUS
 10
6.216320
 20
2.686200
  0
VERTEX
  8
0
  6
CONTINUOUS
 10
7.524000
 20
2.159080
  0
VERTEX
  8
0
  6
CONTINUOUS
 10
7.516080
 20
1.410640
  0
VERTEX
  8
0
  6
CONTINUOUS
 10
6.208400
 20
1.937760
  0
SEQEND
  8
0
  0
SOLID
  8
0
 62
    15
 10
2.346960
 20
1.770560
 11
2.355320
 21
2.519000
 12
2.362800
 22
1.795640
 13
2.370720
 23
2.544080
  0
POLYLINE
  8
0
  6
CONTINUOUS
 66
     1
 40
0.000000
 41
0.000000
  0
VERTEX
  8
0
  6
CONTINUOUS
 10
2.346960
 20
1.770560
  0
VERTEX
  8
0
  6
CONTINUOUS
 10
2.355320
 20
2.519000
  0
VERTEX
  8
0
  6
CONTINUOUS
 10
2.370720
 20
2.544080
  0
VERTEX
  8
0
  6
CONTINUOUS
 10
2.362800
 20
1.795640
  0
VERTEX
  8
0
  6
CONTINUOUS
 10
2.346960
 20
1.770560
  0
SEQEND
  8
0
  0
POLYLINE
  8
0
  6
CONTINUOUS
 66
     1
 40
0.000000
 41
0.000000
  0
VERTEX
  8
0
  6
CONTINUOUS
 10
2.335520
 20
1.743280
  0
VERTEX
  8
0
  6
CONTINUOUS
 10
2.346960
 20
1.770560
  0
VERTEX
  8
0
  6
CONTINUOUS
 10
2.362800
 20
1.795640
  0
VERTEX
  8
0
  6
CONTINUOUS
 10
2.382160
 20
1.818080
  0
VERTEX
  8
0
  6
CONTINUOUS
 10
2.404600
 20
1.837000
  0
VERTEX
  8
0
  6
CONTINUOUS
 10
2.429680
 20
1.852840
  0
VERTEX
  8
0
  6
CONTINUOUS
 10
2.457400
 20
1.864280
  0
VERTEX
  8
0
  6
CONTINUOUS
 10
2.486880
 20
1.871760
  0
VERTEX
  8
0
  6
CONTINUOUS
 10
2.518120
 20
1.873960
  0
VERTEX
  8
0
  6
CONTINUOUS
 10
2.549360
 20
1.871760
  0
VERTEX
  8
0
  6
CONTINUOUS
 10
2.578840
 20
1.864280
  0
VERTEX
  8
0
  6
CONTINUOUS
 10
2.606120
 20
1.852840
  0
VERTEX
  8
0
  6
CONTINUOUS
 10
2.631640
 20
1.837440
  0
VERTEX
  8
0
  6
CONTINUOUS
 10
2.653640
 20
1.818080
  0
VERTEX
  8
0
  6
CONTINUOUS
 10
2.673000
 20
1.796080
  0
VERTEX
  8
0
  6
CONTINUOUS
 10
2.688840
 20
1.771000
  0
VERTEX
  8
0
  6
CONTINUOUS
 10
2.700720
 20
1.743280
  0
VERTEX
  8
0
  6
CONTINUOUS
 10
2.787840
 20
1.743280
  0
VERTEX
  8
0
  6
CONTINUOUS
 10
2.799720
 20
1.770560
  0
VERTEX
  8
0
  6
CONTINUOUS
 10
2.815560
 20
1.795640
  0
VERTEX
  8
0
  6
CONTINUOUS
 10
2.834480
 20
1.818080
  0
VERTEX
  8
0
  6
CONTINUOUS
 10
2.856920
 20
1.837440
  0
VERTEX
  8
0
  6
CONTINUOUS
 10
2.882440
 20
1.852840
  0
VERTEX
  8
0
  6
CONTINUOUS
 10
2.909720
 20
1.864720
  0
VERTEX
  8
0
  6
CONTINUOUS
 10
2.939200
 20
1.871760
  0
VERTEX
  8
0
  6
CONTINUOUS
 10
2.970440
 20
1.874400
  0
VERTEX
  8
0
  6
CONTINUOUS
 10
3.001680
 20
1.871760
  0
VERTEX
  8
0
  6
CONTINUOUS
 10
3.031160
 20
1.864720
  0
VERTEX
  8
0
  6
CONTINUOUS
 10
3.058880
 20
1.852840
  0
VERTEX
  8
0
  6
CONTINUOUS
 10
3.083960
 20
1.837440
  0
VERTEX
  8
0
  6
CONTINUOUS
 10
3.106400
 20
1.818520
  0
VERTEX
  8
0
  6
CONTINUOUS
 10
3.125760
 20
1.796080
  0
VERTEX
  8
0
  6
CONTINUOUS
 10
3.141160
 20
1.771000
  0
VERTEX
  8
0
  6
CONTINUOUS
 10
3.153040
 20
1.743720
  0
VERTEX
  8
0
  6
CONTINUOUS
 10
3.234880
 20
1.742840
  0
VERTEX
  8
0
  6
CONTINUOUS
 10
3.246760
 20
1.770560
  0
VERTEX
  8
0
  6
CONTINUOUS
 10
3.262600
 20
1.795640
  0
VERTEX
  8
0
  6
CONTINUOUS
 10
3.281520
 20
1.818080
  0
VERTEX
  8
0
  6
CONTINUOUS
 10
3.303960
 20
1.837000
  0
VERTEX
  8
0
  6
CONTINUOUS
 10
3.329480
 20
1.852840
  0
VERTEX
  8
0
  6
CONTINUOUS
 10
3.356760
 20
1.864280
  0
VERTEX
  8
0
  6
CONTINUOUS
 10
3.386680
 20
1.871760
  0
VERTEX
  8
0
  6
CONTINUOUS
 10
3.417920
 20
1.873960
  0
VERTEX
  8
0
  6
CONTINUOUS
 10
3.448720
 20
1.871760
  0
VERTEX
  8
0
  6
CONTINUOUS
 10
3.478200
 20
1.864280
  0
VERTEX
  8
0
  6
CONTINUOUS
 10
3.505920
 20
1.852840
  0
VERTEX
  8
0
  6
CONTINUOUS
 10
3.531000
 20
1.837440
  0
VERTEX
  8
0
  6
CONTINUOUS
 10
3.553440
 20
1.818080
  0
VERTEX
  8
0
  6
CONTINUOUS
 10
3.572800
 20
1.796080
  0
VERTEX
  8
0
  6
CONTINUOUS
 10
3.588640
 20
1.771000
  0
VERTEX
  8
0
  6
CONTINUOUS
 10
3.600080
 20
1.743280
  0
VERTEX
  8
0
  6
CONTINUOUS
 10
3.688080
 20
1.743720
  0
VERTEX
  8
0
  6
CONTINUOUS
 10
3.699520
 20
1.771000
  0
VERTEX
  8
0
  6
CONTINUOUS
 10
3.715360
 20
1.796080
  0
VERTEX
  8
0
  6
CONTINUOUS
 10
3.734720
 20
1.818520
  0
VERTEX
  8
0
  6
CONTINUOUS
 10
3.757160
 20
1.837880
  0
VERTEX
  8
0
  6
CONTINUOUS
 10
3.782240
 20
1.853280
  0
VERTEX
  8
0
  6
CONTINUOUS
 10
3.809960
 20
1.864720
  0
VERTEX
  8
0
  6
CONTINUOUS
 10
3.839440
 20
1.872200
  0
VERTEX
  8
0
  6
CONTINUOUS
 10
3.870680
 20
1.874400
  0
VERTEX
  8
0
  6
CONTINUOUS
 10
3.901920
 20
1.872200
  0
VERTEX
  8
0
  6
CONTINUOUS
 10
3.931400
 20
1.864720
  0
VERTEX
  8
0
  6
CONTINUOUS
 10
3.958680
 20
1.853280
  0
VERTEX
  8
0
  6
CONTINUOUS
 10
3.983760
 20
1.837880
  0
VERTEX
  8
0
  6
CONTINUOUS
 10
4.006200
 20
1.818520
  0
VERTEX
  8
0
  6
CONTINUOUS
 10
4.025560
 20
1.796520
  0
VERTEX
  8
0
  6
CONTINUOUS
 10
4.041400
 20
1.771440
  0
VERTEX
  8
0
  6
CONTINUOUS
 10
4.053280
 20
1.744160
  0
VERTEX
  8
0
  6
CONTINUOUS
 10
4.136000
 20
1.741520
  0
VERTEX
  8
0
  6
CONTINUOUS
 10
4.147880
 20
1.769240
  0
VERTEX
  8
0
  6
CONTINUOUS
 10
4.163720
 20
1.794320
  0
VERTEX
  8
0
  6
CONTINUOUS
 10
4.182640
 20
1.816320
  0
VERTEX
  8
0
  6
CONTINUOUS
 10
4.205080
 20
1.835680
  0
VERTEX
  8
0
  6
CONTINUOUS
 10
4.230600
 20
1.851080
  0
VERTEX
  8
0
  6
CONTINUOUS
 10
4.257880
 20
1.862960
  0
VERTEX
  8
0
  6
CONTINUOUS
 10
4.287800
 20
1.870000
  0
VERTEX
  8
0
  6
CONTINUOUS
 10
4.318600
 20
1.872640
  0
VERTEX
  8
0
  6
CONTINUOUS
 10
4.349840
 20
1.870000
  0
VERTEX
  8
0
  6
CONTINUOUS
 10
4.379320
 20
1.862960
  0
VERTEX
  8
0
  6
CONTINUOUS
 10
4.407040
 20
1.851520
  0
VERTEX
  8
0
  6
CONTINUOUS
 10
4.432120
 20
1.835680
  0
VERTEX
  8
0
  6
CONTINUOUS
 10
4.454560
 20
1.816760
  0
VERTEX
  8
0
  6
CONTINUOUS
 10
4.473920
 20
1.794320
  0
VERTEX
  8
0
  6
CONTINUOUS
 10
4.489320
 20
1.769240
  0
VERTEX
  8
0
  6
CONTINUOUS
 10
4.501200
 20
1.741960
  0
VERTEX
  8
0
  6
CONTINUOUS
 10
4.591840
 20
1.742840
  0
VERTEX
  8
0
  6
CONTINUOUS
 10
4.605040
 20
1.937760
  0
VERTEX
  8
0
  6
CONTINUOUS
 10
6.208400
 20
1.937760
  0
VERTEX
  8
0
  6
CONTINUOUS
 10
7.516080
 20
1.410640
  0
VERTEX
  8
0
  6
CONTINUOUS
 10
7.516080
 20
1.177440
  0
VERTEX
  8
0
  6
CONTINUOUS
 10
2.224200
 20
1.177440
  0
VERTEX
  8
0
  6
CONTINUOUS
 10
2.224200
 20
1.742400
  0
VERTEX
  8
0
  6
CONTINUOUS
 10
2.335520
 20
1.743280
  0
SEQEND
  8
0
  0
TEXT
  8
0
 10
4.579080
 20
0.903760
 40
0.138274
  1
BA  410
 41
1.000000
  7
SN0
 71
     0
 72
     5
 11
5.170367
 21
0.903760
  0
TEXT
  8
0
 10
4.423320
 20
0.711920
 40
0.138274
  1
3/4" x 5-1/4"
 41
1.000000
  7
SN0
 71
     0
 72
     5
 11
5.325609
 21
0.711920
  0
ENDSEC
  0
EOF
