  0
SECTION
  2
HEADER
  9
$ACADVER
  1
AC1006
  9
$EXTMIN
 10
2.184600
 20
0.685520
  9
$EXTMAX
 10
6.841560
 20
4.029520
  9
$LTSCALE
 40
0.044000
  9
$PDMODE
 70
    35
  9
$PDSIZE
 40
0.035200
  0
ENDSEC
  0
SECTION
  2
TABLES
  0
TABLE
  2
LTYPE
 70
     9
  0
LTYPE
  2
CONTINUOUS
 70
    64
  3
Solid line
 72
    65
 73
     0
 40
0.000000
  0
LTYPE
  2
DASHED
 70
    64
  3
__ __ __ __ __ __ __ __ __ __ __ __ __ __ __
 72
    65
 73
     2
 40
0.000330
 49
0.000220
 49
-0.000110
  0
LTYPE
  2
HIDDEN
 70
    64
  3
 _ _ _ _ _ _ _ _ _ _ _ _ _ _ _ _ _ _ _ _ _ _
 72
    65
 73
     2
 40
0.000165
 49
0.000110
 49
-0.000055
  0
LTYPE
  2
CENTER
 70
    64
  3
____ _ ____ _ ____ _ ____ _ ____ _ ____ _ ____
 72
    65
 73
     4
 40
0.000880
 49
0.000550
 49
-0.000110
 49
0.000110
 49
-0.000110
  0
LTYPE
  2
PHANTOM
 70
    64
  3
_____ _ _ _____ _ _ _____ _ _ _____ _ _ ____
 72
    65
 73
     6
 40
0.001100
 49
0.000550
 49
-0.000110
 49
0.000110
 49
-0.000110
 49
0.000110
 49
-0.000110
  0
LTYPE
  2
DOT
 70
    64
  3
...............................................
 72
    65
 73
     2
 40
0.000110
 49
0.000000
 49
-0.000110
  0
LTYPE
  2
DASHDOT
 70
    64
  3
__ . __ . __ . __ . __ . __ . __ . __ . __ . __
 72
    65
 73
     4
 40
0.000440
 49
0.000220
 49
-0.000110
 49
0.000000
 49
-0.000110
  0
LTYPE
  2
BORDER
 70
    64
  3
__ __ . __ __ . __ __ . __ __ . __ __ . __ __
 72
    65
 73
     6
 40
0.000770
 49
0.000220
 49
-0.000110
 49
0.000220
 49
-0.000110
 49
0.000000
 49
-0.000110
  0
LTYPE
  2
DIVIDE
 70
    64
  3
__ . . __ . . __ . . __ . . __ . . __ . . __
 72
    65
 73
     6
 40
0.000550
 49
0.000220
 49
-0.000110
 49
0.000000
 49
-0.000110
 49
0.000000
 49
-0.000110
  0
LTYPE
  2
DOTDOT
 70
    64
  3
 . .  . .  . .  . .  . .  . . 
 72
    65
 73
     5
 40
0.000242
 49
-0.000110
 49
0.000000
 49
-0.000110
 49
0.000000
 49
-0.000110
  0
ENDTAB
  0
TABLE
  2
STYLE
 70
     2
  0
STYLE
 70
     0
  2
SN0
 40
0.000000
 41
0.000440
 50
0.000000
 71
     0
 42
0.000000
  3
ROMAND
  0
STYLE
 70
    68
  2
SV0
 40
0.000000
 41
0.000440
 50
0.000000
 71
     0
 42
0.000000
  3
ROMAND
  0
ENDTAB
  0
TABLE
  2
LAYER
 70
     3
  0
LAYER
  2
FOREGROUND
 70
    64
 62
     7
  6
CONTINUOUS
  0
LAYER
  2
BACKGROUND
 70
    65
 62
    -7
  6
CONTINUOUS
  0
LAYER
  2
0
 70
    64
 62
     7
  6
CONTINUOUS
  0
ENDTAB
  0
ENDSEC
  0
SECTION
  2
ENTITIES
  0
POLYLINE
  8
FOREGROUND
  6
CONTINUOUS
 66
     1
 40
0.000000
 41
0.000000
  0
VERTEX
  8
FOREGROUND
  6
CONTINUOUS
 10
0.000000
 20
4.715040
  0
VERTEX
  8
FOREGROUND
  6
CONTINUOUS
 10
8.499920
 20
4.715040
  0
VERTEX
  8
FOREGROUND
  6
CONTINUOUS
 10
8.499920
 20
-6.284960
  0
VERTEX
  8
FOREGROUND
  6
CONTINUOUS
 10
0.000000
 20
-6.284960
  0
VERTEX
  8
FOREGROUND
  6
CONTINUOUS
 10
0.000000
 20
4.715040
  0
SEQEND
  8
0
  0
POLYLINE
  8
0
  6
CONTINUOUS
 66
     1
 40
0.014080
 41
0.014080
  0
VERTEX
  8
0
  6
CONTINUOUS
 10
6.100600
 20
3.888720
  0
VERTEX
  8
0
  6
CONTINUOUS
 10
6.105000
 20
3.907200
  0
VERTEX
  8
0
  6
CONTINUOUS
 10
6.117760
 20
3.932720
  0
VERTEX
  8
0
  6
CONTINUOUS
 10
6.136240
 20
3.953400
  0
VERTEX
  8
0
  6
CONTINUOUS
 10
6.151200
 20
3.964400
  0
VERTEX
  8
0
  6
CONTINUOUS
 10
6.177160
 20
3.975400
  0
VERTEX
  8
0
  6
CONTINUOUS
 10
6.196080
 20
3.978920
  0
VERTEX
  8
0
  6
CONTINUOUS
 10
6.215880
 20
3.978920
  0
VERTEX
  8
0
  6
CONTINUOUS
 10
6.235240
 20
3.975400
  0
VERTEX
  8
0
  6
CONTINUOUS
 10
6.252840
 20
3.968800
  0
VERTEX
  8
0
  6
CONTINUOUS
 10
6.276160
 20
3.953400
  0
VERTEX
  8
0
  6
CONTINUOUS
 10
6.294640
 20
3.932720
  0
VERTEX
  8
0
  6
CONTINUOUS
 10
6.303880
 20
3.916000
  0
VERTEX
  8
0
  6
CONTINUOUS
 10
6.310040
 20
3.898400
  0
VERTEX
  8
0
  6
CONTINUOUS
 10
6.311800
 20
3.888720
  0
VERTEX
  8
0
  6
CONTINUOUS
 10
6.311800
 20
3.889160
  0
VERTEX
  8
0
  6
CONTINUOUS
 10
6.311800
 20
3.780040
  0
VERTEX
  8
0
  6
CONTINUOUS
 10
6.550720
 20
3.750560
  0
VERTEX
  8
0
  6
CONTINUOUS
 10
6.548520
 20
3.750560
  0
VERTEX
  8
0
  6
CONTINUOUS
 10
6.554680
 20
3.742200
  0
VERTEX
  8
0
  6
CONTINUOUS
 10
6.559960
 20
3.721960
  0
VERTEX
  8
0
  6
CONTINUOUS
 10
6.564360
 20
3.693360
  0
VERTEX
  8
0
  6
CONTINUOUS
 10
6.567000
 20
3.641440
  0
VERTEX
  8
0
  6
CONTINUOUS
 10
6.565680
 20
3.605800
  0
VERTEX
  8
0
  6
CONTINUOUS
 10
6.560840
 20
3.572800
  0
VERTEX
  8
0
  6
CONTINUOUS
 10
6.552040
 20
3.545960
  0
VERTEX
  8
0
  6
CONTINUOUS
 10
6.545880
 20
3.535840
  0
VERTEX
  8
0
  6
CONTINUOUS
 10
6.317080
 20
3.502840
  0
VERTEX
  8
0
  6
CONTINUOUS
 10
6.312240
 20
3.498880
  0
VERTEX
  8
0
  6
CONTINUOUS
 10
6.312240
 20
3.281520
  0
VERTEX
  8
0
  6
CONTINUOUS
 10
2.206600
 20
3.281520
  0
VERTEX
  8
0
  6
CONTINUOUS
 10
2.202200
 20
3.498880
  0
VERTEX
  8
0
  6
CONTINUOUS
 10
2.438920
 20
3.498880
  0
VERTEX
  8
0
  6
CONTINUOUS
 10
2.450800
 20
3.505480
  0
VERTEX
  8
0
  6
CONTINUOUS
 10
2.465760
 20
3.523960
  0
VERTEX
  8
0
  6
CONTINUOUS
 10
2.476760
 20
3.549480
  0
VERTEX
  8
0
  6
CONTINUOUS
 10
2.485560
 20
3.591720
  0
VERTEX
  8
0
  6
CONTINUOUS
 10
2.487760
 20
3.615040
  0
VERTEX
  8
0
  6
CONTINUOUS
 10
2.488200
 20
3.638800
  0
VERTEX
  8
0
  6
CONTINUOUS
 10
2.484680
 20
3.685440
  0
VERTEX
  8
0
  6
CONTINUOUS
 10
2.478080
 20
3.717560
  0
VERTEX
  8
0
  6
CONTINUOUS
 10
2.467960
 20
3.744400
  0
VERTEX
  8
0
  6
CONTINUOUS
 10
2.455200
 20
3.764200
  0
VERTEX
  8
0
  6
CONTINUOUS
 10
2.444640
 20
3.772560
  0
VERTEX
  8
0
  6
CONTINUOUS
 10
2.438920
 20
3.774760
  0
VERTEX
  8
0
  6
CONTINUOUS
 10
2.194720
 20
3.774760
  0
VERTEX
  8
0
  6
CONTINUOUS
 10
2.192080
 20
4.021600
  0
VERTEX
  8
0
  6
CONTINUOUS
 10
5.306840
 20
4.021600
  0
VERTEX
  8
0
  6
CONTINUOUS
 10
5.320480
 20
3.888280
  0
VERTEX
  8
0
  6
CONTINUOUS
 10
5.320480
 20
3.888720
  0
VERTEX
  8
0
  6
CONTINUOUS
 10
5.356120
 20
3.889160
  0
VERTEX
  8
0
  6
CONTINUOUS
 10
5.360960
 20
3.907640
  0
VERTEX
  8
0
  6
CONTINUOUS
 10
5.368440
 20
3.924800
  0
VERTEX
  8
0
  6
CONTINUOUS
 10
5.385160
 20
3.947240
  0
VERTEX
  8
0
  6
CONTINUOUS
 10
5.407160
 20
3.964400
  0
VERTEX
  8
0
  6
CONTINUOUS
 10
5.423880
 20
3.972320
  0
VERTEX
  8
0
  6
CONTINUOUS
 10
5.442360
 20
3.977600
  0
VERTEX
  8
0
  6
CONTINUOUS
 10
5.461720
 20
3.979360
  0
VERTEX
  8
0
  6
CONTINUOUS
 10
5.481520
 20
3.977600
  0
VERTEX
  8
0
  6
CONTINUOUS
 10
5.508360
 20
3.968800
  0
VERTEX
  8
0
  6
CONTINUOUS
 10
5.524200
 20
3.959120
  0
VERTEX
  8
0
  6
CONTINUOUS
 10
5.538280
 20
3.947240
  0
VERTEX
  8
0
  6
CONTINUOUS
 10
5.555000
 20
3.924800
  0
VERTEX
  8
0
  6
CONTINUOUS
 10
5.562920
 20
3.907640
  0
VERTEX
  8
0
  6
CONTINUOUS
 10
5.567320
 20
3.888720
  0
VERTEX
  8
0
  6
CONTINUOUS
 10
5.603400
 20
3.888720
  0
VERTEX
  8
0
  6
CONTINUOUS
 10
5.602960
 20
3.888280
  0
VERTEX
  8
0
  6
CONTINUOUS
 10
5.604720
 20
3.897960
  0
VERTEX
  8
0
  6
CONTINUOUS
 10
5.615280
 20
3.924360
  0
VERTEX
  8
0
  6
CONTINUOUS
 10
5.625840
 20
3.939760
  0
VERTEX
  8
0
  6
CONTINUOUS
 10
5.646080
 20
3.958680
  0
VERTEX
  8
0
  6
CONTINUOUS
 10
5.661920
 20
3.968360
  0
VERTEX
  8
0
  6
CONTINUOUS
 10
5.679520
 20
3.974960
  0
VERTEX
  8
0
  6
CONTINUOUS
 10
5.698880
 20
3.978480
  0
VERTEX
  8
0
  6
CONTINUOUS
 10
5.718680
 20
3.978480
  0
VERTEX
  8
0
  6
CONTINUOUS
 10
5.737600
 20
3.974960
  0
VERTEX
  8
0
  6
CONTINUOUS
 10
5.763560
 20
3.963960
  0
VERTEX
  8
0
  6
CONTINUOUS
 10
5.785560
 20
3.946360
  0
VERTEX
  8
0
  6
CONTINUOUS
 10
5.797000
 20
3.932280
  0
VERTEX
  8
0
  6
CONTINUOUS
 10
5.809760
 20
3.906760
  0
VERTEX
  8
0
  6
CONTINUOUS
 10
5.814160
 20
3.888280
  0
VERTEX
  8
0
  6
CONTINUOUS
 10
5.851120
 20
3.888720
  0
VERTEX
  8
0
  6
CONTINUOUS
 10
5.851120
 20
3.888280
  0
VERTEX
  8
0
  6
CONTINUOUS
 10
5.852880
 20
3.897960
  0
VERTEX
  8
0
  6
CONTINUOUS
 10
5.863440
 20
3.924360
  0
VERTEX
  8
0
  6
CONTINUOUS
 10
5.874000
 20
3.939760
  0
VERTEX
  8
0
  6
CONTINUOUS
 10
5.894240
 20
3.958680
  0
VERTEX
  8
0
  6
CONTINUOUS
 10
5.910080
 20
3.968360
  0
VERTEX
  8
0
  6
CONTINUOUS
 10
5.927680
 20
3.974960
  0
VERTEX
  8
0
  6
CONTINUOUS
 10
5.947040
 20
3.978480
  0
VERTEX
  8
0
  6
CONTINUOUS
 10
5.966840
 20
3.978480
  0
VERTEX
  8
0
  6
CONTINUOUS
 10
5.985760
 20
3.974960
  0
VERTEX
  8
0
  6
CONTINUOUS
 10
6.011720
 20
3.963960
  0
VERTEX
  8
0
  6
CONTINUOUS
 10
6.026680
 20
3.952960
  0
VERTEX
  8
0
  6
CONTINUOUS
 10
6.045160
 20
3.932280
  0
VERTEX
  8
0
  6
CONTINUOUS
 10
6.057920
 20
3.906760
  0
VERTEX
  8
0
  6
CONTINUOUS
 10
6.062320
 20
3.888280
  0
VERTEX
  8
0
  6
CONTINUOUS
 10
6.100600
 20
3.888720
  0
SEQEND
  8
0
  0
SOLID
  8
0
 62
    15
 10
5.714720
 20
1.864720
 11
5.716920
 21
2.637360
 12
5.734080
 22
1.866480
 13
5.736280
 23
2.639120
  0
POLYLINE
  8
0
  6
CONTINUOUS
 66
     1
 40
0.000000
 41
0.000000
  0
VERTEX
  8
0
  6
CONTINUOUS
 10
5.714720
 20
1.864720
  0
VERTEX
  8
0
  6
CONTINUOUS
 10
5.716920
 20
2.637360
  0
VERTEX
  8
0
  6
CONTINUOUS
 10
5.736280
 20
2.639120
  0
VERTEX
  8
0
  6
CONTINUOUS
 10
5.734080
 20
1.866480
  0
VERTEX
  8
0
  6
CONTINUOUS
 10
5.714720
 20
1.864720
  0
SEQEND
  8
0
  0
SOLID
  8
0
 62
    15
 10
6.377360
 20
1.794320
 11
6.379560
 21
2.566960
 12
6.385280
 22
1.811480
 13
6.387480
 23
2.584120
  0
POLYLINE
  8
0
  6
CONTINUOUS
 66
     1
 40
0.000000
 41
0.000000
  0
VERTEX
  8
0
  6
CONTINUOUS
 10
6.377360
 20
1.794320
  0
VERTEX
  8
0
  6
CONTINUOUS
 10
6.379560
 20
2.566960
  0
VERTEX
  8
0
  6
CONTINUOUS
 10
6.387480
 20
2.584120
  0
VERTEX
  8
0
  6
CONTINUOUS
 10
6.385280
 20
1.811480
  0
VERTEX
  8
0
  6
CONTINUOUS
 10
6.377360
 20
1.794320
  0
SEQEND
  8
0
  0
SOLID
  8
0
 62
    15
 10
6.385280
 20
1.811480
 11
6.387480
 21
2.584120
 12
6.408600
 22
1.840520
 13
6.410800
 23
2.613160
  0
POLYLINE
  8
0
  6
CONTINUOUS
 66
     1
 40
0.000000
 41
0.000000
  0
VERTEX
  8
0
  6
CONTINUOUS
 10
6.385280
 20
1.811480
  0
VERTEX
  8
0
  6
CONTINUOUS
 10
6.387480
 20
2.584120
  0
VERTEX
  8
0
  6
CONTINUOUS
 10
6.410800
 20
2.613160
  0
VERTEX
  8
0
  6
CONTINUOUS
 10
6.408600
 20
1.840520
  0
VERTEX
  8
0
  6
CONTINUOUS
 10
6.385280
 20
1.811480
  0
SEQEND
  8
0
  0
SOLID
  8
0
 62
    15
 10
6.408600
 20
1.840520
 11
6.410800
 21
2.613160
 12
6.440720
 22
1.859440
 13
6.442920
 23
2.632080
  0
POLYLINE
  8
0
  6
CONTINUOUS
 66
     1
 40
0.000000
 41
0.000000
  0
VERTEX
  8
0
  6
CONTINUOUS
 10
6.408600
 20
1.840520
  0
VERTEX
  8
0
  6
CONTINUOUS
 10
6.410800
 20
2.613160
  0
VERTEX
  8
0
  6
CONTINUOUS
 10
6.442920
 20
2.632080
  0
VERTEX
  8
0
  6
CONTINUOUS
 10
6.440720
 20
1.859440
  0
VERTEX
  8
0
  6
CONTINUOUS
 10
6.408600
 20
1.840520
  0
SEQEND
  8
0
  0
SOLID
  8
0
 62
    15
 10
6.440720
 20
1.859440
 11
6.442920
 21
2.632080
 12
6.459200
 22
1.864720
 13
6.460960
 23
2.637360
  0
POLYLINE
  8
0
  6
CONTINUOUS
 66
     1
 40
0.000000
 41
0.000000
  0
VERTEX
  8
0
  6
CONTINUOUS
 10
6.440720
 20
1.859440
  0
VERTEX
  8
0
  6
CONTINUOUS
 10
6.442920
 20
2.632080
  0
VERTEX
  8
0
  6
CONTINUOUS
 10
6.460960
 20
2.637360
  0
VERTEX
  8
0
  6
CONTINUOUS
 10
6.459200
 20
1.864720
  0
VERTEX
  8
0
  6
CONTINUOUS
 10
6.440720
 20
1.859440
  0
SEQEND
  8
0
  0
SOLID
  8
0
 62
    15
 10
6.459200
 20
1.864720
 11
6.460960
 21
2.637360
 12
6.478560
 22
1.866480
 13
6.480760
 23
2.639120
  0
POLYLINE
  8
0
  6
CONTINUOUS
 66
     1
 40
0.000000
 41
0.000000
  0
VERTEX
  8
0
  6
CONTINUOUS
 10
6.459200
 20
1.864720
  0
VERTEX
  8
0
  6
CONTINUOUS
 10
6.460960
 20
2.637360
  0
VERTEX
  8
0
  6
CONTINUOUS
 10
6.480760
 20
2.639120
  0
VERTEX
  8
0
  6
CONTINUOUS
 10
6.478560
 20
1.866480
  0
VERTEX
  8
0
  6
CONTINUOUS
 10
6.459200
 20
1.864720
  0
SEQEND
  8
0
  0
SOLID
  8
0
 62
    15
 10
6.478560
 20
1.866480
 11
6.480760
 21
2.639120
 12
6.498360
 22
1.864720
 13
6.500120
 23
2.637360
  0
POLYLINE
  8
0
  6
CONTINUOUS
 66
     1
 40
0.000000
 41
0.000000
  0
VERTEX
  8
0
  6
CONTINUOUS
 10
6.478560
 20
1.866480
  0
VERTEX
  8
0
  6
CONTINUOUS
 10
6.480760
 20
2.639120
  0
VERTEX
  8
0
  6
CONTINUOUS
 10
6.500120
 20
2.637360
  0
VERTEX
  8
0
  6
CONTINUOUS
 10
6.498360
 20
1.864720
  0
VERTEX
  8
0
  6
CONTINUOUS
 10
6.478560
 20
1.866480
  0
SEQEND
  8
0
  0
SOLID
  8
0
 62
    15
 10
6.498360
 20
1.864720
 11
6.500120
 21
2.637360
 12
6.516400
 22
1.859440
 13
6.518600
 23
2.632080
  0
POLYLINE
  8
0
  6
CONTINUOUS
 66
     1
 40
0.000000
 41
0.000000
  0
VERTEX
  8
0
  6
CONTINUOUS
 10
6.498360
 20
1.864720
  0
VERTEX
  8
0
  6
CONTINUOUS
 10
6.500120
 20
2.637360
  0
VERTEX
  8
0
  6
CONTINUOUS
 10
6.518600
 20
2.632080
  0
VERTEX
  8
0
  6
CONTINUOUS
 10
6.516400
 20
1.859440
  0
VERTEX
  8
0
  6
CONTINUOUS
 10
6.498360
 20
1.864720
  0
SEQEND
  8
0
  0
SOLID
  8
0
 62
    15
 10
6.516400
 20
1.859440
 11
6.518600
 21
2.632080
 12
6.548520
 22
1.840520
 13
6.550720
 23
2.613160
  0
POLYLINE
  8
0
  6
CONTINUOUS
 66
     1
 40
0.000000
 41
0.000000
  0
VERTEX
  8
0
  6
CONTINUOUS
 10
6.516400
 20
1.859440
  0
VERTEX
  8
0
  6
CONTINUOUS
 10
6.518600
 20
2.632080
  0
VERTEX
  8
0
  6
CONTINUOUS
 10
6.550720
 20
2.613160
  0
VERTEX
  8
0
  6
CONTINUOUS
 10
6.548520
 20
1.840520
  0
VERTEX
  8
0
  6
CONTINUOUS
 10
6.516400
 20
1.859440
  0
SEQEND
  8
0
  0
SOLID
  8
0
 62
    15
 10
6.548520
 20
1.840520
 11
6.550720
 21
2.613160
 12
6.571840
 22
1.811480
 13
6.574040
 23
2.584120
  0
POLYLINE
  8
0
  6
CONTINUOUS
 66
     1
 40
0.000000
 41
0.000000
  0
VERTEX
  8
0
  6
CONTINUOUS
 10
6.548520
 20
1.840520
  0
VERTEX
  8
0
  6
CONTINUOUS
 10
6.550720
 20
2.613160
  0
VERTEX
  8
0
  6
CONTINUOUS
 10
6.574040
 20
2.584120
  0
VERTEX
  8
0
  6
CONTINUOUS
 10
6.571840
 20
1.811480
  0
VERTEX
  8
0
  6
CONTINUOUS
 10
6.548520
 20
1.840520
  0
SEQEND
  8
0
  0
SOLID
  8
0
 62
    15
 10
6.827040
 20
1.629320
 11
6.828800
 21
2.401960
 12
6.832320
 22
1.608640
 13
6.834520
 23
2.381280
  0
POLYLINE
  8
0
  6
CONTINUOUS
 66
     1
 40
0.000000
 41
0.000000
  0
VERTEX
  8
0
  6
CONTINUOUS
 10
6.827040
 20
1.629320
  0
VERTEX
  8
0
  6
CONTINUOUS
 10
6.828800
 20
2.401960
  0
VERTEX
  8
0
  6
CONTINUOUS
 10
6.834520
 20
2.381280
  0
VERTEX
  8
0
  6
CONTINUOUS
 10
6.832320
 20
1.608640
  0
VERTEX
  8
0
  6
CONTINUOUS
 10
6.827040
 20
1.629320
  0
SEQEND
  8
0
  0
SOLID
  8
0
 62
    15
 10
6.820880
 20
1.637680
 11
6.823080
 21
2.410320
 12
6.827040
 22
1.629320
 13
6.828800
 23
2.401960
  0
POLYLINE
  8
0
  6
CONTINUOUS
 66
     1
 40
0.000000
 41
0.000000
  0
VERTEX
  8
0
  6
CONTINUOUS
 10
6.820880
 20
1.637680
  0
VERTEX
  8
0
  6
CONTINUOUS
 10
6.823080
 20
2.410320
  0
VERTEX
  8
0
  6
CONTINUOUS
 10
6.828800
 20
2.401960
  0
VERTEX
  8
0
  6
CONTINUOUS
 10
6.827040
 20
1.629320
  0
VERTEX
  8
0
  6
CONTINUOUS
 10
6.820880
 20
1.637680
  0
SEQEND
  8
0
  0
SOLID
  8
0
 62
    15
 10
6.585040
 20
1.386000
 11
6.586800
 21
2.158640
 12
6.585040
 22
1.168640
 13
6.586800
 23
1.941280
  0
POLYLINE
  8
0
  6
CONTINUOUS
 66
     1
 40
0.000000
 41
0.000000
  0
VERTEX
  8
0
  6
CONTINUOUS
 10
6.585040
 20
1.386000
  0
VERTEX
  8
0
  6
CONTINUOUS
 10
6.586800
 20
2.158640
  0
VERTEX
  8
0
  6
CONTINUOUS
 10
6.586800
 20
1.941280
  0
VERTEX
  8
0
  6
CONTINUOUS
 10
6.585040
 20
1.168640
  0
VERTEX
  8
0
  6
CONTINUOUS
 10
6.585040
 20
1.386000
  0
SEQEND
  8
0
  0
SOLID
  8
0
 62
    15
 10
6.584160
 20
1.667160
 11
6.586360
 21
2.439800
 12
6.823080
 22
1.637680
 13
6.825280
 23
2.410320
  0
POLYLINE
  8
0
  6
CONTINUOUS
 66
     1
 40
0.000000
 41
0.000000
  0
VERTEX
  8
0
  6
CONTINUOUS
 10
6.584160
 20
1.667160
  0
VERTEX
  8
0
  6
CONTINUOUS
 10
6.586360
 20
2.439800
  0
VERTEX
  8
0
  6
CONTINUOUS
 10
6.825280
 20
2.410320
  0
VERTEX
  8
0
  6
CONTINUOUS
 10
6.823080
 20
1.637680
  0
VERTEX
  8
0
  6
CONTINUOUS
 10
6.584160
 20
1.667160
  0
SEQEND
  8
0
  0
SOLID
  8
0
 62
    15
 10
6.584600
 20
1.776280
 11
6.586800
 21
2.548920
 12
6.584600
 22
1.668040
 13
6.586800
 23
2.440680
  0
POLYLINE
  8
0
  6
CONTINUOUS
 66
     1
 40
0.000000
 41
0.000000
  0
VERTEX
  8
0
  6
CONTINUOUS
 10
6.584600
 20
1.776280
  0
VERTEX
  8
0
  6
CONTINUOUS
 10
6.586800
 20
2.548920
  0
VERTEX
  8
0
  6
CONTINUOUS
 10
6.586800
 20
2.440680
  0
VERTEX
  8
0
  6
CONTINUOUS
 10
6.584600
 20
1.668040
  0
VERTEX
  8
0
  6
CONTINUOUS
 10
6.584600
 20
1.776280
  0
SEQEND
  8
0
  0
SOLID
  8
0
 62
    15
 10
6.584160
 20
1.775840
 11
6.586360
 21
2.548480
 12
6.584600
 22
1.776280
 13
6.586800
 23
2.548920
  0
POLYLINE
  8
0
  6
CONTINUOUS
 66
     1
 40
0.000000
 41
0.000000
  0
VERTEX
  8
0
  6
CONTINUOUS
 10
6.584160
 20
1.775840
  0
VERTEX
  8
0
  6
CONTINUOUS
 10
6.586360
 20
2.548480
  0
VERTEX
  8
0
  6
CONTINUOUS
 10
6.586800
 20
2.548920
  0
VERTEX
  8
0
  6
CONTINUOUS
 10
6.584600
 20
1.776280
  0
VERTEX
  8
0
  6
CONTINUOUS
 10
6.584160
 20
1.775840
  0
SEQEND
  8
0
  0
SOLID
  8
0
 62
    15
 10
6.579760
 20
1.794320
 11
6.581520
 21
2.566960
 12
6.584160
 22
1.775840
 13
6.586360
 23
2.548480
  0
POLYLINE
  8
0
  6
CONTINUOUS
 66
     1
 40
0.000000
 41
0.000000
  0
VERTEX
  8
0
  6
CONTINUOUS
 10
6.579760
 20
1.794320
  0
VERTEX
  8
0
  6
CONTINUOUS
 10
6.581520
 20
2.566960
  0
VERTEX
  8
0
  6
CONTINUOUS
 10
6.586360
 20
2.548480
  0
VERTEX
  8
0
  6
CONTINUOUS
 10
6.584160
 20
1.775840
  0
VERTEX
  8
0
  6
CONTINUOUS
 10
6.579760
 20
1.794320
  0
SEQEND
  8
0
  0
SOLID
  8
0
 62
    15
 10
6.832320
 20
1.608640
 11
6.834520
 21
2.381280
 12
6.836720
 22
1.580040
 13
6.838920
 23
2.352680
  0
POLYLINE
  8
0
  6
CONTINUOUS
 66
     1
 40
0.000000
 41
0.000000
  0
VERTEX
  8
0
  6
CONTINUOUS
 10
6.832320
 20
1.608640
  0
VERTEX
  8
0
  6
CONTINUOUS
 10
6.834520
 20
2.381280
  0
VERTEX
  8
0
  6
CONTINUOUS
 10
6.838920
 20
2.352680
  0
VERTEX
  8
0
  6
CONTINUOUS
 10
6.836720
 20
1.580040
  0
VERTEX
  8
0
  6
CONTINUOUS
 10
6.832320
 20
1.608640
  0
SEQEND
  8
0
  0
SOLID
  8
0
 62
    15
 10
6.836720
 20
1.580040
 11
6.838920
 21
2.352680
 12
6.838920
 22
1.546160
 13
6.841120
 23
2.318800
  0
POLYLINE
  8
0
  6
CONTINUOUS
 66
     1
 40
0.000000
 41
0.000000
  0
VERTEX
  8
0
  6
CONTINUOUS
 10
6.836720
 20
1.580040
  0
VERTEX
  8
0
  6
CONTINUOUS
 10
6.838920
 20
2.352680
  0
VERTEX
  8
0
  6
CONTINUOUS
 10
6.841120
 20
2.318800
  0
VERTEX
  8
0
  6
CONTINUOUS
 10
6.838920
 20
1.546160
  0
VERTEX
  8
0
  6
CONTINUOUS
 10
6.836720
 20
1.580040
  0
SEQEND
  8
0
  0
SOLID
  8
0
 62
    15
 10
6.571840
 20
1.811480
 11
6.574040
 21
2.584120
 12
6.579760
 22
1.794320
 13
6.581520
 23
2.566960
  0
POLYLINE
  8
0
  6
CONTINUOUS
 66
     1
 40
0.000000
 41
0.000000
  0
VERTEX
  8
0
  6
CONTINUOUS
 10
6.571840
 20
1.811480
  0
VERTEX
  8
0
  6
CONTINUOUS
 10
6.574040
 20
2.584120
  0
VERTEX
  8
0
  6
CONTINUOUS
 10
6.581520
 20
2.566960
  0
VERTEX
  8
0
  6
CONTINUOUS
 10
6.579760
 20
1.794320
  0
VERTEX
  8
0
  6
CONTINUOUS
 10
6.571840
 20
1.811480
  0
SEQEND
  8
0
  0
SOLID
  8
0
 62
    15
 10
2.474560
 20
1.386000
 11
2.476760
 21
2.158640
 12
2.711280
 22
1.386000
 13
2.713480
 23
2.158640
  0
POLYLINE
  8
0
  6
CONTINUOUS
 66
     1
 40
0.000000
 41
0.000000
  0
VERTEX
  8
0
  6
CONTINUOUS
 10
2.474560
 20
1.386000
  0
VERTEX
  8
0
  6
CONTINUOUS
 10
2.476760
 20
2.158640
  0
VERTEX
  8
0
  6
CONTINUOUS
 10
2.713480
 20
2.158640
  0
VERTEX
  8
0
  6
CONTINUOUS
 10
2.711280
 20
1.386000
  0
VERTEX
  8
0
  6
CONTINUOUS
 10
2.474560
 20
1.386000
  0
SEQEND
  8
0
  0
SOLID
  8
0
 62
    15
 10
2.711280
 20
1.386000
 11
2.713480
 21
2.158640
 12
2.723160
 22
1.393040
 13
2.725360
 23
2.165680
  0
POLYLINE
  8
0
  6
CONTINUOUS
 66
     1
 40
0.000000
 41
0.000000
  0
VERTEX
  8
0
  6
CONTINUOUS
 10
2.711280
 20
1.386000
  0
VERTEX
  8
0
  6
CONTINUOUS
 10
2.713480
 20
2.158640
  0
VERTEX
  8
0
  6
CONTINUOUS
 10
2.725360
 20
2.165680
  0
VERTEX
  8
0
  6
CONTINUOUS
 10
2.723160
 20
1.393040
  0
VERTEX
  8
0
  6
CONTINUOUS
 10
2.711280
 20
1.386000
  0
SEQEND
  8
0
  0
SOLID
  8
0
 62
    15
 10
2.723160
 20
1.393040
 11
2.725360
 21
2.165680
 12
2.733280
 22
1.404040
 13
2.735480
 23
2.176680
  0
POLYLINE
  8
0
  6
CONTINUOUS
 66
     1
 40
0.000000
 41
0.000000
  0
VERTEX
  8
0
  6
CONTINUOUS
 10
2.723160
 20
1.393040
  0
VERTEX
  8
0
  6
CONTINUOUS
 10
2.725360
 20
2.165680
  0
VERTEX
  8
0
  6
CONTINUOUS
 10
2.735480
 20
2.176680
  0
VERTEX
  8
0
  6
CONTINUOUS
 10
2.733280
 20
1.404040
  0
VERTEX
  8
0
  6
CONTINUOUS
 10
2.723160
 20
1.393040
  0
SEQEND
  8
0
  0
SOLID
  8
0
 62
    15
 10
2.733280
 20
1.404040
 11
2.735480
 21
2.176680
 12
2.742080
 22
1.419000
 13
2.743840
 23
2.191200
  0
POLYLINE
  8
0
  6
CONTINUOUS
 66
     1
 40
0.000000
 41
0.000000
  0
VERTEX
  8
0
  6
CONTINUOUS
 10
2.733280
 20
1.404040
  0
VERTEX
  8
0
  6
CONTINUOUS
 10
2.735480
 20
2.176680
  0
VERTEX
  8
0
  6
CONTINUOUS
 10
2.743840
 20
2.191200
  0
VERTEX
  8
0
  6
CONTINUOUS
 10
2.742080
 20
1.419000
  0
VERTEX
  8
0
  6
CONTINUOUS
 10
2.733280
 20
1.404040
  0
SEQEND
  8
0
  0
SOLID
  8
0
 62
    15
 10
2.742080
 20
1.419000
 11
2.743840
 21
2.191200
 12
2.748680
 22
1.436600
 13
2.750880
 23
2.209240
  0
POLYLINE
  8
0
  6
CONTINUOUS
 66
     1
 40
0.000000
 41
0.000000
  0
VERTEX
  8
0
  6
CONTINUOUS
 10
2.742080
 20
1.419000
  0
VERTEX
  8
0
  6
CONTINUOUS
 10
2.743840
 20
2.191200
  0
VERTEX
  8
0
  6
CONTINUOUS
 10
2.750880
 20
2.209240
  0
VERTEX
  8
0
  6
CONTINUOUS
 10
2.748680
 20
1.436600
  0
VERTEX
  8
0
  6
CONTINUOUS
 10
2.742080
 20
1.419000
  0
SEQEND
  8
0
  0
SOLID
  8
0
 62
    15
 10
2.748680
 20
1.436600
 11
2.750880
 21
2.209240
 12
2.757920
 22
1.478840
 13
2.759680
 23
2.251480
  0
POLYLINE
  8
0
  6
CONTINUOUS
 66
     1
 40
0.000000
 41
0.000000
  0
VERTEX
  8
0
  6
CONTINUOUS
 10
2.748680
 20
1.436600
  0
VERTEX
  8
0
  6
CONTINUOUS
 10
2.750880
 20
2.209240
  0
VERTEX
  8
0
  6
CONTINUOUS
 10
2.759680
 20
2.251480
  0
VERTEX
  8
0
  6
CONTINUOUS
 10
2.757920
 20
1.478840
  0
VERTEX
  8
0
  6
CONTINUOUS
 10
2.748680
 20
1.436600
  0
SEQEND
  8
0
  0
SOLID
  8
0
 62
    15
 10
2.757920
 20
1.478840
 11
2.759680
 21
2.251480
 12
2.760560
 22
1.525920
 13
2.762320
 23
2.298560
  0
POLYLINE
  8
0
  6
CONTINUOUS
 66
     1
 40
0.000000
 41
0.000000
  0
VERTEX
  8
0
  6
CONTINUOUS
 10
2.757920
 20
1.478840
  0
VERTEX
  8
0
  6
CONTINUOUS
 10
2.759680
 20
2.251480
  0
VERTEX
  8
0
  6
CONTINUOUS
 10
2.762320
 20
2.298560
  0
VERTEX
  8
0
  6
CONTINUOUS
 10
2.760560
 20
1.525920
  0
VERTEX
  8
0
  6
CONTINUOUS
 10
2.757920
 20
1.478840
  0
SEQEND
  8
0
  0
SOLID
  8
0
 62
    15
 10
5.592840
 20
1.775400
 11
5.595040
 21
2.548040
 12
5.628040
 22
1.775400
 13
5.630240
 23
2.548040
  0
POLYLINE
  8
0
  6
CONTINUOUS
 66
     1
 40
0.000000
 41
0.000000
  0
VERTEX
  8
0
  6
CONTINUOUS
 10
5.592840
 20
1.775400
  0
VERTEX
  8
0
  6
CONTINUOUS
 10
5.595040
 20
2.548040
  0
VERTEX
  8
0
  6
CONTINUOUS
 10
5.630240
 20
2.548040
  0
VERTEX
  8
0
  6
CONTINUOUS
 10
5.628040
 20
1.775400
  0
VERTEX
  8
0
  6
CONTINUOUS
 10
5.592840
 20
1.775400
  0
SEQEND
  8
0
  0
SOLID
  8
0
 62
    15
 10
5.579200
 20
1.908720
 11
5.581400
 21
2.681360
 12
5.592840
 22
1.775400
 13
5.595040
 23
2.548040
  0
POLYLINE
  8
0
  6
CONTINUOUS
 66
     1
 40
0.000000
 41
0.000000
  0
VERTEX
  8
0
  6
CONTINUOUS
 10
5.579200
 20
1.908720
  0
VERTEX
  8
0
  6
CONTINUOUS
 10
5.581400
 20
2.681360
  0
VERTEX
  8
0
  6
CONTINUOUS
 10
5.595040
 20
2.548040
  0
VERTEX
  8
0
  6
CONTINUOUS
 10
5.592840
 20
1.775400
  0
VERTEX
  8
0
  6
CONTINUOUS
 10
5.579200
 20
1.908720
  0
SEQEND
  8
0
  0
SOLID
  8
0
 62
    15
 10
2.464440
 20
1.908720
 11
2.466640
 21
2.681360
 12
5.579200
 22
1.908720
 13
5.581400
 23
2.681360
  0
POLYLINE
  8
0
  6
CONTINUOUS
 66
     1
 40
0.000000
 41
0.000000
  0
VERTEX
  8
0
  6
CONTINUOUS
 10
2.464440
 20
1.908720
  0
VERTEX
  8
0
  6
CONTINUOUS
 10
2.466640
 20
2.681360
  0
VERTEX
  8
0
  6
CONTINUOUS
 10
5.581400
 20
2.681360
  0
VERTEX
  8
0
  6
CONTINUOUS
 10
5.579200
 20
1.908720
  0
VERTEX
  8
0
  6
CONTINUOUS
 10
2.464440
 20
1.908720
  0
SEQEND
  8
0
  0
SOLID
  8
0
 62
    15
 10
5.628040
 20
1.775400
 11
5.630240
 21
2.548040
 12
5.628480
 22
1.776280
 13
5.630680
 23
2.548920
  0
POLYLINE
  8
0
  6
CONTINUOUS
 66
     1
 40
0.000000
 41
0.000000
  0
VERTEX
  8
0
  6
CONTINUOUS
 10
5.628040
 20
1.775400
  0
VERTEX
  8
0
  6
CONTINUOUS
 10
5.630240
 20
2.548040
  0
VERTEX
  8
0
  6
CONTINUOUS
 10
5.630680
 20
2.548920
  0
VERTEX
  8
0
  6
CONTINUOUS
 10
5.628480
 20
1.776280
  0
VERTEX
  8
0
  6
CONTINUOUS
 10
5.628040
 20
1.775400
  0
SEQEND
  8
0
  0
SOLID
  8
0
 62
    15
 10
5.628480
 20
1.776280
 11
5.630680
 21
2.548920
 12
5.633320
 22
1.794760
 13
5.635520
 23
2.567400
  0
POLYLINE
  8
0
  6
CONTINUOUS
 66
     1
 40
0.000000
 41
0.000000
  0
VERTEX
  8
0
  6
CONTINUOUS
 10
5.628480
 20
1.776280
  0
VERTEX
  8
0
  6
CONTINUOUS
 10
5.630680
 20
2.548920
  0
VERTEX
  8
0
  6
CONTINUOUS
 10
5.635520
 20
2.567400
  0
VERTEX
  8
0
  6
CONTINUOUS
 10
5.633320
 20
1.794760
  0
VERTEX
  8
0
  6
CONTINUOUS
 10
5.628480
 20
1.776280
  0
SEQEND
  8
0
  0
SOLID
  8
0
 62
    15
 10
5.633320
 20
1.794760
 11
5.635520
 21
2.567400
 12
5.640800
 22
1.811920
 13
5.643000
 23
2.584560
  0
POLYLINE
  8
0
  6
CONTINUOUS
 66
     1
 40
0.000000
 41
0.000000
  0
VERTEX
  8
0
  6
CONTINUOUS
 10
5.633320
 20
1.794760
  0
VERTEX
  8
0
  6
CONTINUOUS
 10
5.635520
 20
2.567400
  0
VERTEX
  8
0
  6
CONTINUOUS
 10
5.643000
 20
2.584560
  0
VERTEX
  8
0
  6
CONTINUOUS
 10
5.640800
 20
1.811920
  0
VERTEX
  8
0
  6
CONTINUOUS
 10
5.633320
 20
1.794760
  0
SEQEND
  8
0
  0
SOLID
  8
0
 62
    15
 10
5.640800
 20
1.811920
 11
5.643000
 21
2.584560
 12
5.664120
 22
1.840520
 13
5.666320
 23
2.613160
  0
POLYLINE
  8
0
  6
CONTINUOUS
 66
     1
 40
0.000000
 41
0.000000
  0
VERTEX
  8
0
  6
CONTINUOUS
 10
5.640800
 20
1.811920
  0
VERTEX
  8
0
  6
CONTINUOUS
 10
5.643000
 20
2.584560
  0
VERTEX
  8
0
  6
CONTINUOUS
 10
5.666320
 20
2.613160
  0
VERTEX
  8
0
  6
CONTINUOUS
 10
5.664120
 20
1.840520
  0
VERTEX
  8
0
  6
CONTINUOUS
 10
5.640800
 20
1.811920
  0
SEQEND
  8
0
  0
SOLID
  8
0
 62
    15
 10
5.664120
 20
1.840520
 11
5.666320
 21
2.613160
 12
5.696240
 22
1.859440
 13
5.698440
 23
2.632080
  0
POLYLINE
  8
0
  6
CONTINUOUS
 66
     1
 40
0.000000
 41
0.000000
  0
VERTEX
  8
0
  6
CONTINUOUS
 10
5.664120
 20
1.840520
  0
VERTEX
  8
0
  6
CONTINUOUS
 10
5.666320
 20
2.613160
  0
VERTEX
  8
0
  6
CONTINUOUS
 10
5.698440
 20
2.632080
  0
VERTEX
  8
0
  6
CONTINUOUS
 10
5.696240
 20
1.859440
  0
VERTEX
  8
0
  6
CONTINUOUS
 10
5.664120
 20
1.840520
  0
SEQEND
  8
0
  0
SOLID
  8
0
 62
    15
 10
5.696240
 20
1.859440
 11
5.698440
 21
2.632080
 12
5.714720
 22
1.864720
 13
5.716920
 23
2.637360
  0
POLYLINE
  8
0
  6
CONTINUOUS
 66
     1
 40
0.000000
 41
0.000000
  0
VERTEX
  8
0
  6
CONTINUOUS
 10
5.696240
 20
1.859440
  0
VERTEX
  8
0
  6
CONTINUOUS
 10
5.698440
 20
2.632080
  0
VERTEX
  8
0
  6
CONTINUOUS
 10
5.716920
 20
2.637360
  0
VERTEX
  8
0
  6
CONTINUOUS
 10
5.714720
 20
1.864720
  0
VERTEX
  8
0
  6
CONTINUOUS
 10
5.696240
 20
1.859440
  0
SEQEND
  8
0
  0
SOLID
  8
0
 62
    15
 10
6.372960
 20
1.775840
 11
6.375160
 21
2.548480
 12
6.377360
 22
1.794320
 13
6.379560
 23
2.566960
  0
POLYLINE
  8
0
  6
CONTINUOUS
 66
     1
 40
0.000000
 41
0.000000
  0
VERTEX
  8
0
  6
CONTINUOUS
 10
6.372960
 20
1.775840
  0
VERTEX
  8
0
  6
CONTINUOUS
 10
6.375160
 20
2.548480
  0
VERTEX
  8
0
  6
CONTINUOUS
 10
6.379560
 20
2.566960
  0
VERTEX
  8
0
  6
CONTINUOUS
 10
6.377360
 20
1.794320
  0
VERTEX
  8
0
  6
CONTINUOUS
 10
6.372960
 20
1.775840
  0
SEQEND
  8
0
  0
SOLID
  8
0
 62
    15
 10
5.734080
 20
1.866480
 11
5.736280
 21
2.639120
 12
5.753880
 22
1.864720
 13
5.756080
 23
2.637360
  0
POLYLINE
  8
0
  6
CONTINUOUS
 66
     1
 40
0.000000
 41
0.000000
  0
VERTEX
  8
0
  6
CONTINUOUS
 10
5.734080
 20
1.866480
  0
VERTEX
  8
0
  6
CONTINUOUS
 10
5.736280
 20
2.639120
  0
VERTEX
  8
0
  6
CONTINUOUS
 10
5.756080
 20
2.637360
  0
VERTEX
  8
0
  6
CONTINUOUS
 10
5.753880
 20
1.864720
  0
VERTEX
  8
0
  6
CONTINUOUS
 10
5.734080
 20
1.866480
  0
SEQEND
  8
0
  0
SOLID
  8
0
 62
    15
 10
5.753880
 20
1.864720
 11
5.756080
 21
2.637360
 12
5.772360
 22
1.859440
 13
5.774120
 23
2.632080
  0
POLYLINE
  8
0
  6
CONTINUOUS
 66
     1
 40
0.000000
 41
0.000000
  0
VERTEX
  8
0
  6
CONTINUOUS
 10
5.753880
 20
1.864720
  0
VERTEX
  8
0
  6
CONTINUOUS
 10
5.756080
 20
2.637360
  0
VERTEX
  8
0
  6
CONTINUOUS
 10
5.774120
 20
2.632080
  0
VERTEX
  8
0
  6
CONTINUOUS
 10
5.772360
 20
1.859440
  0
VERTEX
  8
0
  6
CONTINUOUS
 10
5.753880
 20
1.864720
  0
SEQEND
  8
0
  0
SOLID
  8
0
 62
    15
 10
5.772360
 20
1.859440
 11
5.774120
 21
2.632080
 12
5.804040
 22
1.840520
 13
5.806240
 23
2.613160
  0
POLYLINE
  8
0
  6
CONTINUOUS
 66
     1
 40
0.000000
 41
0.000000
  0
VERTEX
  8
0
  6
CONTINUOUS
 10
5.772360
 20
1.859440
  0
VERTEX
  8
0
  6
CONTINUOUS
 10
5.774120
 20
2.632080
  0
VERTEX
  8
0
  6
CONTINUOUS
 10
5.806240
 20
2.613160
  0
VERTEX
  8
0
  6
CONTINUOUS
 10
5.804040
 20
1.840520
  0
VERTEX
  8
0
  6
CONTINUOUS
 10
5.772360
 20
1.859440
  0
SEQEND
  8
0
  0
SOLID
  8
0
 62
    15
 10
5.804040
 20
1.840520
 11
5.806240
 21
2.613160
 12
5.827360
 22
1.811920
 13
5.829560
 23
2.584560
  0
POLYLINE
  8
0
  6
CONTINUOUS
 66
     1
 40
0.000000
 41
0.000000
  0
VERTEX
  8
0
  6
CONTINUOUS
 10
5.804040
 20
1.840520
  0
VERTEX
  8
0
  6
CONTINUOUS
 10
5.806240
 20
2.613160
  0
VERTEX
  8
0
  6
CONTINUOUS
 10
5.829560
 20
2.584560
  0
VERTEX
  8
0
  6
CONTINUOUS
 10
5.827360
 20
1.811920
  0
VERTEX
  8
0
  6
CONTINUOUS
 10
5.804040
 20
1.840520
  0
SEQEND
  8
0
  0
SOLID
  8
0
 62
    15
 10
5.827360
 20
1.811920
 11
5.829560
 21
2.584560
 12
5.835280
 22
1.794760
 13
5.837480
 23
2.567400
  0
POLYLINE
  8
0
  6
CONTINUOUS
 66
     1
 40
0.000000
 41
0.000000
  0
VERTEX
  8
0
  6
CONTINUOUS
 10
5.827360
 20
1.811920
  0
VERTEX
  8
0
  6
CONTINUOUS
 10
5.829560
 20
2.584560
  0
VERTEX
  8
0
  6
CONTINUOUS
 10
5.837480
 20
2.567400
  0
VERTEX
  8
0
  6
CONTINUOUS
 10
5.835280
 20
1.794760
  0
VERTEX
  8
0
  6
CONTINUOUS
 10
5.827360
 20
1.811920
  0
SEQEND
  8
0
  0
SOLID
  8
0
 62
    15
 10
5.877960
 20
2.548040
 11
5.876200
 21
1.775400
 12
5.877960
 22
2.548040
 13
5.875760
 23
1.775400
  0
POLYLINE
  8
0
  6
CONTINUOUS
 66
     1
 40
0.000000
 41
0.000000
  0
VERTEX
  8
0
  6
CONTINUOUS
 10
5.877960
 20
2.548040
  0
VERTEX
  8
0
  6
CONTINUOUS
 10
5.876200
 20
1.775400
  0
VERTEX
  8
0
  6
CONTINUOUS
 10
5.875760
 20
1.775400
  0
VERTEX
  8
0
  6
CONTINUOUS
 10
5.877960
 20
2.548040
  0
SEQEND
  8
0
  0
SOLID
  8
0
 62
    15
 10
5.875760
 20
1.775400
 11
5.877960
 21
2.548040
 12
5.880160
 22
1.793880
 13
5.882360
 23
2.566520
  0
POLYLINE
  8
0
  6
CONTINUOUS
 66
     1
 40
0.000000
 41
0.000000
  0
VERTEX
  8
0
  6
CONTINUOUS
 10
5.875760
 20
1.775400
  0
VERTEX
  8
0
  6
CONTINUOUS
 10
5.877960
 20
2.548040
  0
VERTEX
  8
0
  6
CONTINUOUS
 10
5.882360
 20
2.566520
  0
VERTEX
  8
0
  6
CONTINUOUS
 10
5.880160
 20
1.793880
  0
VERTEX
  8
0
  6
CONTINUOUS
 10
5.875760
 20
1.775400
  0
SEQEND
  8
0
  0
SOLID
  8
0
 62
    15
 10
5.839680
 20
1.775400
 11
5.841880
 21
2.548040
 12
5.875760
 22
1.775400
 13
5.877960
 23
2.548040
  0
POLYLINE
  8
0
  6
CONTINUOUS
 66
     1
 40
0.000000
 41
0.000000
  0
VERTEX
  8
0
  6
CONTINUOUS
 10
5.839680
 20
1.775400
  0
VERTEX
  8
0
  6
CONTINUOUS
 10
5.841880
 20
2.548040
  0
VERTEX
  8
0
  6
CONTINUOUS
 10
5.877960
 20
2.548040
  0
VERTEX
  8
0
  6
CONTINUOUS
 10
5.875760
 20
1.775400
  0
VERTEX
  8
0
  6
CONTINUOUS
 10
5.839680
 20
1.775400
  0
SEQEND
  8
0
  0
SOLID
  8
0
 62
    15
 10
5.835280
 20
1.794760
 11
5.837480
 21
2.567400
 12
5.839680
 22
1.776280
 13
5.841880
 23
2.548920
  0
POLYLINE
  8
0
  6
CONTINUOUS
 66
     1
 40
0.000000
 41
0.000000
  0
VERTEX
  8
0
  6
CONTINUOUS
 10
5.835280
 20
1.794760
  0
VERTEX
  8
0
  6
CONTINUOUS
 10
5.837480
 20
2.567400
  0
VERTEX
  8
0
  6
CONTINUOUS
 10
5.841880
 20
2.548920
  0
VERTEX
  8
0
  6
CONTINUOUS
 10
5.839680
 20
1.776280
  0
VERTEX
  8
0
  6
CONTINUOUS
 10
5.835280
 20
1.794760
  0
SEQEND
  8
0
  0
SOLID
  8
0
 62
    15
 10
5.880160
 20
1.793880
 11
5.882360
 21
2.566520
 12
5.888080
 22
1.811040
 13
5.889840
 23
2.583680
  0
POLYLINE
  8
0
  6
CONTINUOUS
 66
     1
 40
0.000000
 41
0.000000
  0
VERTEX
  8
0
  6
CONTINUOUS
 10
5.880160
 20
1.793880
  0
VERTEX
  8
0
  6
CONTINUOUS
 10
5.882360
 20
2.566520
  0
VERTEX
  8
0
  6
CONTINUOUS
 10
5.889840
 20
2.583680
  0
VERTEX
  8
0
  6
CONTINUOUS
 10
5.888080
 20
1.811040
  0
VERTEX
  8
0
  6
CONTINUOUS
 10
5.880160
 20
1.793880
  0
SEQEND
  8
0
  0
SOLID
  8
0
 62
    15
 10
5.888080
 20
1.811040
 11
5.889840
 21
2.583680
 12
5.911400
 22
1.839640
 13
5.913600
 23
2.612280
  0
POLYLINE
  8
0
  6
CONTINUOUS
 66
     1
 40
0.000000
 41
0.000000
  0
VERTEX
  8
0
  6
CONTINUOUS
 10
5.888080
 20
1.811040
  0
VERTEX
  8
0
  6
CONTINUOUS
 10
5.889840
 20
2.583680
  0
VERTEX
  8
0
  6
CONTINUOUS
 10
5.913600
 20
2.612280
  0
VERTEX
  8
0
  6
CONTINUOUS
 10
5.911400
 20
1.839640
  0
VERTEX
  8
0
  6
CONTINUOUS
 10
5.888080
 20
1.811040
  0
SEQEND
  8
0
  0
SOLID
  8
0
 62
    15
 10
5.911400
 20
1.839640
 11
5.913600
 21
2.612280
 12
5.943520
 22
1.859000
 13
5.945280
 23
2.631640
  0
POLYLINE
  8
0
  6
CONTINUOUS
 66
     1
 40
0.000000
 41
0.000000
  0
VERTEX
  8
0
  6
CONTINUOUS
 10
5.911400
 20
1.839640
  0
VERTEX
  8
0
  6
CONTINUOUS
 10
5.913600
 20
2.612280
  0
VERTEX
  8
0
  6
CONTINUOUS
 10
5.945280
 20
2.631640
  0
VERTEX
  8
0
  6
CONTINUOUS
 10
5.943520
 20
1.859000
  0
VERTEX
  8
0
  6
CONTINUOUS
 10
5.911400
 20
1.839640
  0
SEQEND
  8
0
  0
SOLID
  8
0
 62
    15
 10
5.943520
 20
1.859000
 11
5.945280
 21
2.631640
 12
5.961560
 22
1.864280
 13
5.963760
 23
2.636920
  0
POLYLINE
  8
0
  6
CONTINUOUS
 66
     1
 40
0.000000
 41
0.000000
  0
VERTEX
  8
0
  6
CONTINUOUS
 10
5.943520
 20
1.859000
  0
VERTEX
  8
0
  6
CONTINUOUS
 10
5.945280
 20
2.631640
  0
VERTEX
  8
0
  6
CONTINUOUS
 10
5.963760
 20
2.636920
  0
VERTEX
  8
0
  6
CONTINUOUS
 10
5.961560
 20
1.864280
  0
VERTEX
  8
0
  6
CONTINUOUS
 10
5.943520
 20
1.859000
  0
SEQEND
  8
0
  0
SOLID
  8
0
 62
    15
 10
5.961560
 20
1.864280
 11
5.963760
 21
2.636920
 12
5.981360
 22
1.866040
 13
5.983560
 23
2.638680
  0
POLYLINE
  8
0
  6
CONTINUOUS
 66
     1
 40
0.000000
 41
0.000000
  0
VERTEX
  8
0
  6
CONTINUOUS
 10
5.961560
 20
1.864280
  0
VERTEX
  8
0
  6
CONTINUOUS
 10
5.963760
 20
2.636920
  0
VERTEX
  8
0
  6
CONTINUOUS
 10
5.983560
 20
2.638680
  0
VERTEX
  8
0
  6
CONTINUOUS
 10
5.981360
 20
1.866040
  0
VERTEX
  8
0
  6
CONTINUOUS
 10
5.961560
 20
1.864280
  0
SEQEND
  8
0
  0
SOLID
  8
0
 62
    15
 10
5.981360
 20
1.866040
 11
5.983560
 21
2.638680
 12
6.000720
 22
1.864280
 13
6.002920
 23
2.636920
  0
POLYLINE
  8
0
  6
CONTINUOUS
 66
     1
 40
0.000000
 41
0.000000
  0
VERTEX
  8
0
  6
CONTINUOUS
 10
5.981360
 20
1.866040
  0
VERTEX
  8
0
  6
CONTINUOUS
 10
5.983560
 20
2.638680
  0
VERTEX
  8
0
  6
CONTINUOUS
 10
6.002920
 20
2.636920
  0
VERTEX
  8
0
  6
CONTINUOUS
 10
6.000720
 20
1.864280
  0
VERTEX
  8
0
  6
CONTINUOUS
 10
5.981360
 20
1.866040
  0
SEQEND
  8
0
  0
SOLID
  8
0
 62
    15
 10
6.000720
 20
1.864280
 11
6.002920
 21
2.636920
 12
6.019200
 22
1.859000
 13
6.021400
 23
2.631640
  0
POLYLINE
  8
0
  6
CONTINUOUS
 66
     1
 40
0.000000
 41
0.000000
  0
VERTEX
  8
0
  6
CONTINUOUS
 10
6.000720
 20
1.864280
  0
VERTEX
  8
0
  6
CONTINUOUS
 10
6.002920
 20
2.636920
  0
VERTEX
  8
0
  6
CONTINUOUS
 10
6.021400
 20
2.631640
  0
VERTEX
  8
0
  6
CONTINUOUS
 10
6.019200
 20
1.859000
  0
VERTEX
  8
0
  6
CONTINUOUS
 10
6.000720
 20
1.864280
  0
SEQEND
  8
0
  0
SOLID
  8
0
 62
    15
 10
6.019200
 20
1.859000
 11
6.021400
 21
2.631640
 12
6.051320
 22
1.839640
 13
6.053080
 23
2.612280
  0
POLYLINE
  8
0
  6
CONTINUOUS
 66
     1
 40
0.000000
 41
0.000000
  0
VERTEX
  8
0
  6
CONTINUOUS
 10
6.019200
 20
1.859000
  0
VERTEX
  8
0
  6
CONTINUOUS
 10
6.021400
 20
2.631640
  0
VERTEX
  8
0
  6
CONTINUOUS
 10
6.053080
 20
2.612280
  0
VERTEX
  8
0
  6
CONTINUOUS
 10
6.051320
 20
1.839640
  0
VERTEX
  8
0
  6
CONTINUOUS
 10
6.019200
 20
1.859000
  0
SEQEND
  8
0
  0
SOLID
  8
0
 62
    15
 10
6.051320
 20
1.839640
 11
6.053080
 21
2.612280
 12
6.074640
 22
1.811040
 13
6.076840
 23
2.583680
  0
POLYLINE
  8
0
  6
CONTINUOUS
 66
     1
 40
0.000000
 41
0.000000
  0
VERTEX
  8
0
  6
CONTINUOUS
 10
6.051320
 20
1.839640
  0
VERTEX
  8
0
  6
CONTINUOUS
 10
6.053080
 20
2.612280
  0
VERTEX
  8
0
  6
CONTINUOUS
 10
6.076840
 20
2.583680
  0
VERTEX
  8
0
  6
CONTINUOUS
 10
6.074640
 20
1.811040
  0
VERTEX
  8
0
  6
CONTINUOUS
 10
6.051320
 20
1.839640
  0
SEQEND
  8
0
  0
SOLID
  8
0
 62
    15
 10
6.086960
 20
1.775400
 11
6.089160
 21
2.548040
 12
6.087840
 22
1.775400
 13
6.090040
 23
2.548040
  0
POLYLINE
  8
0
  6
CONTINUOUS
 66
     1
 40
0.000000
 41
0.000000
  0
VERTEX
  8
0
  6
CONTINUOUS
 10
6.086960
 20
1.775400
  0
VERTEX
  8
0
  6
CONTINUOUS
 10
6.089160
 20
2.548040
  0
VERTEX
  8
0
  6
CONTINUOUS
 10
6.090040
 20
2.548040
  0
VERTEX
  8
0
  6
CONTINUOUS
 10
6.087840
 20
1.775400
  0
VERTEX
  8
0
  6
CONTINUOUS
 10
6.086960
 20
1.775400
  0
SEQEND
  8
0
  0
SOLID
  8
0
 62
    15
 10
6.082120
 20
1.793880
 11
6.084320
 21
2.566520
 12
6.086960
 22
1.775400
 13
6.089160
 23
2.548040
  0
POLYLINE
  8
0
  6
CONTINUOUS
 66
     1
 40
0.000000
 41
0.000000
  0
VERTEX
  8
0
  6
CONTINUOUS
 10
6.082120
 20
1.793880
  0
VERTEX
  8
0
  6
CONTINUOUS
 10
6.084320
 20
2.566520
  0
VERTEX
  8
0
  6
CONTINUOUS
 10
6.089160
 20
2.548040
  0
VERTEX
  8
0
  6
CONTINUOUS
 10
6.086960
 20
1.775400
  0
VERTEX
  8
0
  6
CONTINUOUS
 10
6.082120
 20
1.793880
  0
SEQEND
  8
0
  0
SOLID
  8
0
 62
    15
 10
6.074640
 20
1.811040
 11
6.076840
 21
2.583680
 12
6.082120
 22
1.793880
 13
6.084320
 23
2.566520
  0
POLYLINE
  8
0
  6
CONTINUOUS
 66
     1
 40
0.000000
 41
0.000000
  0
VERTEX
  8
0
  6
CONTINUOUS
 10
6.074640
 20
1.811040
  0
VERTEX
  8
0
  6
CONTINUOUS
 10
6.076840
 20
2.583680
  0
VERTEX
  8
0
  6
CONTINUOUS
 10
6.084320
 20
2.566520
  0
VERTEX
  8
0
  6
CONTINUOUS
 10
6.082120
 20
1.793880
  0
VERTEX
  8
0
  6
CONTINUOUS
 10
6.074640
 20
1.811040
  0
SEQEND
  8
0
  0
SOLID
  8
0
 62
    15
 10
6.087840
 20
1.775400
 11
6.090040
 21
2.548040
 12
6.123480
 22
1.775400
 13
6.125680
 23
2.548040
  0
POLYLINE
  8
0
  6
CONTINUOUS
 66
     1
 40
0.000000
 41
0.000000
  0
VERTEX
  8
0
  6
CONTINUOUS
 10
6.087840
 20
1.775400
  0
VERTEX
  8
0
  6
CONTINUOUS
 10
6.090040
 20
2.548040
  0
VERTEX
  8
0
  6
CONTINUOUS
 10
6.125680
 20
2.548040
  0
VERTEX
  8
0
  6
CONTINUOUS
 10
6.123480
 20
1.775400
  0
VERTEX
  8
0
  6
CONTINUOUS
 10
6.087840
 20
1.775400
  0
SEQEND
  8
0
  0
POLYLINE
  8
0
  6
CONTINUOUS
 66
     1
 40
0.000000
 41
0.000000
  0
VERTEX
  8
0
  6
CONTINUOUS
 10
6.123480
 20
1.775400
  0
VERTEX
  8
0
  6
CONTINUOUS
 10
6.125680
 20
2.548040
  0
VERTEX
  8
0
  6
CONTINUOUS
 10
6.123480
 20
1.775400
  0
SEQEND
  8
0
  0
SOLID
  8
0
 62
    15
 10
6.123480
 20
1.775400
 11
6.125680
 21
2.548040
 12
6.128320
 22
1.793880
 13
6.130080
 23
2.566520
  0
POLYLINE
  8
0
  6
CONTINUOUS
 66
     1
 40
0.000000
 41
0.000000
  0
VERTEX
  8
0
  6
CONTINUOUS
 10
6.123480
 20
1.775400
  0
VERTEX
  8
0
  6
CONTINUOUS
 10
6.125680
 20
2.548040
  0
VERTEX
  8
0
  6
CONTINUOUS
 10
6.130080
 20
2.566520
  0
VERTEX
  8
0
  6
CONTINUOUS
 10
6.128320
 20
1.793880
  0
VERTEX
  8
0
  6
CONTINUOUS
 10
6.123480
 20
1.775400
  0
SEQEND
  8
0
  0
SOLID
  8
0
 62
    15
 10
6.128320
 20
1.793880
 11
6.130080
 21
2.566520
 12
6.135800
 22
1.811040
 13
6.138000
 23
2.583680
  0
POLYLINE
  8
0
  6
CONTINUOUS
 66
     1
 40
0.000000
 41
0.000000
  0
VERTEX
  8
0
  6
CONTINUOUS
 10
6.128320
 20
1.793880
  0
VERTEX
  8
0
  6
CONTINUOUS
 10
6.130080
 20
2.566520
  0
VERTEX
  8
0
  6
CONTINUOUS
 10
6.138000
 20
2.583680
  0
VERTEX
  8
0
  6
CONTINUOUS
 10
6.135800
 20
1.811040
  0
VERTEX
  8
0
  6
CONTINUOUS
 10
6.128320
 20
1.793880
  0
SEQEND
  8
0
  0
SOLID
  8
0
 62
    15
 10
6.135800
 20
1.811040
 11
6.138000
 21
2.583680
 12
6.159120
 22
1.840080
 13
6.161320
 23
2.612720
  0
POLYLINE
  8
0
  6
CONTINUOUS
 66
     1
 40
0.000000
 41
0.000000
  0
VERTEX
  8
0
  6
CONTINUOUS
 10
6.135800
 20
1.811040
  0
VERTEX
  8
0
  6
CONTINUOUS
 10
6.138000
 20
2.583680
  0
VERTEX
  8
0
  6
CONTINUOUS
 10
6.161320
 20
2.612720
  0
VERTEX
  8
0
  6
CONTINUOUS
 10
6.159120
 20
1.840080
  0
VERTEX
  8
0
  6
CONTINUOUS
 10
6.135800
 20
1.811040
  0
SEQEND
  8
0
  0
SOLID
  8
0
 62
    15
 10
6.159120
 20
1.840080
 11
6.161320
 21
2.612720
 12
6.191240
 22
1.859000
 13
6.193440
 23
2.631640
  0
POLYLINE
  8
0
  6
CONTINUOUS
 66
     1
 40
0.000000
 41
0.000000
  0
VERTEX
  8
0
  6
CONTINUOUS
 10
6.159120
 20
1.840080
  0
VERTEX
  8
0
  6
CONTINUOUS
 10
6.161320
 20
2.612720
  0
VERTEX
  8
0
  6
CONTINUOUS
 10
6.193440
 20
2.631640
  0
VERTEX
  8
0
  6
CONTINUOUS
 10
6.191240
 20
1.859000
  0
VERTEX
  8
0
  6
CONTINUOUS
 10
6.159120
 20
1.840080
  0
SEQEND
  8
0
  0
SOLID
  8
0
 62
    15
 10
6.191240
 20
1.859000
 11
6.193440
 21
2.631640
 12
6.209720
 22
1.864280
 13
6.211920
 23
2.636920
  0
POLYLINE
  8
0
  6
CONTINUOUS
 66
     1
 40
0.000000
 41
0.000000
  0
VERTEX
  8
0
  6
CONTINUOUS
 10
6.191240
 20
1.859000
  0
VERTEX
  8
0
  6
CONTINUOUS
 10
6.193440
 20
2.631640
  0
VERTEX
  8
0
  6
CONTINUOUS
 10
6.211920
 20
2.636920
  0
VERTEX
  8
0
  6
CONTINUOUS
 10
6.209720
 20
1.864280
  0
VERTEX
  8
0
  6
CONTINUOUS
 10
6.191240
 20
1.859000
  0
SEQEND
  8
0
  0
SOLID
  8
0
 62
    15
 10
6.209720
 20
1.864280
 11
6.211920
 21
2.636920
 12
6.229080
 22
1.866040
 13
6.231280
 23
2.638680
  0
POLYLINE
  8
0
  6
CONTINUOUS
 66
     1
 40
0.000000
 41
0.000000
  0
VERTEX
  8
0
  6
CONTINUOUS
 10
6.209720
 20
1.864280
  0
VERTEX
  8
0
  6
CONTINUOUS
 10
6.211920
 20
2.636920
  0
VERTEX
  8
0
  6
CONTINUOUS
 10
6.231280
 20
2.638680
  0
VERTEX
  8
0
  6
CONTINUOUS
 10
6.229080
 20
1.866040
  0
VERTEX
  8
0
  6
CONTINUOUS
 10
6.209720
 20
1.864280
  0
SEQEND
  8
0
  0
SOLID
  8
0
 62
    15
 10
6.229080
 20
1.866040
 11
6.231280
 21
2.638680
 12
6.248880
 22
1.864280
 13
6.251080
 23
2.636920
  0
POLYLINE
  8
0
  6
CONTINUOUS
 66
     1
 40
0.000000
 41
0.000000
  0
VERTEX
  8
0
  6
CONTINUOUS
 10
6.229080
 20
1.866040
  0
VERTEX
  8
0
  6
CONTINUOUS
 10
6.231280
 20
2.638680
  0
VERTEX
  8
0
  6
CONTINUOUS
 10
6.251080
 20
2.636920
  0
VERTEX
  8
0
  6
CONTINUOUS
 10
6.248880
 20
1.864280
  0
VERTEX
  8
0
  6
CONTINUOUS
 10
6.229080
 20
1.866040
  0
SEQEND
  8
0
  0
SOLID
  8
0
 62
    15
 10
6.248880
 20
1.864280
 11
6.251080
 21
2.636920
 12
6.267360
 22
1.859000
 13
6.269120
 23
2.631640
  0
POLYLINE
  8
0
  6
CONTINUOUS
 66
     1
 40
0.000000
 41
0.000000
  0
VERTEX
  8
0
  6
CONTINUOUS
 10
6.248880
 20
1.864280
  0
VERTEX
  8
0
  6
CONTINUOUS
 10
6.251080
 20
2.636920
  0
VERTEX
  8
0
  6
CONTINUOUS
 10
6.269120
 20
2.631640
  0
VERTEX
  8
0
  6
CONTINUOUS
 10
6.267360
 20
1.859000
  0
VERTEX
  8
0
  6
CONTINUOUS
 10
6.248880
 20
1.864280
  0
SEQEND
  8
0
  0
SOLID
  8
0
 62
    15
 10
6.267360
 20
1.859000
 11
6.269120
 21
2.631640
 12
6.299040
 22
1.840080
 13
6.301240
 23
2.612720
  0
POLYLINE
  8
0
  6
CONTINUOUS
 66
     1
 40
0.000000
 41
0.000000
  0
VERTEX
  8
0
  6
CONTINUOUS
 10
6.267360
 20
1.859000
  0
VERTEX
  8
0
  6
CONTINUOUS
 10
6.269120
 20
2.631640
  0
VERTEX
  8
0
  6
CONTINUOUS
 10
6.301240
 20
2.612720
  0
VERTEX
  8
0
  6
CONTINUOUS
 10
6.299040
 20
1.840080
  0
VERTEX
  8
0
  6
CONTINUOUS
 10
6.267360
 20
1.859000
  0
SEQEND
  8
0
  0
SOLID
  8
0
 62
    15
 10
6.299040
 20
1.840080
 11
6.301240
 21
2.612720
 12
6.322360
 22
1.811040
 13
6.324560
 23
2.583680
  0
POLYLINE
  8
0
  6
CONTINUOUS
 66
     1
 40
0.000000
 41
0.000000
  0
VERTEX
  8
0
  6
CONTINUOUS
 10
6.299040
 20
1.840080
  0
VERTEX
  8
0
  6
CONTINUOUS
 10
6.301240
 20
2.612720
  0
VERTEX
  8
0
  6
CONTINUOUS
 10
6.324560
 20
2.583680
  0
VERTEX
  8
0
  6
CONTINUOUS
 10
6.322360
 20
1.811040
  0
VERTEX
  8
0
  6
CONTINUOUS
 10
6.299040
 20
1.840080
  0
SEQEND
  8
0
  0
SOLID
  8
0
 62
    15
 10
6.334680
 20
1.775400
 11
6.336880
 21
2.548040
 12
6.372960
 22
1.775840
 13
6.375160
 23
2.548480
  0
POLYLINE
  8
0
  6
CONTINUOUS
 66
     1
 40
0.000000
 41
0.000000
  0
VERTEX
  8
0
  6
CONTINUOUS
 10
6.334680
 20
1.775400
  0
VERTEX
  8
0
  6
CONTINUOUS
 10
6.336880
 20
2.548040
  0
VERTEX
  8
0
  6
CONTINUOUS
 10
6.375160
 20
2.548480
  0
VERTEX
  8
0
  6
CONTINUOUS
 10
6.372960
 20
1.775840
  0
VERTEX
  8
0
  6
CONTINUOUS
 10
6.334680
 20
1.775400
  0
SEQEND
  8
0
  0
SOLID
  8
0
 62
    15
 10
6.330280
 20
1.793880
 11
6.332480
 21
2.566520
 12
6.334680
 22
1.775400
 13
6.336880
 23
2.548040
  0
POLYLINE
  8
0
  6
CONTINUOUS
 66
     1
 40
0.000000
 41
0.000000
  0
VERTEX
  8
0
  6
CONTINUOUS
 10
6.330280
 20
1.793880
  0
VERTEX
  8
0
  6
CONTINUOUS
 10
6.332480
 20
2.566520
  0
VERTEX
  8
0
  6
CONTINUOUS
 10
6.336880
 20
2.548040
  0
VERTEX
  8
0
  6
CONTINUOUS
 10
6.334680
 20
1.775400
  0
VERTEX
  8
0
  6
CONTINUOUS
 10
6.330280
 20
1.793880
  0
SEQEND
  8
0
  0
SOLID
  8
0
 62
    15
 10
6.322360
 20
1.811040
 11
6.324560
 21
2.583680
 12
6.330280
 22
1.793880
 13
6.332480
 23
2.566520
  0
POLYLINE
  8
0
  6
CONTINUOUS
 66
     1
 40
0.000000
 41
0.000000
  0
VERTEX
  8
0
  6
CONTINUOUS
 10
6.322360
 20
1.811040
  0
VERTEX
  8
0
  6
CONTINUOUS
 10
6.324560
 20
2.583680
  0
VERTEX
  8
0
  6
CONTINUOUS
 10
6.332480
 20
2.566520
  0
VERTEX
  8
0
  6
CONTINUOUS
 10
6.330280
 20
1.793880
  0
VERTEX
  8
0
  6
CONTINUOUS
 10
6.322360
 20
1.811040
  0
SEQEND
  8
0
  0
POLYLINE
  8
0
  6
CONTINUOUS
 66
     1
 40
0.000000
 41
0.000000
  0
VERTEX
  8
0
  6
CONTINUOUS
 10
6.372960
 20
1.775840
  0
VERTEX
  8
0
  6
CONTINUOUS
 10
6.377360
 20
1.794320
  0
VERTEX
  8
0
  6
CONTINUOUS
 10
6.385280
 20
1.811480
  0
VERTEX
  8
0
  6
CONTINUOUS
 10
6.408600
 20
1.840520
  0
VERTEX
  8
0
  6
CONTINUOUS
 10
6.440720
 20
1.859440
  0
VERTEX
  8
0
  6
CONTINUOUS
 10
6.459200
 20
1.864720
  0
VERTEX
  8
0
  6
CONTINUOUS
 10
6.478560
 20
1.866480
  0
VERTEX
  8
0
  6
CONTINUOUS
 10
6.498360
 20
1.864720
  0
VERTEX
  8
0
  6
CONTINUOUS
 10
6.516400
 20
1.859440
  0
VERTEX
  8
0
  6
CONTINUOUS
 10
6.548520
 20
1.840520
  0
VERTEX
  8
0
  6
CONTINUOUS
 10
6.571840
 20
1.811480
  0
VERTEX
  8
0
  6
CONTINUOUS
 10
6.579760
 20
1.794320
  0
VERTEX
  8
0
  6
CONTINUOUS
 10
6.584160
 20
1.775840
  0
VERTEX
  8
0
  6
CONTINUOUS
 10
6.584600
 20
1.776280
  0
VERTEX
  8
0
  6
CONTINUOUS
 10
6.584160
 20
1.667160
  0
VERTEX
  8
0
  6
CONTINUOUS
 10
6.823080
 20
1.637680
  0
VERTEX
  8
0
  6
CONTINUOUS
 10
6.820880
 20
1.637680
  0
VERTEX
  8
0
  6
CONTINUOUS
 10
6.827040
 20
1.629320
  0
VERTEX
  8
0
  6
CONTINUOUS
 10
6.832320
 20
1.608640
  0
VERTEX
  8
0
  6
CONTINUOUS
 10
6.836720
 20
1.580040
  0
VERTEX
  8
0
  6
CONTINUOUS
 10
6.838920
 20
1.546160
  0
VERTEX
  8
0
  6
CONTINUOUS
 10
6.836280
 20
1.475760
  0
VERTEX
  8
0
  6
CONTINUOUS
 10
6.829240
 20
1.445840
  0
VERTEX
  8
0
  6
CONTINUOUS
 10
6.818680
 20
1.422960
  0
VERTEX
  8
0
  6
CONTINUOUS
 10
6.589440
 20
1.389960
  0
VERTEX
  8
0
  6
CONTINUOUS
 10
6.585040
 20
1.386000
  0
VERTEX
  8
0
  6
CONTINUOUS
 10
6.585040
 20
1.168640
  0
VERTEX
  8
0
  6
CONTINUOUS
 10
2.478960
 20
1.168200
  0
VERTEX
  8
0
  6
CONTINUOUS
 10
2.474560
 20
1.386000
  0
VERTEX
  8
0
  6
CONTINUOUS
 10
2.711280
 20
1.386000
  0
VERTEX
  8
0
  6
CONTINUOUS
 10
2.723160
 20
1.393040
  0
VERTEX
  8
0
  6
CONTINUOUS
 10
2.733280
 20
1.404040
  0
VERTEX
  8
0
  6
CONTINUOUS
 10
2.742080
 20
1.419000
  0
VERTEX
  8
0
  6
CONTINUOUS
 10
2.748680
 20
1.436600
  0
VERTEX
  8
0
  6
CONTINUOUS
 10
2.757920
 20
1.478840
  0
VERTEX
  8
0
  6
CONTINUOUS
 10
2.760560
 20
1.525920
  0
VERTEX
  8
0
  6
CONTINUOUS
 10
2.756600
 20
1.572560
  0
VERTEX
  8
0
  6
CONTINUOUS
 10
2.747360
 20
1.614360
  0
VERTEX
  8
0
  6
CONTINUOUS
 10
2.740320
 20
1.631520
  0
VERTEX
  8
0
  6
CONTINUOUS
 10
2.731960
 20
1.645600
  0
VERTEX
  8
0
  6
CONTINUOUS
 10
2.722280
 20
1.656160
  0
VERTEX
  8
0
  6
CONTINUOUS
 10
2.711280
 20
1.661880
  0
VERTEX
  8
0
  6
CONTINUOUS
 10
2.467080
 20
1.661880
  0
VERTEX
  8
0
  6
CONTINUOUS
 10
2.464440
 20
1.908720
  0
VERTEX
  8
0
  6
CONTINUOUS
 10
5.579200
 20
1.908720
  0
VERTEX
  8
0
  6
CONTINUOUS
 10
5.592840
 20
1.775400
  0
VERTEX
  8
0
  6
CONTINUOUS
 10
5.628040
 20
1.775400
  0
VERTEX
  8
0
  6
CONTINUOUS
 10
5.633320
 20
1.794760
  0
VERTEX
  8
0
  6
CONTINUOUS
 10
5.640800
 20
1.811920
  0
VERTEX
  8
0
  6
CONTINUOUS
 10
5.664120
 20
1.840520
  0
VERTEX
  8
0
  6
CONTINUOUS
 10
5.696240
 20
1.859440
  0
VERTEX
  8
0
  6
CONTINUOUS
 10
5.714720
 20
1.864720
  0
VERTEX
  8
0
  6
CONTINUOUS
 10
5.734080
 20
1.866480
  0
VERTEX
  8
0
  6
CONTINUOUS
 10
5.753880
 20
1.864720
  0
VERTEX
  8
0
  6
CONTINUOUS
 10
5.772360
 20
1.859440
  0
VERTEX
  8
0
  6
CONTINUOUS
 10
5.804040
 20
1.840520
  0
VERTEX
  8
0
  6
CONTINUOUS
 10
5.827360
 20
1.811920
  0
VERTEX
  8
0
  6
CONTINUOUS
 10
5.835280
 20
1.794760
  0
VERTEX
  8
0
  6
CONTINUOUS
 10
5.839680
 20
1.775400
  0
VERTEX
  8
0
  6
CONTINUOUS
 10
5.876200
 20
1.775400
  0
VERTEX
  8
0
  6
CONTINUOUS
 10
5.875760
 20
1.775400
  0
VERTEX
  8
0
  6
CONTINUOUS
 10
5.880160
 20
1.793880
  0
VERTEX
  8
0
  6
CONTINUOUS
 10
5.888080
 20
1.811040
  0
VERTEX
  8
0
  6
CONTINUOUS
 10
5.911400
 20
1.839640
  0
VERTEX
  8
0
  6
CONTINUOUS
 10
5.943520
 20
1.859000
  0
VERTEX
  8
0
  6
CONTINUOUS
 10
5.961560
 20
1.864280
  0
VERTEX
  8
0
  6
CONTINUOUS
 10
5.981360
 20
1.866040
  0
VERTEX
  8
0
  6
CONTINUOUS
 10
6.000720
 20
1.864280
  0
VERTEX
  8
0
  6
CONTINUOUS
 10
6.019200
 20
1.859000
  0
VERTEX
  8
0
  6
CONTINUOUS
 10
6.051320
 20
1.839640
  0
VERTEX
  8
0
  6
CONTINUOUS
 10
6.074640
 20
1.811040
  0
VERTEX
  8
0
  6
CONTINUOUS
 10
6.082120
 20
1.793880
  0
VERTEX
  8
0
  6
CONTINUOUS
 10
6.086960
 20
1.775400
  0
VERTEX
  8
0
  6
CONTINUOUS
 10
6.123480
 20
1.775400
  0
VERTEX
  8
0
  6
CONTINUOUS
 10
6.128320
 20
1.793880
  0
VERTEX
  8
0
  6
CONTINUOUS
 10
6.135800
 20
1.811040
  0
VERTEX
  8
0
  6
CONTINUOUS
 10
6.159120
 20
1.840080
  0
VERTEX
  8
0
  6
CONTINUOUS
 10
6.191240
 20
1.859000
  0
VERTEX
  8
0
  6
CONTINUOUS
 10
6.209720
 20
1.864280
  0
VERTEX
  8
0
  6
CONTINUOUS
 10
6.229080
 20
1.866040
  0
VERTEX
  8
0
  6
CONTINUOUS
 10
6.248880
 20
1.864280
  0
VERTEX
  8
0
  6
CONTINUOUS
 10
6.267360
 20
1.859000
  0
VERTEX
  8
0
  6
CONTINUOUS
 10
6.299040
 20
1.840080
  0
VERTEX
  8
0
  6
CONTINUOUS
 10
6.322360
 20
1.811040
  0
VERTEX
  8
0
  6
CONTINUOUS
 10
6.330280
 20
1.793880
  0
VERTEX
  8
0
  6
CONTINUOUS
 10
6.334680
 20
1.775400
  0
VERTEX
  8
0
  6
CONTINUOUS
 10
6.372960
 20
1.775840
  0
SEQEND
  8
0
  0
TEXT
  8
0
 10
4.358640
 20
0.920920
 40
0.138103
  1
BA  407
 41
1.000000
  7
SN0
 71
     0
 72
     5
 11
4.950074
 21
0.920920
  0
TEXT
  8
0
 10
4.202880
 20
0.729520
 40
0.138103
  1
3/4" x 4-1/2"
 41
1.000000
  7
SN0
 71
     0
 72
     5
 11
5.105865
 21
0.729520
  0
ENDSEC
  0
EOF
