  0
SECTION
  2
HEADER
  9
$ACADVER
  1
AC1006
  9
$EXTMIN
 10
1.169080
 20
5.641680
  9
$EXTMAX
 10
7.276280
 20
9.804520
  9
$LTSCALE
 40
0.044000
  9
$PDMODE
 70
    35
  9
$PDSIZE
 40
0.035200
  0
ENDSEC
  0
SECTION
  2
TABLES
  0
TABLE
  2
LTYPE
 70
     9
  0
LTYPE
  2
CONTINUOUS
 70
    64
  3
Solid line
 72
    65
 73
     0
 40
0.000000
  0
LTYPE
  2
DASHED
 70
    64
  3
__ __ __ __ __ __ __ __ __ __ __ __ __ __ __
 72
    65
 73
     2
 40
0.000330
 49
0.000220
 49
-0.000110
  0
LTYPE
  2
HIDDEN
 70
    64
  3
 _ _ _ _ _ _ _ _ _ _ _ _ _ _ _ _ _ _ _ _ _ _
 72
    65
 73
     2
 40
0.000165
 49
0.000110
 49
-0.000055
  0
LTYPE
  2
CENTER
 70
    64
  3
____ _ ____ _ ____ _ ____ _ ____ _ ____ _ ____
 72
    65
 73
     4
 40
0.000880
 49
0.000550
 49
-0.000110
 49
0.000110
 49
-0.000110
  0
LTYPE
  2
PHANTOM
 70
    64
  3
_____ _ _ _____ _ _ _____ _ _ _____ _ _ ____
 72
    65
 73
     6
 40
0.001100
 49
0.000550
 49
-0.000110
 49
0.000110
 49
-0.000110
 49
0.000110
 49
-0.000110
  0
LTYPE
  2
DOT
 70
    64
  3
...............................................
 72
    65
 73
     2
 40
0.000110
 49
0.000000
 49
-0.000110
  0
LTYPE
  2
DASHDOT
 70
    64
  3
__ . __ . __ . __ . __ . __ . __ . __ . __ . __
 72
    65
 73
     4
 40
0.000440
 49
0.000220
 49
-0.000110
 49
0.000000
 49
-0.000110
  0
LTYPE
  2
BORDER
 70
    64
  3
__ __ . __ __ . __ __ . __ __ . __ __ . __ __
 72
    65
 73
     6
 40
0.000770
 49
0.000220
 49
-0.000110
 49
0.000220
 49
-0.000110
 49
0.000000
 49
-0.000110
  0
LTYPE
  2
DIVIDE
 70
    64
  3
__ . . __ . . __ . . __ . . __ . . __ . . __
 72
    65
 73
     6
 40
0.000550
 49
0.000220
 49
-0.000110
 49
0.000000
 49
-0.000110
 49
0.000000
 49
-0.000110
  0
LTYPE
  2
DOTDOT
 70
    64
  3
 . .  . .  . .  . .  . .  . . 
 72
    65
 73
     5
 40
0.000242
 49
-0.000110
 49
0.000000
 49
-0.000110
 49
0.000000
 49
-0.000110
  0
ENDTAB
  0
TABLE
  2
STYLE
 70
     2
  0
STYLE
 70
     0
  2
SN0
 40
0.000000
 41
0.000440
 50
0.000000
 71
     0
 42
0.000000
  3
ROMAND
  0
STYLE
 70
    68
  2
SV0
 40
0.000000
 41
0.000440
 50
0.000000
 71
     0
 42
0.000000
  3
ROMAND
  0
ENDTAB
  0
TABLE
  2
LAYER
 70
     3
  0
LAYER
  2
FOREGROUND
 70
    64
 62
     7
  6
CONTINUOUS
  0
LAYER
  2
BACKGROUND
 70
    65
 62
    -7
  6
CONTINUOUS
  0
LAYER
  2
0
 70
    64
 62
     7
  6
CONTINUOUS
  0
ENDTAB
  0
ENDSEC
  0
SECTION
  2
ENTITIES
  0
POLYLINE
  8
FOREGROUND
  6
CONTINUOUS
 66
     1
 40
0.000000
 41
0.000000
  0
VERTEX
  8
FOREGROUND
  6
CONTINUOUS
 10
0.000000
 20
15.446200
  0
VERTEX
  8
FOREGROUND
  6
CONTINUOUS
 10
8.499920
 20
15.446200
  0
VERTEX
  8
FOREGROUND
  6
CONTINUOUS
 10
8.499920
 20
4.446200
  0
VERTEX
  8
FOREGROUND
  6
CONTINUOUS
 10
0.000000
 20
4.446200
  0
VERTEX
  8
FOREGROUND
  6
CONTINUOUS
 10
0.000000
 20
15.446200
  0
SEQEND
  8
0
  0
SOLID
  8
0
 62
    15
 10
2.899600
 20
7.116560
 11
2.901800
 21
7.855320
 12
2.944920
 22
7.125800
 13
2.947120
 23
7.864560
  0
POLYLINE
  8
0
  6
CONTINUOUS
 66
     1
 40
0.000000
 41
0.000000
  0
VERTEX
  8
0
  6
CONTINUOUS
 10
2.899600
 20
7.116560
  0
VERTEX
  8
0
  6
CONTINUOUS
 10
2.901800
 20
7.855320
  0
VERTEX
  8
0
  6
CONTINUOUS
 10
2.947120
 20
7.864560
  0
VERTEX
  8
0
  6
CONTINUOUS
 10
2.944920
 20
7.125800
  0
VERTEX
  8
0
  6
CONTINUOUS
 10
2.899600
 20
7.116560
  0
SEQEND
  8
0
  0
SOLID
  8
0
 62
    15
 10
2.277000
 20
6.838920
 11
2.279200
 21
7.577680
 12
2.317480
 22
6.807680
 13
2.319680
 23
7.546440
  0
POLYLINE
  8
0
  6
CONTINUOUS
 66
     1
 40
0.000000
 41
0.000000
  0
VERTEX
  8
0
  6
CONTINUOUS
 10
2.277000
 20
6.838920
  0
VERTEX
  8
0
  6
CONTINUOUS
 10
2.279200
 20
7.577680
  0
VERTEX
  8
0
  6
CONTINUOUS
 10
2.319680
 20
7.546440
  0
VERTEX
  8
0
  6
CONTINUOUS
 10
2.317480
 20
6.807680
  0
VERTEX
  8
0
  6
CONTINUOUS
 10
2.277000
 20
6.838920
  0
SEQEND
  8
0
  0
SOLID
  8
0
 62
    15
 10
2.317480
 20
6.807680
 11
2.319680
 21
7.546440
 12
2.370280
 22
6.790080
 13
2.372920
 23
7.528840
  0
POLYLINE
  8
0
  6
CONTINUOUS
 66
     1
 40
0.000000
 41
0.000000
  0
VERTEX
  8
0
  6
CONTINUOUS
 10
2.317480
 20
6.807680
  0
VERTEX
  8
0
  6
CONTINUOUS
 10
2.319680
 20
7.546440
  0
VERTEX
  8
0
  6
CONTINUOUS
 10
2.372920
 20
7.528840
  0
VERTEX
  8
0
  6
CONTINUOUS
 10
2.370280
 20
6.790080
  0
VERTEX
  8
0
  6
CONTINUOUS
 10
2.317480
 20
6.807680
  0
SEQEND
  8
0
  0
SOLID
  8
0
 62
    15
 10
2.370280
 20
6.790080
 11
2.372920
 21
7.528840
 12
2.401080
 22
6.787880
 13
2.403280
 23
7.526640
  0
POLYLINE
  8
0
  6
CONTINUOUS
 66
     1
 40
0.000000
 41
0.000000
  0
VERTEX
  8
0
  6
CONTINUOUS
 10
2.370280
 20
6.790080
  0
VERTEX
  8
0
  6
CONTINUOUS
 10
2.372920
 20
7.528840
  0
VERTEX
  8
0
  6
CONTINUOUS
 10
2.403280
 20
7.526640
  0
VERTEX
  8
0
  6
CONTINUOUS
 10
2.401080
 20
6.787880
  0
VERTEX
  8
0
  6
CONTINUOUS
 10
2.370280
 20
6.790080
  0
SEQEND
  8
0
  0
SOLID
  8
0
 62
    15
 10
2.401080
 20
6.787880
 11
2.403280
 21
7.526640
 12
2.434080
 22
6.790960
 13
2.436280
 23
7.529720
  0
POLYLINE
  8
0
  6
CONTINUOUS
 66
     1
 40
0.000000
 41
0.000000
  0
VERTEX
  8
0
  6
CONTINUOUS
 10
2.401080
 20
6.787880
  0
VERTEX
  8
0
  6
CONTINUOUS
 10
2.403280
 20
7.526640
  0
VERTEX
  8
0
  6
CONTINUOUS
 10
2.436280
 20
7.529720
  0
VERTEX
  8
0
  6
CONTINUOUS
 10
2.434080
 20
6.790960
  0
VERTEX
  8
0
  6
CONTINUOUS
 10
2.401080
 20
6.787880
  0
SEQEND
  8
0
  0
SOLID
  8
0
 62
    15
 10
2.434080
 20
6.790960
 11
2.436280
 21
7.529720
 12
2.469280
 22
6.800200
 13
2.471480
 23
7.538960
  0
POLYLINE
  8
0
  6
CONTINUOUS
 66
     1
 40
0.000000
 41
0.000000
  0
VERTEX
  8
0
  6
CONTINUOUS
 10
2.434080
 20
6.790960
  0
VERTEX
  8
0
  6
CONTINUOUS
 10
2.436280
 20
7.529720
  0
VERTEX
  8
0
  6
CONTINUOUS
 10
2.471480
 20
7.538960
  0
VERTEX
  8
0
  6
CONTINUOUS
 10
2.469280
 20
6.800200
  0
VERTEX
  8
0
  6
CONTINUOUS
 10
2.434080
 20
6.790960
  0
SEQEND
  8
0
  0
SOLID
  8
0
 62
    15
 10
2.469280
 20
6.800200
 11
2.471480
 21
7.538960
 12
2.506680
 22
6.815600
 13
2.508880
 23
7.554360
  0
POLYLINE
  8
0
  6
CONTINUOUS
 66
     1
 40
0.000000
 41
0.000000
  0
VERTEX
  8
0
  6
CONTINUOUS
 10
2.469280
 20
6.800200
  0
VERTEX
  8
0
  6
CONTINUOUS
 10
2.471480
 20
7.538960
  0
VERTEX
  8
0
  6
CONTINUOUS
 10
2.508880
 20
7.554360
  0
VERTEX
  8
0
  6
CONTINUOUS
 10
2.506680
 20
6.815600
  0
VERTEX
  8
0
  6
CONTINUOUS
 10
2.469280
 20
6.800200
  0
SEQEND
  8
0
  0
SOLID
  8
0
 62
    15
 10
2.506680
 20
6.815600
 11
2.508880
 21
7.554360
 12
2.545400
 22
6.838480
 13
2.548040
 23
7.577240
  0
POLYLINE
  8
0
  6
CONTINUOUS
 66
     1
 40
0.000000
 41
0.000000
  0
VERTEX
  8
0
  6
CONTINUOUS
 10
2.506680
 20
6.815600
  0
VERTEX
  8
0
  6
CONTINUOUS
 10
2.508880
 20
7.554360
  0
VERTEX
  8
0
  6
CONTINUOUS
 10
2.548040
 20
7.577240
  0
VERTEX
  8
0
  6
CONTINUOUS
 10
2.545400
 20
6.838480
  0
VERTEX
  8
0
  6
CONTINUOUS
 10
2.506680
 20
6.815600
  0
SEQEND
  8
0
  0
SOLID
  8
0
 62
    15
 10
2.545400
 20
6.838480
 11
2.548040
 21
7.577240
 12
2.585880
 22
6.869280
 13
2.588520
 23
7.608040
  0
POLYLINE
  8
0
  6
CONTINUOUS
 66
     1
 40
0.000000
 41
0.000000
  0
VERTEX
  8
0
  6
CONTINUOUS
 10
2.545400
 20
6.838480
  0
VERTEX
  8
0
  6
CONTINUOUS
 10
2.548040
 20
7.577240
  0
VERTEX
  8
0
  6
CONTINUOUS
 10
2.588520
 20
7.608040
  0
VERTEX
  8
0
  6
CONTINUOUS
 10
2.585880
 20
6.869280
  0
VERTEX
  8
0
  6
CONTINUOUS
 10
2.545400
 20
6.838480
  0
SEQEND
  8
0
  0
SOLID
  8
0
 62
    15
 10
2.585880
 20
6.869280
 11
2.588520
 21
7.608040
 12
2.627680
 22
6.908440
 13
2.629880
 23
7.647200
  0
POLYLINE
  8
0
  6
CONTINUOUS
 66
     1
 40
0.000000
 41
0.000000
  0
VERTEX
  8
0
  6
CONTINUOUS
 10
2.585880
 20
6.869280
  0
VERTEX
  8
0
  6
CONTINUOUS
 10
2.588520
 20
7.608040
  0
VERTEX
  8
0
  6
CONTINUOUS
 10
2.629880
 20
7.647200
  0
VERTEX
  8
0
  6
CONTINUOUS
 10
2.627680
 20
6.908440
  0
VERTEX
  8
0
  6
CONTINUOUS
 10
2.585880
 20
6.869280
  0
SEQEND
  8
0
  0
SOLID
  8
0
 62
    15
 10
2.627680
 20
6.908440
 11
2.629880
 21
7.647200
 12
2.670360
 22
6.956840
 13
2.673000
 23
7.695600
  0
POLYLINE
  8
0
  6
CONTINUOUS
 66
     1
 40
0.000000
 41
0.000000
  0
VERTEX
  8
0
  6
CONTINUOUS
 10
2.627680
 20
6.908440
  0
VERTEX
  8
0
  6
CONTINUOUS
 10
2.629880
 20
7.647200
  0
VERTEX
  8
0
  6
CONTINUOUS
 10
2.673000
 20
7.695600
  0
VERTEX
  8
0
  6
CONTINUOUS
 10
2.670360
 20
6.956840
  0
VERTEX
  8
0
  6
CONTINUOUS
 10
2.627680
 20
6.908440
  0
SEQEND
  8
0
  0
SOLID
  8
0
 62
    15
 10
2.670360
 20
6.956840
 11
2.673000
 21
7.695600
 12
2.714800
 22
7.005240
 13
2.717000
 23
7.744000
  0
POLYLINE
  8
0
  6
CONTINUOUS
 66
     1
 40
0.000000
 41
0.000000
  0
VERTEX
  8
0
  6
CONTINUOUS
 10
2.670360
 20
6.956840
  0
VERTEX
  8
0
  6
CONTINUOUS
 10
2.673000
 20
7.695600
  0
VERTEX
  8
0
  6
CONTINUOUS
 10
2.717000
 20
7.744000
  0
VERTEX
  8
0
  6
CONTINUOUS
 10
2.714800
 20
7.005240
  0
VERTEX
  8
0
  6
CONTINUOUS
 10
2.670360
 20
6.956840
  0
SEQEND
  8
0
  0
SOLID
  8
0
 62
    15
 10
2.714800
 20
7.005240
 11
2.717000
 21
7.744000
 12
2.760120
 22
7.045280
 13
2.762320
 23
7.784040
  0
POLYLINE
  8
0
  6
CONTINUOUS
 66
     1
 40
0.000000
 41
0.000000
  0
VERTEX
  8
0
  6
CONTINUOUS
 10
2.714800
 20
7.005240
  0
VERTEX
  8
0
  6
CONTINUOUS
 10
2.717000
 20
7.744000
  0
VERTEX
  8
0
  6
CONTINUOUS
 10
2.762320
 20
7.784040
  0
VERTEX
  8
0
  6
CONTINUOUS
 10
2.760120
 20
7.045280
  0
VERTEX
  8
0
  6
CONTINUOUS
 10
2.714800
 20
7.005240
  0
SEQEND
  8
0
  0
SOLID
  8
0
 62
    15
 10
2.760120
 20
7.045280
 11
2.762320
 21
7.784040
 12
2.806760
 22
7.076960
 13
2.808960
 23
7.815720
  0
POLYLINE
  8
0
  6
CONTINUOUS
 66
     1
 40
0.000000
 41
0.000000
  0
VERTEX
  8
0
  6
CONTINUOUS
 10
2.760120
 20
7.045280
  0
VERTEX
  8
0
  6
CONTINUOUS
 10
2.762320
 20
7.784040
  0
VERTEX
  8
0
  6
CONTINUOUS
 10
2.808960
 20
7.815720
  0
VERTEX
  8
0
  6
CONTINUOUS
 10
2.806760
 20
7.076960
  0
VERTEX
  8
0
  6
CONTINUOUS
 10
2.760120
 20
7.045280
  0
SEQEND
  8
0
  0
SOLID
  8
0
 62
    15
 10
2.806760
 20
7.076960
 11
2.808960
 21
7.815720
 12
2.853400
 22
7.100720
 13
2.855600
 23
7.839480
  0
POLYLINE
  8
0
  6
CONTINUOUS
 66
     1
 40
0.000000
 41
0.000000
  0
VERTEX
  8
0
  6
CONTINUOUS
 10
2.806760
 20
7.076960
  0
VERTEX
  8
0
  6
CONTINUOUS
 10
2.808960
 20
7.815720
  0
VERTEX
  8
0
  6
CONTINUOUS
 10
2.855600
 20
7.839480
  0
VERTEX
  8
0
  6
CONTINUOUS
 10
2.853400
 20
7.100720
  0
VERTEX
  8
0
  6
CONTINUOUS
 10
2.806760
 20
7.076960
  0
SEQEND
  8
0
  0
SOLID
  8
0
 62
    15
 10
2.853400
 20
7.100720
 11
2.855600
 21
7.839480
 12
2.899600
 22
7.116560
 13
2.901800
 23
7.855320
  0
POLYLINE
  8
0
  6
CONTINUOUS
 66
     1
 40
0.000000
 41
0.000000
  0
VERTEX
  8
0
  6
CONTINUOUS
 10
2.853400
 20
7.100720
  0
VERTEX
  8
0
  6
CONTINUOUS
 10
2.855600
 20
7.839480
  0
VERTEX
  8
0
  6
CONTINUOUS
 10
2.901800
 20
7.855320
  0
VERTEX
  8
0
  6
CONTINUOUS
 10
2.899600
 20
7.116560
  0
VERTEX
  8
0
  6
CONTINUOUS
 10
2.853400
 20
7.100720
  0
SEQEND
  8
0
  0
SOLID
  8
0
 62
    15
 10
2.250600
 20
6.878520
 11
2.252800
 21
7.617280
 12
2.277000
 22
6.838920
 13
2.279200
 23
7.577680
  0
POLYLINE
  8
0
  6
CONTINUOUS
 66
     1
 40
0.000000
 41
0.000000
  0
VERTEX
  8
0
  6
CONTINUOUS
 10
2.250600
 20
6.878520
  0
VERTEX
  8
0
  6
CONTINUOUS
 10
2.252800
 20
7.617280
  0
VERTEX
  8
0
  6
CONTINUOUS
 10
2.279200
 20
7.577680
  0
VERTEX
  8
0
  6
CONTINUOUS
 10
2.277000
 20
6.838920
  0
VERTEX
  8
0
  6
CONTINUOUS
 10
2.250600
 20
6.878520
  0
SEQEND
  8
0
  0
SOLID
  8
0
 62
    15
 10
2.944920
 20
7.125800
 11
2.947120
 21
7.864560
 12
2.988920
 22
7.128000
 13
2.991120
 23
7.866760
  0
POLYLINE
  8
0
  6
CONTINUOUS
 66
     1
 40
0.000000
 41
0.000000
  0
VERTEX
  8
0
  6
CONTINUOUS
 10
2.944920
 20
7.125800
  0
VERTEX
  8
0
  6
CONTINUOUS
 10
2.947120
 20
7.864560
  0
VERTEX
  8
0
  6
CONTINUOUS
 10
2.991120
 20
7.866760
  0
VERTEX
  8
0
  6
CONTINUOUS
 10
2.988920
 20
7.128000
  0
VERTEX
  8
0
  6
CONTINUOUS
 10
2.944920
 20
7.125800
  0
SEQEND
  8
0
  0
SOLID
  8
0
 62
    15
 10
2.988920
 20
7.128000
 11
2.991120
 21
7.866760
 12
3.031160
 22
7.123600
 13
3.033360
 23
7.862360
  0
POLYLINE
  8
0
  6
CONTINUOUS
 66
     1
 40
0.000000
 41
0.000000
  0
VERTEX
  8
0
  6
CONTINUOUS
 10
2.988920
 20
7.128000
  0
VERTEX
  8
0
  6
CONTINUOUS
 10
2.991120
 20
7.866760
  0
VERTEX
  8
0
  6
CONTINUOUS
 10
3.033360
 20
7.862360
  0
VERTEX
  8
0
  6
CONTINUOUS
 10
3.031160
 20
7.123600
  0
VERTEX
  8
0
  6
CONTINUOUS
 10
2.988920
 20
7.128000
  0
SEQEND
  8
0
  0
SOLID
  8
0
 62
    15
 10
3.031160
 20
7.123600
 11
3.033360
 21
7.862360
 12
3.070320
 22
7.113480
 13
3.072520
 23
7.852240
  0
POLYLINE
  8
0
  6
CONTINUOUS
 66
     1
 40
0.000000
 41
0.000000
  0
VERTEX
  8
0
  6
CONTINUOUS
 10
3.031160
 20
7.123600
  0
VERTEX
  8
0
  6
CONTINUOUS
 10
3.033360
 20
7.862360
  0
VERTEX
  8
0
  6
CONTINUOUS
 10
3.072520
 20
7.852240
  0
VERTEX
  8
0
  6
CONTINUOUS
 10
3.070320
 20
7.113480
  0
VERTEX
  8
0
  6
CONTINUOUS
 10
3.031160
 20
7.123600
  0
SEQEND
  8
0
  0
SOLID
  8
0
 62
    15
 10
3.070320
 20
7.113480
 11
3.072520
 21
7.852240
 12
3.106400
 22
7.098080
 13
3.109040
 23
7.836400
  0
POLYLINE
  8
0
  6
CONTINUOUS
 66
     1
 40
0.000000
 41
0.000000
  0
VERTEX
  8
0
  6
CONTINUOUS
 10
3.070320
 20
7.113480
  0
VERTEX
  8
0
  6
CONTINUOUS
 10
3.072520
 20
7.852240
  0
VERTEX
  8
0
  6
CONTINUOUS
 10
3.109040
 20
7.836400
  0
VERTEX
  8
0
  6
CONTINUOUS
 10
3.106400
 20
7.098080
  0
VERTEX
  8
0
  6
CONTINUOUS
 10
3.070320
 20
7.113480
  0
SEQEND
  8
0
  0
SOLID
  8
0
 62
    15
 10
3.106400
 20
7.098080
 11
3.109040
 21
7.836400
 12
3.138960
 22
7.076960
 13
3.141600
 23
7.815720
  0
POLYLINE
  8
0
  6
CONTINUOUS
 66
     1
 40
0.000000
 41
0.000000
  0
VERTEX
  8
0
  6
CONTINUOUS
 10
3.106400
 20
7.098080
  0
VERTEX
  8
0
  6
CONTINUOUS
 10
3.109040
 20
7.836400
  0
VERTEX
  8
0
  6
CONTINUOUS
 10
3.141600
 20
7.815720
  0
VERTEX
  8
0
  6
CONTINUOUS
 10
3.138960
 20
7.076960
  0
VERTEX
  8
0
  6
CONTINUOUS
 10
3.106400
 20
7.098080
  0
SEQEND
  8
0
  0
SOLID
  8
0
 62
    15
 10
3.138960
 20
7.076960
 11
3.141600
 21
7.815720
 12
3.167560
 22
7.051440
 13
3.169760
 23
7.789760
  0
POLYLINE
  8
0
  6
CONTINUOUS
 66
     1
 40
0.000000
 41
0.000000
  0
VERTEX
  8
0
  6
CONTINUOUS
 10
3.138960
 20
7.076960
  0
VERTEX
  8
0
  6
CONTINUOUS
 10
3.141600
 20
7.815720
  0
VERTEX
  8
0
  6
CONTINUOUS
 10
3.169760
 20
7.789760
  0
VERTEX
  8
0
  6
CONTINUOUS
 10
3.167560
 20
7.051440
  0
VERTEX
  8
0
  6
CONTINUOUS
 10
3.138960
 20
7.076960
  0
SEQEND
  8
0
  0
SOLID
  8
0
 62
    15
 10
3.167560
 20
7.051440
 11
3.169760
 21
7.789760
 12
3.190880
 22
7.021080
 13
3.193080
 23
7.759840
  0
POLYLINE
  8
0
  6
CONTINUOUS
 66
     1
 40
0.000000
 41
0.000000
  0
VERTEX
  8
0
  6
CONTINUOUS
 10
3.167560
 20
7.051440
  0
VERTEX
  8
0
  6
CONTINUOUS
 10
3.169760
 20
7.789760
  0
VERTEX
  8
0
  6
CONTINUOUS
 10
3.193080
 20
7.759840
  0
VERTEX
  8
0
  6
CONTINUOUS
 10
3.190880
 20
7.021080
  0
VERTEX
  8
0
  6
CONTINUOUS
 10
3.167560
 20
7.051440
  0
SEQEND
  8
0
  0
SOLID
  8
0
 62
    15
 10
3.190880
 20
7.021080
 11
3.193080
 21
7.759840
 12
3.208920
 22
6.986760
 13
3.211120
 23
7.725520
  0
POLYLINE
  8
0
  6
CONTINUOUS
 66
     1
 40
0.000000
 41
0.000000
  0
VERTEX
  8
0
  6
CONTINUOUS
 10
3.190880
 20
7.021080
  0
VERTEX
  8
0
  6
CONTINUOUS
 10
3.193080
 20
7.759840
  0
VERTEX
  8
0
  6
CONTINUOUS
 10
3.211120
 20
7.725520
  0
VERTEX
  8
0
  6
CONTINUOUS
 10
3.208920
 20
6.986760
  0
VERTEX
  8
0
  6
CONTINUOUS
 10
3.190880
 20
7.021080
  0
SEQEND
  8
0
  0
SOLID
  8
0
 62
    15
 10
3.208920
 20
6.986760
 11
3.211120
 21
7.725520
 12
3.220800
 22
6.948920
 13
3.223000
 23
7.687680
  0
POLYLINE
  8
0
  6
CONTINUOUS
 66
     1
 40
0.000000
 41
0.000000
  0
VERTEX
  8
0
  6
CONTINUOUS
 10
3.208920
 20
6.986760
  0
VERTEX
  8
0
  6
CONTINUOUS
 10
3.211120
 20
7.725520
  0
VERTEX
  8
0
  6
CONTINUOUS
 10
3.223000
 20
7.687680
  0
VERTEX
  8
0
  6
CONTINUOUS
 10
3.220800
 20
6.948920
  0
VERTEX
  8
0
  6
CONTINUOUS
 10
3.208920
 20
6.986760
  0
SEQEND
  8
0
  0
SOLID
  8
0
 62
    15
 10
4.252160
 20
6.565240
 11
4.254800
 21
7.304000
 12
4.252160
 22
6.071120
 13
4.254800
 23
6.809880
  0
POLYLINE
  8
0
  6
CONTINUOUS
 66
     1
 40
0.000000
 41
0.000000
  0
VERTEX
  8
0
  6
CONTINUOUS
 10
4.252160
 20
6.565240
  0
VERTEX
  8
0
  6
CONTINUOUS
 10
4.254800
 20
7.304000
  0
VERTEX
  8
0
  6
CONTINUOUS
 10
4.254800
 20
6.809880
  0
VERTEX
  8
0
  6
CONTINUOUS
 10
4.252160
 20
6.071120
  0
VERTEX
  8
0
  6
CONTINUOUS
 10
4.252160
 20
6.565240
  0
SEQEND
  8
0
  0
SOLID
  8
0
 62
    15
 10
3.226080
 20
6.565240
 11
3.228720
 21
7.304000
 12
4.252160
 22
6.565240
 13
4.254800
 23
7.304000
  0
POLYLINE
  8
0
  6
CONTINUOUS
 66
     1
 40
0.000000
 41
0.000000
  0
VERTEX
  8
0
  6
CONTINUOUS
 10
3.226080
 20
6.565240
  0
VERTEX
  8
0
  6
CONTINUOUS
 10
3.228720
 20
7.304000
  0
VERTEX
  8
0
  6
CONTINUOUS
 10
4.254800
 20
7.304000
  0
VERTEX
  8
0
  6
CONTINUOUS
 10
4.252160
 20
6.565240
  0
VERTEX
  8
0
  6
CONTINUOUS
 10
3.226080
 20
6.565240
  0
SEQEND
  8
0
  0
SOLID
  8
0
 62
    15
 10
3.226080
 20
6.908000
 11
3.228720
 21
7.646760
 12
3.226080
 22
6.565240
 13
3.228720
 23
7.304000
  0
POLYLINE
  8
0
  6
CONTINUOUS
 66
     1
 40
0.000000
 41
0.000000
  0
VERTEX
  8
0
  6
CONTINUOUS
 10
3.226080
 20
6.908000
  0
VERTEX
  8
0
  6
CONTINUOUS
 10
3.228720
 20
7.646760
  0
VERTEX
  8
0
  6
CONTINUOUS
 10
3.228720
 20
7.304000
  0
VERTEX
  8
0
  6
CONTINUOUS
 10
3.226080
 20
6.565240
  0
VERTEX
  8
0
  6
CONTINUOUS
 10
3.226080
 20
6.908000
  0
SEQEND
  8
0
  0
SOLID
  8
0
 62
    15
 10
3.220800
 20
6.948920
 11
3.223000
 21
7.687680
 12
3.226080
 22
6.908000
 13
3.228720
 23
7.646760
  0
POLYLINE
  8
0
  6
CONTINUOUS
 66
     1
 40
0.000000
 41
0.000000
  0
VERTEX
  8
0
  6
CONTINUOUS
 10
3.220800
 20
6.948920
  0
VERTEX
  8
0
  6
CONTINUOUS
 10
3.223000
 20
7.687680
  0
VERTEX
  8
0
  6
CONTINUOUS
 10
3.228720
 20
7.646760
  0
VERTEX
  8
0
  6
CONTINUOUS
 10
3.226080
 20
6.908000
  0
VERTEX
  8
0
  6
CONTINUOUS
 10
3.220800
 20
6.948920
  0
SEQEND
  8
0
  0
SOLID
  8
0
 62
    15
 10
1.242560
 20
7.322920
 11
1.244760
 21
8.061680
 12
2.216280
 22
7.322920
 13
2.218920
 23
8.061680
  0
POLYLINE
  8
0
  6
CONTINUOUS
 66
     1
 40
0.000000
 41
0.000000
  0
VERTEX
  8
0
  6
CONTINUOUS
 10
1.242560
 20
7.322920
  0
VERTEX
  8
0
  6
CONTINUOUS
 10
1.244760
 20
8.061680
  0
VERTEX
  8
0
  6
CONTINUOUS
 10
2.218920
 20
8.061680
  0
VERTEX
  8
0
  6
CONTINUOUS
 10
2.216280
 20
7.322920
  0
VERTEX
  8
0
  6
CONTINUOUS
 10
1.242560
 20
7.322920
  0
SEQEND
  8
0
  0
SOLID
  8
0
 62
    15
 10
2.216280
 20
7.322920
 11
2.218920
 21
8.061680
 12
2.240920
 22
6.922080
 13
2.243120
 23
7.660400
  0
POLYLINE
  8
0
  6
CONTINUOUS
 66
     1
 40
0.000000
 41
0.000000
  0
VERTEX
  8
0
  6
CONTINUOUS
 10
2.216280
 20
7.322920
  0
VERTEX
  8
0
  6
CONTINUOUS
 10
2.218920
 20
8.061680
  0
VERTEX
  8
0
  6
CONTINUOUS
 10
2.243120
 20
7.660400
  0
VERTEX
  8
0
  6
CONTINUOUS
 10
2.240920
 20
6.922080
  0
VERTEX
  8
0
  6
CONTINUOUS
 10
2.216280
 20
7.322920
  0
SEQEND
  8
0
  0
SOLID
  8
0
 62
    15
 10
2.240920
 20
6.922080
 11
2.243120
 21
7.660400
 12
2.250600
 22
6.878520
 13
2.252800
 23
7.617280
  0
POLYLINE
  8
0
  6
CONTINUOUS
 66
     1
 40
0.000000
 41
0.000000
  0
VERTEX
  8
0
  6
CONTINUOUS
 10
2.240920
 20
6.922080
  0
VERTEX
  8
0
  6
CONTINUOUS
 10
2.243120
 20
7.660400
  0
VERTEX
  8
0
  6
CONTINUOUS
 10
2.252800
 20
7.617280
  0
VERTEX
  8
0
  6
CONTINUOUS
 10
2.250600
 20
6.878520
  0
VERTEX
  8
0
  6
CONTINUOUS
 10
2.240920
 20
6.922080
  0
SEQEND
  8
0
  0
POLYLINE
  8
0
  6
CONTINUOUS
 66
     1
 40
0.000000
 41
0.000000
  0
VERTEX
  8
0
  6
CONTINUOUS
 10
2.250600
 20
6.878520
  0
VERTEX
  8
0
  6
CONTINUOUS
 10
2.277000
 20
6.838920
  0
VERTEX
  8
0
  6
CONTINUOUS
 10
2.317480
 20
6.807680
  0
VERTEX
  8
0
  6
CONTINUOUS
 10
2.370280
 20
6.790080
  0
VERTEX
  8
0
  6
CONTINUOUS
 10
2.401080
 20
6.787880
  0
VERTEX
  8
0
  6
CONTINUOUS
 10
2.434080
 20
6.790960
  0
VERTEX
  8
0
  6
CONTINUOUS
 10
2.469280
 20
6.800200
  0
VERTEX
  8
0
  6
CONTINUOUS
 10
2.506680
 20
6.815600
  0
VERTEX
  8
0
  6
CONTINUOUS
 10
2.545400
 20
6.838480
  0
VERTEX
  8
0
  6
CONTINUOUS
 10
2.585880
 20
6.869280
  0
VERTEX
  8
0
  6
CONTINUOUS
 10
2.627680
 20
6.908440
  0
VERTEX
  8
0
  6
CONTINUOUS
 10
2.670360
 20
6.956840
  0
VERTEX
  8
0
  6
CONTINUOUS
 10
2.714800
 20
7.005240
  0
VERTEX
  8
0
  6
CONTINUOUS
 10
2.760120
 20
7.045280
  0
VERTEX
  8
0
  6
CONTINUOUS
 10
2.806760
 20
7.076960
  0
VERTEX
  8
0
  6
CONTINUOUS
 10
2.853400
 20
7.100720
  0
VERTEX
  8
0
  6
CONTINUOUS
 10
2.899600
 20
7.116560
  0
VERTEX
  8
0
  6
CONTINUOUS
 10
2.944920
 20
7.125800
  0
VERTEX
  8
0
  6
CONTINUOUS
 10
2.988920
 20
7.128000
  0
VERTEX
  8
0
  6
CONTINUOUS
 10
3.031160
 20
7.123600
  0
VERTEX
  8
0
  6
CONTINUOUS
 10
3.070320
 20
7.113480
  0
VERTEX
  8
0
  6
CONTINUOUS
 10
3.106400
 20
7.098080
  0
VERTEX
  8
0
  6
CONTINUOUS
 10
3.138960
 20
7.076960
  0
VERTEX
  8
0
  6
CONTINUOUS
 10
3.167560
 20
7.051440
  0
VERTEX
  8
0
  6
CONTINUOUS
 10
3.190880
 20
7.021080
  0
VERTEX
  8
0
  6
CONTINUOUS
 10
3.208920
 20
6.986760
  0
VERTEX
  8
0
  6
CONTINUOUS
 10
3.220800
 20
6.948920
  0
VERTEX
  8
0
  6
CONTINUOUS
 10
3.226080
 20
6.908000
  0
VERTEX
  8
0
  6
CONTINUOUS
 10
3.226080
 20
6.565240
  0
VERTEX
  8
0
  6
CONTINUOUS
 10
4.252160
 20
6.565240
  0
VERTEX
  8
0
  6
CONTINUOUS
 10
4.252160
 20
6.071120
  0
VERTEX
  8
0
  6
CONTINUOUS
 10
1.242560
 20
6.071120
  0
VERTEX
  8
0
  6
CONTINUOUS
 10
1.242560
 20
7.322920
  0
VERTEX
  8
0
  6
CONTINUOUS
 10
2.216280
 20
7.322920
  0
VERTEX
  8
0
  6
CONTINUOUS
 10
2.240920
 20
6.922080
  0
VERTEX
  8
0
  6
CONTINUOUS
 10
2.250600
 20
6.878520
  0
SEQEND
  8
0
  0
SOLID
  8
0
 62
    15
 10
7.266600
 20
6.815600
 11
7.276280
 21
7.514320
 12
7.266600
 22
6.071560
 13
7.276280
 23
6.770280
  0
POLYLINE
  8
0
  6
CONTINUOUS
 66
     1
 40
0.000000
 41
0.000000
  0
VERTEX
  8
0
  6
CONTINUOUS
 10
7.266600
 20
6.815600
  0
VERTEX
  8
0
  6
CONTINUOUS
 10
7.276280
 20
7.514320
  0
VERTEX
  8
0
  6
CONTINUOUS
 10
7.276280
 20
6.770280
  0
VERTEX
  8
0
  6
CONTINUOUS
 10
7.266600
 20
6.071560
  0
VERTEX
  8
0
  6
CONTINUOUS
 10
7.266600
 20
6.815600
  0
SEQEND
  8
0
  0
SOLID
  8
0
 62
    15
 10
3.758480
 20
6.815600
 11
3.767720
 21
7.514320
 12
7.266600
 22
6.815600
 13
7.276280
 23
7.514320
  0
POLYLINE
  8
0
  6
CONTINUOUS
 66
     1
 40
0.000000
 41
0.000000
  0
VERTEX
  8
0
  6
CONTINUOUS
 10
3.758480
 20
6.815600
  0
VERTEX
  8
0
  6
CONTINUOUS
 10
3.767720
 20
7.514320
  0
VERTEX
  8
0
  6
CONTINUOUS
 10
7.276280
 20
7.514320
  0
VERTEX
  8
0
  6
CONTINUOUS
 10
7.266600
 20
6.815600
  0
VERTEX
  8
0
  6
CONTINUOUS
 10
3.758480
 20
6.815600
  0
SEQEND
  8
0
  0
POLYLINE
  8
0
  6
CONTINUOUS
 66
     1
 40
0.000000
 41
0.000000
  0
VERTEX
  8
0
  6
CONTINUOUS
 10
3.758480
 20
6.564800
  0
VERTEX
  8
0
  6
CONTINUOUS
 10
3.758480
 20
6.815600
  0
VERTEX
  8
0
  6
CONTINUOUS
 10
7.266600
 20
6.815600
  0
VERTEX
  8
0
  6
CONTINUOUS
 10
7.266600
 20
6.071560
  0
VERTEX
  8
0
  6
CONTINUOUS
 10
4.251720
 20
6.071560
  0
VERTEX
  8
0
  6
CONTINUOUS
 10
4.251720
 20
6.564800
  0
VERTEX
  8
0
  6
CONTINUOUS
 10
3.758480
 20
6.564800
  0
SEQEND
  8
0
  0
TEXT
  8
0
 10
3.795440
 20
5.877080
 40
0.138002
  1
BA  406 1-1/4" x 3"
 41
1.000000
  7
SN0
 71
     0
 72
     5
 11
5.193073
 21
5.877080
  0
TEXT
  8
0
 10
3.795440
 20
5.685680
 40
0.138002
  1
BA  406 A 3/4" x 3"
 41
1.000000
  7
SN0
 71
     0
 72
     5
 11
5.202539
 21
5.685680
  0
TEXT
  8
0
 10
1.369720
 20
6.168800
 40
0.138002
  1
406
 41
1.000000
  7
SN0
 71
     0
 72
     5
 11
1.646682
 21
6.168800
  0
TEXT
  8
0
 10
4.355560
 20
6.168360
 40
0.138002
  1
A
 41
1.000000
  7
SN0
 71
     0
 72
     5
 11
4.466711
 21
6.168360
  0
POLYLINE
  8
0
  6
CONTINUOUS
 66
     1
 40
0.014080
 41
0.014080
  0
VERTEX
  8
0
  6
CONTINUOUS
 10
2.174920
 20
9.395760
  0
VERTEX
  8
0
  6
CONTINUOUS
 10
2.150720
 20
9.797040
  0
VERTEX
  8
0
  6
CONTINUOUS
 10
1.176560
 20
9.797040
  0
VERTEX
  8
0
  6
CONTINUOUS
 10
1.176560
 20
8.544800
  0
VERTEX
  8
0
  6
CONTINUOUS
 10
4.186600
 20
8.544800
  0
VERTEX
  8
0
  6
CONTINUOUS
 10
4.186600
 20
9.039360
  0
VERTEX
  8
0
  6
CONTINUOUS
 10
3.160520
 20
9.039360
  0
VERTEX
  8
0
  6
CONTINUOUS
 10
3.160520
 20
9.381680
  0
VERTEX
  8
0
  6
CONTINUOUS
 10
3.158760
 20
9.402800
  0
VERTEX
  8
0
  6
CONTINUOUS
 10
3.155240
 20
9.423040
  0
VERTEX
  8
0
  6
CONTINUOUS
 10
3.149960
 20
9.442400
  0
VERTEX
  8
0
  6
CONTINUOUS
 10
3.135000
 20
9.478480
  0
VERTEX
  8
0
  6
CONTINUOUS
 10
3.113880
 20
9.510600
  0
VERTEX
  8
0
  6
CONTINUOUS
 10
3.087920
 20
9.538760
  0
VERTEX
  8
0
  6
CONTINUOUS
 10
3.057560
 20
9.562080
  0
VERTEX
  8
0
  6
CONTINUOUS
 10
3.023240
 20
9.580560
  0
VERTEX
  8
0
  6
CONTINUOUS
 10
2.985400
 20
9.593320
  0
VERTEX
  8
0
  6
CONTINUOUS
 10
2.965160
 20
9.597720
  0
VERTEX
  8
0
  6
CONTINUOUS
 10
2.923360
 20
9.601680
  0
VERTEX
  8
0
  6
CONTINUOUS
 10
2.901360
 20
9.601680
  0
VERTEX
  8
0
  6
CONTINUOUS
 10
2.856480
 20
9.595960
  0
VERTEX
  8
0
  6
CONTINUOUS
 10
2.833600
 20
9.590680
  0
VERTEX
  8
0
  6
CONTINUOUS
 10
2.787400
 20
9.574400
  0
VERTEX
  8
0
  6
CONTINUOUS
 10
2.740760
 20
9.550640
  0
VERTEX
  8
0
  6
CONTINUOUS
 10
2.717440
 20
9.536120
  0
VERTEX
  8
0
  6
CONTINUOUS
 10
2.671680
 20
9.500040
  0
VERTEX
  8
0
  6
CONTINUOUS
 10
2.648800
 20
9.479360
  0
VERTEX
  8
0
  6
CONTINUOUS
 10
2.562120
 20
9.382120
  0
VERTEX
  8
0
  6
CONTINUOUS
 10
2.520320
 20
9.342960
  0
VERTEX
  8
0
  6
CONTINUOUS
 10
2.479840
 20
9.312160
  0
VERTEX
  8
0
  6
CONTINUOUS
 10
2.440680
 20
9.289720
  0
VERTEX
  8
0
  6
CONTINUOUS
 10
2.403280
 20
9.273880
  0
VERTEX
  8
0
  6
CONTINUOUS
 10
2.368080
 20
9.264640
  0
VERTEX
  8
0
  6
CONTINUOUS
 10
2.335080
 20
9.261560
  0
VERTEX
  8
0
  6
CONTINUOUS
 10
2.304720
 20
9.263760
  0
VERTEX
  8
0
  6
CONTINUOUS
 10
2.276560
 20
9.270800
  0
VERTEX
  8
0
  6
CONTINUOUS
 10
2.251480
 20
9.281360
  0
VERTEX
  8
0
  6
CONTINUOUS
 10
2.219800
 20
9.303800
  0
VERTEX
  8
0
  6
CONTINUOUS
 10
2.203080
 20
9.322280
  0
VERTEX
  8
0
  6
CONTINUOUS
 10
2.189880
 20
9.342080
  0
VERTEX
  8
0
  6
CONTINUOUS
 10
2.180640
 20
9.363200
  0
VERTEX
  8
0
  6
CONTINUOUS
 10
2.175800
 20
9.384760
  0
VERTEX
  8
0
  6
CONTINUOUS
 10
2.174920
 20
9.395760
  0
SEQEND
  8
0
  0
POLYLINE
  8
0
  6
CONTINUOUS
 66
     1
 40
0.014080
 41
0.014080
  0
VERTEX
  8
0
  6
CONTINUOUS
 10
3.685880
 20
9.042000
  0
VERTEX
  8
0
  6
CONTINUOUS
 10
3.685880
 20
9.292360
  0
VERTEX
  8
0
  6
CONTINUOUS
 10
7.194000
 20
9.292360
  0
VERTEX
  8
0
  6
CONTINUOUS
 10
7.194000
 20
8.548760
  0
VERTEX
  8
0
  6
CONTINUOUS
 10
4.179120
 20
8.548760
  0
VERTEX
  8
0
  6
CONTINUOUS
 10
4.179120
 20
9.042000
  0
VERTEX
  8
0
  6
CONTINUOUS
 10
3.685880
 20
9.042000
  0
SEQEND
  8
0
  0
TEXT
  8
0
 10
5.184960
 20
8.939920
 40
0.138002
  1
BA  406 1-1/4" x 3"
 41
1.000000
  7
SN0
 71
     0
 72
     5
 11
6.582593
 21
8.939920
  0
TEXT
  8
0
 10
5.184960
 20
8.748520
 40
0.138002
  1
BA  406 A 3/4" x 3"
 41
1.000000
  7
SN0
 71
     0
 72
     5
 11
6.592059
 21
8.748520
  0
TEXT
  8
0
 10
1.291400
 20
8.628400
 40
0.138002
  1
406
 41
1.000000
  7
SN0
 71
     0
 72
     5
 11
1.568362
 21
8.628400
  0
TEXT
  8
0
 10
4.276800
 20
8.627960
 40
0.138002
  1
A
 41
1.000000
  7
SN0
 71
     0
 72
     5
 11
4.387951
 21
8.627960
  0
ENDSEC
  0
EOF
