  0
SECTION
  2
HEADER
  9
$ACADVER
  1
AC1006
  9
$EXTMIN
 10
4.114000
 20
0.608080
  9
$EXTMAX
 10
7.267040
 20
3.326400
  9
$LTSCALE
 40
0.044000
  9
$PDMODE
 70
    35
  9
$PDSIZE
 40
0.035200
  0
ENDSEC
  0
SECTION
  2
TABLES
  0
TABLE
  2
LTYPE
 70
     9
  0
LTYPE
  2
CONTINUOUS
 70
    64
  3
Solid line
 72
    65
 73
     0
 40
0.000000
  0
LTYPE
  2
DASHED
 70
    64
  3
__ __ __ __ __ __ __ __ __ __ __ __ __ __ __
 72
    65
 73
     2
 40
0.000330
 49
0.000220
 49
-0.000110
  0
LTYPE
  2
HIDDEN
 70
    64
  3
 _ _ _ _ _ _ _ _ _ _ _ _ _ _ _ _ _ _ _ _ _ _
 72
    65
 73
     2
 40
0.000165
 49
0.000110
 49
-0.000055
  0
LTYPE
  2
CENTER
 70
    64
  3
____ _ ____ _ ____ _ ____ _ ____ _ ____ _ ____
 72
    65
 73
     4
 40
0.000880
 49
0.000550
 49
-0.000110
 49
0.000110
 49
-0.000110
  0
LTYPE
  2
PHANTOM
 70
    64
  3
_____ _ _ _____ _ _ _____ _ _ _____ _ _ ____
 72
    65
 73
     6
 40
0.001100
 49
0.000550
 49
-0.000110
 49
0.000110
 49
-0.000110
 49
0.000110
 49
-0.000110
  0
LTYPE
  2
DOT
 70
    64
  3
...............................................
 72
    65
 73
     2
 40
0.000110
 49
0.000000
 49
-0.000110
  0
LTYPE
  2
DASHDOT
 70
    64
  3
__ . __ . __ . __ . __ . __ . __ . __ . __ . __
 72
    65
 73
     4
 40
0.000440
 49
0.000220
 49
-0.000110
 49
0.000000
 49
-0.000110
  0
LTYPE
  2
BORDER
 70
    64
  3
__ __ . __ __ . __ __ . __ __ . __ __ . __ __
 72
    65
 73
     6
 40
0.000770
 49
0.000220
 49
-0.000110
 49
0.000220
 49
-0.000110
 49
0.000000
 49
-0.000110
  0
LTYPE
  2
DIVIDE
 70
    64
  3
__ . . __ . . __ . . __ . . __ . . __ . . __
 72
    65
 73
     6
 40
0.000550
 49
0.000220
 49
-0.000110
 49
0.000000
 49
-0.000110
 49
0.000000
 49
-0.000110
  0
LTYPE
  2
DOTDOT
 70
    64
  3
 . .  . .  . .  . .  . .  . . 
 72
    65
 73
     5
 40
0.000242
 49
-0.000110
 49
0.000000
 49
-0.000110
 49
0.000000
 49
-0.000110
  0
ENDTAB
  0
TABLE
  2
STYLE
 70
     2
  0
STYLE
 70
     0
  2
SN0
 40
0.000000
 41
0.000440
 50
0.000000
 71
     0
 42
0.000000
  3
ROMAND
  0
STYLE
 70
    68
  2
SV0
 40
0.000000
 41
0.000440
 50
0.000000
 71
     0
 42
0.000000
  3
ROMAND
  0
ENDTAB
  0
TABLE
  2
LAYER
 70
     3
  0
LAYER
  2
FOREGROUND
 70
    64
 62
     7
  6
CONTINUOUS
  0
LAYER
  2
BACKGROUND
 70
    65
 62
    -7
  6
CONTINUOUS
  0
LAYER
  2
0
 70
    64
 62
     7
  6
CONTINUOUS
  0
ENDTAB
  0
ENDSEC
  0
SECTION
  2
ENTITIES
  0
POLYLINE
  8
FOREGROUND
  6
CONTINUOUS
 66
     1
 40
0.000000
 41
0.000000
  0
VERTEX
  8
FOREGROUND
  6
CONTINUOUS
 10
0.000000
 20
3.934480
  0
VERTEX
  8
FOREGROUND
  6
CONTINUOUS
 10
8.499920
 20
3.934480
  0
VERTEX
  8
FOREGROUND
  6
CONTINUOUS
 10
8.499920
 20
-7.065520
  0
VERTEX
  8
FOREGROUND
  6
CONTINUOUS
 10
0.000000
 20
-7.065520
  0
VERTEX
  8
FOREGROUND
  6
CONTINUOUS
 10
0.000000
 20
3.934480
  0
SEQEND
  8
0
  0
POLYLINE
  8
0
  6
CONTINUOUS
 66
     1
 40
0.014080
 41
0.014080
  0
VERTEX
  8
0
  6
CONTINUOUS
 10
4.121920
 20
2.817760
  0
VERTEX
  8
0
  6
CONTINUOUS
 10
4.121920
 20
3.318920
  0
VERTEX
  8
0
  6
CONTINUOUS
 10
4.849680
 20
3.318920
  0
VERTEX
  8
0
  6
CONTINUOUS
 10
4.873440
 20
3.129720
  0
VERTEX
  8
0
  6
CONTINUOUS
 10
4.963640
 20
3.130160
  0
VERTEX
  8
0
  6
CONTINUOUS
 10
4.962320
 20
3.129280
  0
VERTEX
  8
0
  6
CONTINUOUS
 10
4.972880
 20
3.157440
  0
VERTEX
  8
0
  6
CONTINUOUS
 10
4.987400
 20
3.182960
  0
VERTEX
  8
0
  6
CONTINUOUS
 10
5.006320
 20
3.206280
  0
VERTEX
  8
0
  6
CONTINUOUS
 10
5.027880
 20
3.225640
  0
VERTEX
  8
0
  6
CONTINUOUS
 10
5.052960
 20
3.241920
  0
VERTEX
  8
0
  6
CONTINUOUS
 10
5.080240
 20
3.253800
  0
VERTEX
  8
0
  6
CONTINUOUS
 10
5.109720
 20
3.261280
  0
VERTEX
  8
0
  6
CONTINUOUS
 10
5.125120
 20
3.263480
  0
VERTEX
  8
0
  6
CONTINUOUS
 10
5.156360
 20
3.263480
  0
VERTEX
  8
0
  6
CONTINUOUS
 10
5.186280
 20
3.258200
  0
VERTEX
  8
0
  6
CONTINUOUS
 10
5.214440
 20
3.248960
  0
VERTEX
  8
0
  6
CONTINUOUS
 10
5.240400
 20
3.235320
  0
VERTEX
  8
0
  6
CONTINUOUS
 10
5.263720
 20
3.218160
  0
VERTEX
  8
0
  6
CONTINUOUS
 10
5.283960
 20
3.197480
  0
VERTEX
  8
0
  6
CONTINUOUS
 10
5.300680
 20
3.173720
  0
VERTEX
  8
0
  6
CONTINUOUS
 10
5.313880
 20
3.147320
  0
VERTEX
  8
0
  6
CONTINUOUS
 10
5.320920
 20
3.126640
  0
VERTEX
  8
0
  6
CONTINUOUS
 10
5.417720
 20
3.126640
  0
VERTEX
  8
0
  6
CONTINUOUS
 10
5.417280
 20
3.127080
  0
VERTEX
  8
0
  6
CONTINUOUS
 10
5.427840
 20
3.155240
  0
VERTEX
  8
0
  6
CONTINUOUS
 10
5.442800
 20
3.181200
  0
VERTEX
  8
0
  6
CONTINUOUS
 10
5.461280
 20
3.204080
  0
VERTEX
  8
0
  6
CONTINUOUS
 10
5.483280
 20
3.223880
  0
VERTEX
  8
0
  6
CONTINUOUS
 10
5.508360
 20
3.240160
  0
VERTEX
  8
0
  6
CONTINUOUS
 10
5.535640
 20
3.252040
  0
VERTEX
  8
0
  6
CONTINUOUS
 10
5.565120
 20
3.259520
  0
VERTEX
  8
0
  6
CONTINUOUS
 10
5.596360
 20
3.262160
  0
VERTEX
  8
0
  6
CONTINUOUS
 10
5.611760
 20
3.261720
  0
VERTEX
  8
0
  6
CONTINUOUS
 10
5.641680
 20
3.256440
  0
VERTEX
  8
0
  6
CONTINUOUS
 10
5.669840
 20
3.247200
  0
VERTEX
  8
0
  6
CONTINUOUS
 10
5.695800
 20
3.233560
  0
VERTEX
  8
0
  6
CONTINUOUS
 10
5.719120
 20
3.215960
  0
VERTEX
  8
0
  6
CONTINUOUS
 10
5.739360
 20
3.195280
  0
VERTEX
  8
0
  6
CONTINUOUS
 10
5.756080
 20
3.171520
  0
VERTEX
  8
0
  6
CONTINUOUS
 10
5.769280
 20
3.145560
  0
VERTEX
  8
0
  6
CONTINUOUS
 10
5.775440
 20
3.126640
  0
VERTEX
  8
0
  6
CONTINUOUS
 10
5.775440
 20
3.128400
  0
VERTEX
  8
0
  6
CONTINUOUS
 10
5.864320
 20
3.128400
  0
VERTEX
  8
0
  6
CONTINUOUS
 10
5.863880
 20
3.129720
  0
VERTEX
  8
0
  6
CONTINUOUS
 10
5.887640
 20
3.318480
  0
VERTEX
  8
0
  6
CONTINUOUS
 10
6.615840
 20
3.318480
  0
VERTEX
  8
0
  6
CONTINUOUS
 10
6.615840
 20
2.817760
  0
VERTEX
  8
0
  6
CONTINUOUS
 10
4.121920
 20
2.817760
  0
SEQEND
  8
0
  0
SOLID
  8
0
 62
    15
 10
5.971240
 20
1.375000
 11
5.969040
 21
2.118160
 12
5.972120
 22
1.372800
 13
5.970360
 23
2.115960
  0
POLYLINE
  8
0
  6
CONTINUOUS
 66
     1
 40
0.000000
 41
0.000000
  0
VERTEX
  8
0
  6
CONTINUOUS
 10
5.971240
 20
1.375000
  0
VERTEX
  8
0
  6
CONTINUOUS
 10
5.969040
 20
2.118160
  0
VERTEX
  8
0
  6
CONTINUOUS
 10
5.970360
 20
2.115960
  0
VERTEX
  8
0
  6
CONTINUOUS
 10
5.972120
 20
1.372800
  0
VERTEX
  8
0
  6
CONTINUOUS
 10
5.971240
 20
1.375000
  0
SEQEND
  8
0
  0
SOLID
  8
0
 62
    15
 10
4.772680
 20
1.063920
 11
4.770920
 21
1.807080
 12
4.772680
 22
1.565080
 13
4.770920
 23
2.307800
  0
POLYLINE
  8
0
  6
CONTINUOUS
 66
     1
 40
0.000000
 41
0.000000
  0
VERTEX
  8
0
  6
CONTINUOUS
 10
4.772680
 20
1.063920
  0
VERTEX
  8
0
  6
CONTINUOUS
 10
4.770920
 20
1.807080
  0
VERTEX
  8
0
  6
CONTINUOUS
 10
4.770920
 20
2.307800
  0
VERTEX
  8
0
  6
CONTINUOUS
 10
4.772680
 20
1.565080
  0
VERTEX
  8
0
  6
CONTINUOUS
 10
4.772680
 20
1.063920
  0
SEQEND
  8
0
  0
SOLID
  8
0
 62
    15
 10
5.500880
 20
1.565080
 11
5.498680
 21
2.307800
 12
5.524200
 22
1.375880
 13
5.522440
 23
2.119040
  0
POLYLINE
  8
0
  6
CONTINUOUS
 66
     1
 40
0.000000
 41
0.000000
  0
VERTEX
  8
0
  6
CONTINUOUS
 10
5.500880
 20
1.565080
  0
VERTEX
  8
0
  6
CONTINUOUS
 10
5.498680
 20
2.307800
  0
VERTEX
  8
0
  6
CONTINUOUS
 10
5.522440
 20
2.119040
  0
VERTEX
  8
0
  6
CONTINUOUS
 10
5.524200
 20
1.375880
  0
VERTEX
  8
0
  6
CONTINUOUS
 10
5.500880
 20
1.565080
  0
SEQEND
  8
0
  0
SOLID
  8
0
 62
    15
 10
5.524200
 20
1.375880
 11
5.522440
 21
2.119040
 12
5.525080
 22
1.375880
 13
5.522880
 23
2.119040
  0
POLYLINE
  8
0
  6
CONTINUOUS
 66
     1
 40
0.000000
 41
0.000000
  0
VERTEX
  8
0
  6
CONTINUOUS
 10
5.524200
 20
1.375880
  0
VERTEX
  8
0
  6
CONTINUOUS
 10
5.522440
 20
2.119040
  0
VERTEX
  8
0
  6
CONTINUOUS
 10
5.522880
 20
2.119040
  0
VERTEX
  8
0
  6
CONTINUOUS
 10
5.525080
 20
1.375880
  0
VERTEX
  8
0
  6
CONTINUOUS
 10
5.524200
 20
1.375880
  0
SEQEND
  8
0
  0
SOLID
  8
0
 62
    15
 10
5.611320
 20
2.119040
 11
5.613080
 21
2.119040
 12
5.613520
 22
1.375880
 13
5.614840
 23
1.375880
  0
POLYLINE
  8
0
  6
CONTINUOUS
 66
     1
 40
0.000000
 41
0.000000
  0
VERTEX
  8
0
  6
CONTINUOUS
 10
5.611320
 20
2.119040
  0
VERTEX
  8
0
  6
CONTINUOUS
 10
5.613080
 20
2.119040
  0
VERTEX
  8
0
  6
CONTINUOUS
 10
5.614840
 20
1.375880
  0
VERTEX
  8
0
  6
CONTINUOUS
 10
5.613520
 20
1.375880
  0
VERTEX
  8
0
  6
CONTINUOUS
 10
5.611320
 20
2.119040
  0
SEQEND
  8
0
  0
SOLID
  8
0
 62
    15
 10
5.613080
 20
1.375440
 11
5.611320
 21
2.118160
 12
5.623640
 22
1.403160
 13
5.621880
 23
2.146320
  0
POLYLINE
  8
0
  6
CONTINUOUS
 66
     1
 40
0.000000
 41
0.000000
  0
VERTEX
  8
0
  6
CONTINUOUS
 10
5.613080
 20
1.375440
  0
VERTEX
  8
0
  6
CONTINUOUS
 10
5.611320
 20
2.118160
  0
VERTEX
  8
0
  6
CONTINUOUS
 10
5.621880
 20
2.146320
  0
VERTEX
  8
0
  6
CONTINUOUS
 10
5.623640
 20
1.403160
  0
VERTEX
  8
0
  6
CONTINUOUS
 10
5.613080
 20
1.375440
  0
SEQEND
  8
0
  0
SOLID
  8
0
 62
    15
 10
5.525080
 20
1.375880
 11
5.522880
 21
2.119040
 12
5.613520
 22
1.375880
 13
5.611320
 23
2.119040
  0
POLYLINE
  8
0
  6
CONTINUOUS
 66
     1
 40
0.000000
 41
0.000000
  0
VERTEX
  8
0
  6
CONTINUOUS
 10
5.525080
 20
1.375880
  0
VERTEX
  8
0
  6
CONTINUOUS
 10
5.522880
 20
2.119040
  0
VERTEX
  8
0
  6
CONTINUOUS
 10
5.611320
 20
2.119040
  0
VERTEX
  8
0
  6
CONTINUOUS
 10
5.613520
 20
1.375880
  0
VERTEX
  8
0
  6
CONTINUOUS
 10
5.525080
 20
1.375880
  0
SEQEND
  8
0
  0
SOLID
  8
0
 62
    15
 10
5.623640
 20
1.403160
 11
5.621880
 21
2.146320
 12
5.638600
 22
1.429120
 13
5.636400
 23
2.172280
  0
POLYLINE
  8
0
  6
CONTINUOUS
 66
     1
 40
0.000000
 41
0.000000
  0
VERTEX
  8
0
  6
CONTINUOUS
 10
5.623640
 20
1.403160
  0
VERTEX
  8
0
  6
CONTINUOUS
 10
5.621880
 20
2.146320
  0
VERTEX
  8
0
  6
CONTINUOUS
 10
5.636400
 20
2.172280
  0
VERTEX
  8
0
  6
CONTINUOUS
 10
5.638600
 20
1.429120
  0
VERTEX
  8
0
  6
CONTINUOUS
 10
5.623640
 20
1.403160
  0
SEQEND
  8
0
  0
SOLID
  8
0
 62
    15
 10
5.638600
 20
1.429120
 11
5.636400
 21
2.172280
 12
5.657080
 22
1.452000
 13
5.655320
 23
2.195160
  0
POLYLINE
  8
0
  6
CONTINUOUS
 66
     1
 40
0.000000
 41
0.000000
  0
VERTEX
  8
0
  6
CONTINUOUS
 10
5.638600
 20
1.429120
  0
VERTEX
  8
0
  6
CONTINUOUS
 10
5.636400
 20
2.172280
  0
VERTEX
  8
0
  6
CONTINUOUS
 10
5.655320
 20
2.195160
  0
VERTEX
  8
0
  6
CONTINUOUS
 10
5.657080
 20
1.452000
  0
VERTEX
  8
0
  6
CONTINUOUS
 10
5.638600
 20
1.429120
  0
SEQEND
  8
0
  0
SOLID
  8
0
 62
    15
 10
5.657080
 20
1.452000
 11
5.655320
 21
2.195160
 12
5.679080
 22
1.471800
 13
5.677320
 23
2.214960
  0
POLYLINE
  8
0
  6
CONTINUOUS
 66
     1
 40
0.000000
 41
0.000000
  0
VERTEX
  8
0
  6
CONTINUOUS
 10
5.657080
 20
1.452000
  0
VERTEX
  8
0
  6
CONTINUOUS
 10
5.655320
 20
2.195160
  0
VERTEX
  8
0
  6
CONTINUOUS
 10
5.677320
 20
2.214960
  0
VERTEX
  8
0
  6
CONTINUOUS
 10
5.679080
 20
1.471800
  0
VERTEX
  8
0
  6
CONTINUOUS
 10
5.657080
 20
1.452000
  0
SEQEND
  8
0
  0
SOLID
  8
0
 62
    15
 10
5.679080
 20
1.471800
 11
5.677320
 21
2.214960
 12
5.703720
 22
1.488080
 13
5.701960
 23
2.230800
  0
POLYLINE
  8
0
  6
CONTINUOUS
 66
     1
 40
0.000000
 41
0.000000
  0
VERTEX
  8
0
  6
CONTINUOUS
 10
5.679080
 20
1.471800
  0
VERTEX
  8
0
  6
CONTINUOUS
 10
5.677320
 20
2.214960
  0
VERTEX
  8
0
  6
CONTINUOUS
 10
5.701960
 20
2.230800
  0
VERTEX
  8
0
  6
CONTINUOUS
 10
5.703720
 20
1.488080
  0
VERTEX
  8
0
  6
CONTINUOUS
 10
5.679080
 20
1.471800
  0
SEQEND
  8
0
  0
SOLID
  8
0
 62
    15
 10
5.703720
 20
1.488080
 11
5.701960
 21
2.230800
 12
5.731440
 22
1.499960
 13
5.729680
 23
2.243120
  0
POLYLINE
  8
0
  6
CONTINUOUS
 66
     1
 40
0.000000
 41
0.000000
  0
VERTEX
  8
0
  6
CONTINUOUS
 10
5.703720
 20
1.488080
  0
VERTEX
  8
0
  6
CONTINUOUS
 10
5.701960
 20
2.230800
  0
VERTEX
  8
0
  6
CONTINUOUS
 10
5.729680
 20
2.243120
  0
VERTEX
  8
0
  6
CONTINUOUS
 10
5.731440
 20
1.499960
  0
VERTEX
  8
0
  6
CONTINUOUS
 10
5.703720
 20
1.488080
  0
SEQEND
  8
0
  0
SOLID
  8
0
 62
    15
 10
5.731440
 20
1.499960
 11
5.729680
 21
2.243120
 12
5.760920
 22
1.507440
 13
5.759160
 23
2.250600
  0
POLYLINE
  8
0
  6
CONTINUOUS
 66
     1
 40
0.000000
 41
0.000000
  0
VERTEX
  8
0
  6
CONTINUOUS
 10
5.731440
 20
1.499960
  0
VERTEX
  8
0
  6
CONTINUOUS
 10
5.729680
 20
2.243120
  0
VERTEX
  8
0
  6
CONTINUOUS
 10
5.759160
 20
2.250600
  0
VERTEX
  8
0
  6
CONTINUOUS
 10
5.760920
 20
1.507440
  0
VERTEX
  8
0
  6
CONTINUOUS
 10
5.731440
 20
1.499960
  0
SEQEND
  8
0
  0
SOLID
  8
0
 62
    15
 10
5.760920
 20
1.507440
 11
5.759160
 21
2.250600
 12
5.792160
 22
1.510080
 13
5.790400
 23
2.253240
  0
POLYLINE
  8
0
  6
CONTINUOUS
 66
     1
 40
0.000000
 41
0.000000
  0
VERTEX
  8
0
  6
CONTINUOUS
 10
5.760920
 20
1.507440
  0
VERTEX
  8
0
  6
CONTINUOUS
 10
5.759160
 20
2.250600
  0
VERTEX
  8
0
  6
CONTINUOUS
 10
5.790400
 20
2.253240
  0
VERTEX
  8
0
  6
CONTINUOUS
 10
5.792160
 20
1.510080
  0
VERTEX
  8
0
  6
CONTINUOUS
 10
5.760920
 20
1.507440
  0
SEQEND
  8
0
  0
SOLID
  8
0
 62
    15
 10
5.792160
 20
1.510080
 11
5.790400
 21
2.253240
 12
5.822520
 22
1.507440
 13
5.820760
 23
2.250600
  0
POLYLINE
  8
0
  6
CONTINUOUS
 66
     1
 40
0.000000
 41
0.000000
  0
VERTEX
  8
0
  6
CONTINUOUS
 10
5.792160
 20
1.510080
  0
VERTEX
  8
0
  6
CONTINUOUS
 10
5.790400
 20
2.253240
  0
VERTEX
  8
0
  6
CONTINUOUS
 10
5.820760
 20
2.250600
  0
VERTEX
  8
0
  6
CONTINUOUS
 10
5.822520
 20
1.507440
  0
VERTEX
  8
0
  6
CONTINUOUS
 10
5.792160
 20
1.510080
  0
SEQEND
  8
0
  0
SOLID
  8
0
 62
    15
 10
5.822520
 20
1.507440
 11
5.820760
 21
2.250600
 12
5.851560
 22
1.500400
 13
5.849800
 23
2.243560
  0
POLYLINE
  8
0
  6
CONTINUOUS
 66
     1
 40
0.000000
 41
0.000000
  0
VERTEX
  8
0
  6
CONTINUOUS
 10
5.822520
 20
1.507440
  0
VERTEX
  8
0
  6
CONTINUOUS
 10
5.820760
 20
2.250600
  0
VERTEX
  8
0
  6
CONTINUOUS
 10
5.849800
 20
2.243560
  0
VERTEX
  8
0
  6
CONTINUOUS
 10
5.851560
 20
1.500400
  0
VERTEX
  8
0
  6
CONTINUOUS
 10
5.822520
 20
1.507440
  0
SEQEND
  8
0
  0
SOLID
  8
0
 62
    15
 10
5.851560
 20
1.500400
 11
5.849800
 21
2.243560
 12
5.878840
 22
1.488960
 13
5.877080
 23
2.231680
  0
POLYLINE
  8
0
  6
CONTINUOUS
 66
     1
 40
0.000000
 41
0.000000
  0
VERTEX
  8
0
  6
CONTINUOUS
 10
5.851560
 20
1.500400
  0
VERTEX
  8
0
  6
CONTINUOUS
 10
5.849800
 20
2.243560
  0
VERTEX
  8
0
  6
CONTINUOUS
 10
5.877080
 20
2.231680
  0
VERTEX
  8
0
  6
CONTINUOUS
 10
5.878840
 20
1.488960
  0
VERTEX
  8
0
  6
CONTINUOUS
 10
5.851560
 20
1.500400
  0
SEQEND
  8
0
  0
SOLID
  8
0
 62
    15
 10
5.878840
 20
1.488960
 11
5.877080
 21
2.231680
 12
5.903480
 22
1.473120
 13
5.901280
 23
2.216280
  0
POLYLINE
  8
0
  6
CONTINUOUS
 66
     1
 40
0.000000
 41
0.000000
  0
VERTEX
  8
0
  6
CONTINUOUS
 10
5.878840
 20
1.488960
  0
VERTEX
  8
0
  6
CONTINUOUS
 10
5.877080
 20
2.231680
  0
VERTEX
  8
0
  6
CONTINUOUS
 10
5.901280
 20
2.216280
  0
VERTEX
  8
0
  6
CONTINUOUS
 10
5.903480
 20
1.473120
  0
VERTEX
  8
0
  6
CONTINUOUS
 10
5.878840
 20
1.488960
  0
SEQEND
  8
0
  0
SOLID
  8
0
 62
    15
 10
5.903480
 20
1.473120
 11
5.901280
 21
2.216280
 12
5.925040
 22
1.454200
 13
5.923280
 23
2.196920
  0
POLYLINE
  8
0
  6
CONTINUOUS
 66
     1
 40
0.000000
 41
0.000000
  0
VERTEX
  8
0
  6
CONTINUOUS
 10
5.903480
 20
1.473120
  0
VERTEX
  8
0
  6
CONTINUOUS
 10
5.901280
 20
2.216280
  0
VERTEX
  8
0
  6
CONTINUOUS
 10
5.923280
 20
2.196920
  0
VERTEX
  8
0
  6
CONTINUOUS
 10
5.925040
 20
1.454200
  0
VERTEX
  8
0
  6
CONTINUOUS
 10
5.903480
 20
1.473120
  0
SEQEND
  8
0
  0
SOLID
  8
0
 62
    15
 10
5.925040
 20
1.454200
 11
5.923280
 21
2.196920
 12
5.943960
 22
1.431760
 13
5.941760
 23
2.174920
  0
POLYLINE
  8
0
  6
CONTINUOUS
 66
     1
 40
0.000000
 41
0.000000
  0
VERTEX
  8
0
  6
CONTINUOUS
 10
5.925040
 20
1.454200
  0
VERTEX
  8
0
  6
CONTINUOUS
 10
5.923280
 20
2.196920
  0
VERTEX
  8
0
  6
CONTINUOUS
 10
5.941760
 20
2.174920
  0
VERTEX
  8
0
  6
CONTINUOUS
 10
5.943960
 20
1.431760
  0
VERTEX
  8
0
  6
CONTINUOUS
 10
5.925040
 20
1.454200
  0
SEQEND
  8
0
  0
SOLID
  8
0
 62
    15
 10
5.943960
 20
1.431760
 11
5.941760
 21
2.174920
 12
5.958920
 22
1.406680
 13
5.956720
 23
2.149840
  0
POLYLINE
  8
0
  6
CONTINUOUS
 66
     1
 40
0.000000
 41
0.000000
  0
VERTEX
  8
0
  6
CONTINUOUS
 10
5.943960
 20
1.431760
  0
VERTEX
  8
0
  6
CONTINUOUS
 10
5.941760
 20
2.174920
  0
VERTEX
  8
0
  6
CONTINUOUS
 10
5.956720
 20
2.149840
  0
VERTEX
  8
0
  6
CONTINUOUS
 10
5.958920
 20
1.406680
  0
VERTEX
  8
0
  6
CONTINUOUS
 10
5.943960
 20
1.431760
  0
SEQEND
  8
0
  0
SOLID
  8
0
 62
    15
 10
5.958920
 20
1.406680
 11
5.956720
 21
2.149840
 12
5.969920
 22
1.379400
 13
5.967720
 23
2.122560
  0
POLYLINE
  8
0
  6
CONTINUOUS
 66
     1
 40
0.000000
 41
0.000000
  0
VERTEX
  8
0
  6
CONTINUOUS
 10
5.958920
 20
1.406680
  0
VERTEX
  8
0
  6
CONTINUOUS
 10
5.956720
 20
2.149840
  0
VERTEX
  8
0
  6
CONTINUOUS
 10
5.967720
 20
2.122560
  0
VERTEX
  8
0
  6
CONTINUOUS
 10
5.969920
 20
1.379400
  0
VERTEX
  8
0
  6
CONTINUOUS
 10
5.958920
 20
1.406680
  0
SEQEND
  8
0
  0
SOLID
  8
0
 62
    15
 10
5.969920
 20
1.379400
 11
5.967720
 21
2.122560
 12
5.971240
 22
1.375000
 13
5.969040
 23
2.118160
  0
POLYLINE
  8
0
  6
CONTINUOUS
 66
     1
 40
0.000000
 41
0.000000
  0
VERTEX
  8
0
  6
CONTINUOUS
 10
5.969920
 20
1.379400
  0
VERTEX
  8
0
  6
CONTINUOUS
 10
5.967720
 20
2.122560
  0
VERTEX
  8
0
  6
CONTINUOUS
 10
5.969040
 20
2.118160
  0
VERTEX
  8
0
  6
CONTINUOUS
 10
5.971240
 20
1.375000
  0
VERTEX
  8
0
  6
CONTINUOUS
 10
5.969920
 20
1.379400
  0
SEQEND
  8
0
  0
SOLID
  8
0
 62
    15
 10
4.772680
 20
1.565080
 11
4.770920
 21
2.307800
 12
5.500880
 22
1.565080
 13
5.498680
 23
2.307800
  0
POLYLINE
  8
0
  6
CONTINUOUS
 66
     1
 40
0.000000
 41
0.000000
  0
VERTEX
  8
0
  6
CONTINUOUS
 10
4.772680
 20
1.565080
  0
VERTEX
  8
0
  6
CONTINUOUS
 10
4.770920
 20
2.307800
  0
VERTEX
  8
0
  6
CONTINUOUS
 10
5.498680
 20
2.307800
  0
VERTEX
  8
0
  6
CONTINUOUS
 10
5.500880
 20
1.565080
  0
VERTEX
  8
0
  6
CONTINUOUS
 10
4.772680
 20
1.565080
  0
SEQEND
  8
0
  0
SOLID
  8
0
 62
    15
 10
5.972120
 20
1.372800
 11
5.970360
 21
2.115960
 12
6.068480
 22
1.372800
 13
6.066720
 23
2.115960
  0
POLYLINE
  8
0
  6
CONTINUOUS
 66
     1
 40
0.000000
 41
0.000000
  0
VERTEX
  8
0
  6
CONTINUOUS
 10
5.972120
 20
1.372800
  0
VERTEX
  8
0
  6
CONTINUOUS
 10
5.970360
 20
2.115960
  0
VERTEX
  8
0
  6
CONTINUOUS
 10
6.066720
 20
2.115960
  0
VERTEX
  8
0
  6
CONTINUOUS
 10
6.068480
 20
1.372800
  0
VERTEX
  8
0
  6
CONTINUOUS
 10
5.972120
 20
1.372800
  0
SEQEND
  8
0
  0
SOLID
  8
0
 62
    15
 10
6.068480
 20
1.373240
 11
6.066720
 21
2.115960
 12
6.079040
 22
1.401400
 13
6.077280
 23
2.144120
  0
POLYLINE
  8
0
  6
CONTINUOUS
 66
     1
 40
0.000000
 41
0.000000
  0
VERTEX
  8
0
  6
CONTINUOUS
 10
6.068480
 20
1.373240
  0
VERTEX
  8
0
  6
CONTINUOUS
 10
6.066720
 20
2.115960
  0
VERTEX
  8
0
  6
CONTINUOUS
 10
6.077280
 20
2.144120
  0
VERTEX
  8
0
  6
CONTINUOUS
 10
6.079040
 20
1.401400
  0
VERTEX
  8
0
  6
CONTINUOUS
 10
6.068480
 20
1.373240
  0
SEQEND
  8
0
  0
SOLID
  8
0
 62
    15
 10
6.079040
 20
1.401400
 11
6.077280
 21
2.144120
 12
6.093560
 22
1.426920
 13
6.091800
 23
2.170080
  0
POLYLINE
  8
0
  6
CONTINUOUS
 66
     1
 40
0.000000
 41
0.000000
  0
VERTEX
  8
0
  6
CONTINUOUS
 10
6.079040
 20
1.401400
  0
VERTEX
  8
0
  6
CONTINUOUS
 10
6.077280
 20
2.144120
  0
VERTEX
  8
0
  6
CONTINUOUS
 10
6.091800
 20
2.170080
  0
VERTEX
  8
0
  6
CONTINUOUS
 10
6.093560
 20
1.426920
  0
VERTEX
  8
0
  6
CONTINUOUS
 10
6.079040
 20
1.401400
  0
SEQEND
  8
0
  0
SOLID
  8
0
 62
    15
 10
6.093560
 20
1.426920
 11
6.091800
 21
2.170080
 12
6.112480
 22
1.450240
 13
6.110720
 23
2.192960
  0
POLYLINE
  8
0
  6
CONTINUOUS
 66
     1
 40
0.000000
 41
0.000000
  0
VERTEX
  8
0
  6
CONTINUOUS
 10
6.093560
 20
1.426920
  0
VERTEX
  8
0
  6
CONTINUOUS
 10
6.091800
 20
2.170080
  0
VERTEX
  8
0
  6
CONTINUOUS
 10
6.110720
 20
2.192960
  0
VERTEX
  8
0
  6
CONTINUOUS
 10
6.112480
 20
1.450240
  0
VERTEX
  8
0
  6
CONTINUOUS
 10
6.093560
 20
1.426920
  0
SEQEND
  8
0
  0
SOLID
  8
0
 62
    15
 10
6.112480
 20
1.450240
 11
6.110720
 21
2.192960
 12
6.134480
 22
1.469600
 13
6.132280
 23
2.212760
  0
POLYLINE
  8
0
  6
CONTINUOUS
 66
     1
 40
0.000000
 41
0.000000
  0
VERTEX
  8
0
  6
CONTINUOUS
 10
6.112480
 20
1.450240
  0
VERTEX
  8
0
  6
CONTINUOUS
 10
6.110720
 20
2.192960
  0
VERTEX
  8
0
  6
CONTINUOUS
 10
6.132280
 20
2.212760
  0
VERTEX
  8
0
  6
CONTINUOUS
 10
6.134480
 20
1.469600
  0
VERTEX
  8
0
  6
CONTINUOUS
 10
6.112480
 20
1.450240
  0
SEQEND
  8
0
  0
SOLID
  8
0
 62
    15
 10
6.134480
 20
1.469600
 11
6.132280
 21
2.212760
 12
6.159120
 22
1.485880
 13
6.157360
 23
2.229040
  0
POLYLINE
  8
0
  6
CONTINUOUS
 66
     1
 40
0.000000
 41
0.000000
  0
VERTEX
  8
0
  6
CONTINUOUS
 10
6.134480
 20
1.469600
  0
VERTEX
  8
0
  6
CONTINUOUS
 10
6.132280
 20
2.212760
  0
VERTEX
  8
0
  6
CONTINUOUS
 10
6.157360
 20
2.229040
  0
VERTEX
  8
0
  6
CONTINUOUS
 10
6.159120
 20
1.485880
  0
VERTEX
  8
0
  6
CONTINUOUS
 10
6.134480
 20
1.469600
  0
SEQEND
  8
0
  0
SOLID
  8
0
 62
    15
 10
6.159120
 20
1.485880
 11
6.157360
 21
2.229040
 12
6.186840
 22
1.497760
 13
6.184640
 23
2.240920
  0
POLYLINE
  8
0
  6
CONTINUOUS
 66
     1
 40
0.000000
 41
0.000000
  0
VERTEX
  8
0
  6
CONTINUOUS
 10
6.159120
 20
1.485880
  0
VERTEX
  8
0
  6
CONTINUOUS
 10
6.157360
 20
2.229040
  0
VERTEX
  8
0
  6
CONTINUOUS
 10
6.184640
 20
2.240920
  0
VERTEX
  8
0
  6
CONTINUOUS
 10
6.186840
 20
1.497760
  0
VERTEX
  8
0
  6
CONTINUOUS
 10
6.159120
 20
1.485880
  0
SEQEND
  8
0
  0
SOLID
  8
0
 62
    15
 10
6.186840
 20
1.497760
 11
6.184640
 21
2.240920
 12
6.216320
 22
1.505240
 13
6.214120
 23
2.248400
  0
POLYLINE
  8
0
  6
CONTINUOUS
 66
     1
 40
0.000000
 41
0.000000
  0
VERTEX
  8
0
  6
CONTINUOUS
 10
6.186840
 20
1.497760
  0
VERTEX
  8
0
  6
CONTINUOUS
 10
6.184640
 20
2.240920
  0
VERTEX
  8
0
  6
CONTINUOUS
 10
6.214120
 20
2.248400
  0
VERTEX
  8
0
  6
CONTINUOUS
 10
6.216320
 20
1.505240
  0
VERTEX
  8
0
  6
CONTINUOUS
 10
6.186840
 20
1.497760
  0
SEQEND
  8
0
  0
SOLID
  8
0
 62
    15
 10
6.216320
 20
1.505240
 11
6.214120
 21
2.248400
 12
6.247560
 22
1.507880
 13
6.245360
 23
2.251040
  0
POLYLINE
  8
0
  6
CONTINUOUS
 66
     1
 40
0.000000
 41
0.000000
  0
VERTEX
  8
0
  6
CONTINUOUS
 10
6.216320
 20
1.505240
  0
VERTEX
  8
0
  6
CONTINUOUS
 10
6.214120
 20
2.248400
  0
VERTEX
  8
0
  6
CONTINUOUS
 10
6.245360
 20
2.251040
  0
VERTEX
  8
0
  6
CONTINUOUS
 10
6.247560
 20
1.507880
  0
VERTEX
  8
0
  6
CONTINUOUS
 10
6.216320
 20
1.505240
  0
SEQEND
  8
0
  0
SOLID
  8
0
 62
    15
 10
6.247560
 20
1.507880
 11
6.245360
 21
2.251040
 12
6.277920
 22
1.505680
 13
6.276160
 23
2.248400
  0
POLYLINE
  8
0
  6
CONTINUOUS
 66
     1
 40
0.000000
 41
0.000000
  0
VERTEX
  8
0
  6
CONTINUOUS
 10
6.247560
 20
1.507880
  0
VERTEX
  8
0
  6
CONTINUOUS
 10
6.245360
 20
2.251040
  0
VERTEX
  8
0
  6
CONTINUOUS
 10
6.276160
 20
2.248400
  0
VERTEX
  8
0
  6
CONTINUOUS
 10
6.277920
 20
1.505680
  0
VERTEX
  8
0
  6
CONTINUOUS
 10
6.247560
 20
1.507880
  0
SEQEND
  8
0
  0
SOLID
  8
0
 62
    15
 10
6.277920
 20
1.505680
 11
6.276160
 21
2.248400
 12
6.306960
 22
1.498200
 13
6.305200
 23
2.241360
  0
POLYLINE
  8
0
  6
CONTINUOUS
 66
     1
 40
0.000000
 41
0.000000
  0
VERTEX
  8
0
  6
CONTINUOUS
 10
6.277920
 20
1.505680
  0
VERTEX
  8
0
  6
CONTINUOUS
 10
6.276160
 20
2.248400
  0
VERTEX
  8
0
  6
CONTINUOUS
 10
6.305200
 20
2.241360
  0
VERTEX
  8
0
  6
CONTINUOUS
 10
6.306960
 20
1.498200
  0
VERTEX
  8
0
  6
CONTINUOUS
 10
6.277920
 20
1.505680
  0
SEQEND
  8
0
  0
SOLID
  8
0
 62
    15
 10
6.306960
 20
1.498200
 11
6.305200
 21
2.241360
 12
6.334240
 22
1.486760
 13
6.332040
 23
2.229480
  0
POLYLINE
  8
0
  6
CONTINUOUS
 66
     1
 40
0.000000
 41
0.000000
  0
VERTEX
  8
0
  6
CONTINUOUS
 10
6.306960
 20
1.498200
  0
VERTEX
  8
0
  6
CONTINUOUS
 10
6.305200
 20
2.241360
  0
VERTEX
  8
0
  6
CONTINUOUS
 10
6.332040
 20
2.229480
  0
VERTEX
  8
0
  6
CONTINUOUS
 10
6.334240
 20
1.486760
  0
VERTEX
  8
0
  6
CONTINUOUS
 10
6.306960
 20
1.498200
  0
SEQEND
  8
0
  0
SOLID
  8
0
 62
    15
 10
6.334240
 20
1.486760
 11
6.332040
 21
2.229480
 12
6.358880
 22
1.470920
 13
6.356680
 23
2.214080
  0
POLYLINE
  8
0
  6
CONTINUOUS
 66
     1
 40
0.000000
 41
0.000000
  0
VERTEX
  8
0
  6
CONTINUOUS
 10
6.334240
 20
1.486760
  0
VERTEX
  8
0
  6
CONTINUOUS
 10
6.332040
 20
2.229480
  0
VERTEX
  8
0
  6
CONTINUOUS
 10
6.356680
 20
2.214080
  0
VERTEX
  8
0
  6
CONTINUOUS
 10
6.358880
 20
1.470920
  0
VERTEX
  8
0
  6
CONTINUOUS
 10
6.334240
 20
1.486760
  0
SEQEND
  8
0
  0
SOLID
  8
0
 62
    15
 10
6.358880
 20
1.470920
 11
6.356680
 21
2.214080
 12
6.380440
 22
1.452000
 13
6.378680
 23
2.195160
  0
POLYLINE
  8
0
  6
CONTINUOUS
 66
     1
 40
0.000000
 41
0.000000
  0
VERTEX
  8
0
  6
CONTINUOUS
 10
6.358880
 20
1.470920
  0
VERTEX
  8
0
  6
CONTINUOUS
 10
6.356680
 20
2.214080
  0
VERTEX
  8
0
  6
CONTINUOUS
 10
6.378680
 20
2.195160
  0
VERTEX
  8
0
  6
CONTINUOUS
 10
6.380440
 20
1.452000
  0
VERTEX
  8
0
  6
CONTINUOUS
 10
6.358880
 20
1.470920
  0
SEQEND
  8
0
  0
SOLID
  8
0
 62
    15
 10
6.380440
 20
1.452000
 11
6.378680
 21
2.195160
 12
6.398920
 22
1.429560
 13
6.397160
 23
2.172720
  0
POLYLINE
  8
0
  6
CONTINUOUS
 66
     1
 40
0.000000
 41
0.000000
  0
VERTEX
  8
0
  6
CONTINUOUS
 10
6.380440
 20
1.452000
  0
VERTEX
  8
0
  6
CONTINUOUS
 10
6.378680
 20
2.195160
  0
VERTEX
  8
0
  6
CONTINUOUS
 10
6.397160
 20
2.172720
  0
VERTEX
  8
0
  6
CONTINUOUS
 10
6.398920
 20
1.429560
  0
VERTEX
  8
0
  6
CONTINUOUS
 10
6.380440
 20
1.452000
  0
SEQEND
  8
0
  0
SOLID
  8
0
 62
    15
 10
6.398920
 20
1.429560
 11
6.397160
 21
2.172720
 12
6.413880
 22
1.404480
 13
6.412120
 23
2.147640
  0
POLYLINE
  8
0
  6
CONTINUOUS
 66
     1
 40
0.000000
 41
0.000000
  0
VERTEX
  8
0
  6
CONTINUOUS
 10
6.398920
 20
1.429560
  0
VERTEX
  8
0
  6
CONTINUOUS
 10
6.397160
 20
2.172720
  0
VERTEX
  8
0
  6
CONTINUOUS
 10
6.412120
 20
2.147640
  0
VERTEX
  8
0
  6
CONTINUOUS
 10
6.413880
 20
1.404480
  0
VERTEX
  8
0
  6
CONTINUOUS
 10
6.398920
 20
1.429560
  0
SEQEND
  8
0
  0
SOLID
  8
0
 62
    15
 10
6.413880
 20
1.404480
 11
6.412120
 21
2.147640
 12
6.424880
 22
1.377200
 13
6.423120
 23
2.120360
  0
POLYLINE
  8
0
  6
CONTINUOUS
 66
     1
 40
0.000000
 41
0.000000
  0
VERTEX
  8
0
  6
CONTINUOUS
 10
6.413880
 20
1.404480
  0
VERTEX
  8
0
  6
CONTINUOUS
 10
6.412120
 20
2.147640
  0
VERTEX
  8
0
  6
CONTINUOUS
 10
6.423120
 20
2.120360
  0
VERTEX
  8
0
  6
CONTINUOUS
 10
6.424880
 20
1.377200
  0
VERTEX
  8
0
  6
CONTINUOUS
 10
6.413880
 20
1.404480
  0
SEQEND
  8
0
  0
SOLID
  8
0
 62
    15
 10
6.424880
 20
1.377200
 11
6.423120
 21
2.120360
 12
6.426200
 22
1.372800
 13
6.424440
 23
2.115960
  0
POLYLINE
  8
0
  6
CONTINUOUS
 66
     1
 40
0.000000
 41
0.000000
  0
VERTEX
  8
0
  6
CONTINUOUS
 10
6.424880
 20
1.377200
  0
VERTEX
  8
0
  6
CONTINUOUS
 10
6.423120
 20
2.120360
  0
VERTEX
  8
0
  6
CONTINUOUS
 10
6.424440
 20
2.115960
  0
VERTEX
  8
0
  6
CONTINUOUS
 10
6.426200
 20
1.372800
  0
VERTEX
  8
0
  6
CONTINUOUS
 10
6.424880
 20
1.377200
  0
SEQEND
  8
0
  0
SOLID
  8
0
 62
    15
 10
6.426200
 20
1.372800
 11
6.424440
 21
2.115960
 12
6.426640
 22
1.374120
 13
6.424440
 23
2.117280
  0
POLYLINE
  8
0
  6
CONTINUOUS
 66
     1
 40
0.000000
 41
0.000000
  0
VERTEX
  8
0
  6
CONTINUOUS
 10
6.426200
 20
1.372800
  0
VERTEX
  8
0
  6
CONTINUOUS
 10
6.424440
 20
2.115960
  0
VERTEX
  8
0
  6
CONTINUOUS
 10
6.424440
 20
2.117280
  0
VERTEX
  8
0
  6
CONTINUOUS
 10
6.426640
 20
1.374120
  0
VERTEX
  8
0
  6
CONTINUOUS
 10
6.426200
 20
1.372800
  0
SEQEND
  8
0
  0
SOLID
  8
0
 62
    15
 10
6.426640
 20
1.374120
 11
6.424440
 21
2.117280
 12
6.515520
 22
1.374120
 13
6.513320
 23
2.117280
  0
POLYLINE
  8
0
  6
CONTINUOUS
 66
     1
 40
0.000000
 41
0.000000
  0
VERTEX
  8
0
  6
CONTINUOUS
 10
6.426640
 20
1.374120
  0
VERTEX
  8
0
  6
CONTINUOUS
 10
6.424440
 20
2.117280
  0
VERTEX
  8
0
  6
CONTINUOUS
 10
6.513320
 20
2.117280
  0
VERTEX
  8
0
  6
CONTINUOUS
 10
6.515520
 20
1.374120
  0
VERTEX
  8
0
  6
CONTINUOUS
 10
6.426640
 20
1.374120
  0
SEQEND
  8
0
  0
SOLID
  8
0
 62
    15
 10
6.515080
 20
1.375440
 11
6.513320
 21
2.118600
 12
6.538840
 22
1.564640
 13
6.536640
 23
2.307800
  0
POLYLINE
  8
0
  6
CONTINUOUS
 66
     1
 40
0.000000
 41
0.000000
  0
VERTEX
  8
0
  6
CONTINUOUS
 10
6.515080
 20
1.375440
  0
VERTEX
  8
0
  6
CONTINUOUS
 10
6.513320
 20
2.118600
  0
VERTEX
  8
0
  6
CONTINUOUS
 10
6.536640
 20
2.307800
  0
VERTEX
  8
0
  6
CONTINUOUS
 10
6.538840
 20
1.564640
  0
VERTEX
  8
0
  6
CONTINUOUS
 10
6.515080
 20
1.375440
  0
SEQEND
  8
0
  0
SOLID
  8
0
 62
    15
 10
6.538840
 20
1.564640
 11
6.536640
 21
2.307800
 12
7.266600
 22
1.564640
 13
7.264840
 23
2.307800
  0
POLYLINE
  8
0
  6
CONTINUOUS
 66
     1
 40
0.000000
 41
0.000000
  0
VERTEX
  8
0
  6
CONTINUOUS
 10
6.538840
 20
1.564640
  0
VERTEX
  8
0
  6
CONTINUOUS
 10
6.536640
 20
2.307800
  0
VERTEX
  8
0
  6
CONTINUOUS
 10
7.264840
 20
2.307800
  0
VERTEX
  8
0
  6
CONTINUOUS
 10
7.266600
 20
1.564640
  0
VERTEX
  8
0
  6
CONTINUOUS
 10
6.538840
 20
1.564640
  0
SEQEND
  8
0
  0
POLYLINE
  8
0
  6
CONTINUOUS
 66
     1
 40
0.000000
 41
0.000000
  0
VERTEX
  8
0
  6
CONTINUOUS
 10
4.772680
 20
1.063920
  0
VERTEX
  8
0
  6
CONTINUOUS
 10
4.772680
 20
1.565080
  0
VERTEX
  8
0
  6
CONTINUOUS
 10
5.500880
 20
1.565080
  0
VERTEX
  8
0
  6
CONTINUOUS
 10
5.524200
 20
1.375880
  0
VERTEX
  8
0
  6
CONTINUOUS
 10
5.614840
 20
1.375880
  0
VERTEX
  8
0
  6
CONTINUOUS
 10
5.613080
 20
1.375440
  0
VERTEX
  8
0
  6
CONTINUOUS
 10
5.623640
 20
1.403160
  0
VERTEX
  8
0
  6
CONTINUOUS
 10
5.638600
 20
1.429120
  0
VERTEX
  8
0
  6
CONTINUOUS
 10
5.657080
 20
1.452000
  0
VERTEX
  8
0
  6
CONTINUOUS
 10
5.679080
 20
1.471800
  0
VERTEX
  8
0
  6
CONTINUOUS
 10
5.703720
 20
1.488080
  0
VERTEX
  8
0
  6
CONTINUOUS
 10
5.731440
 20
1.499960
  0
VERTEX
  8
0
  6
CONTINUOUS
 10
5.760920
 20
1.507440
  0
VERTEX
  8
0
  6
CONTINUOUS
 10
5.792160
 20
1.510080
  0
VERTEX
  8
0
  6
CONTINUOUS
 10
5.822520
 20
1.507440
  0
VERTEX
  8
0
  6
CONTINUOUS
 10
5.851560
 20
1.500400
  0
VERTEX
  8
0
  6
CONTINUOUS
 10
5.878840
 20
1.488960
  0
VERTEX
  8
0
  6
CONTINUOUS
 10
5.903480
 20
1.473120
  0
VERTEX
  8
0
  6
CONTINUOUS
 10
5.925040
 20
1.454200
  0
VERTEX
  8
0
  6
CONTINUOUS
 10
5.943960
 20
1.431760
  0
VERTEX
  8
0
  6
CONTINUOUS
 10
5.958920
 20
1.406680
  0
VERTEX
  8
0
  6
CONTINUOUS
 10
5.972120
 20
1.372800
  0
VERTEX
  8
0
  6
CONTINUOUS
 10
6.068480
 20
1.373240
  0
VERTEX
  8
0
  6
CONTINUOUS
 10
6.079040
 20
1.401400
  0
VERTEX
  8
0
  6
CONTINUOUS
 10
6.093560
 20
1.426920
  0
VERTEX
  8
0
  6
CONTINUOUS
 10
6.112480
 20
1.450240
  0
VERTEX
  8
0
  6
CONTINUOUS
 10
6.134480
 20
1.469600
  0
VERTEX
  8
0
  6
CONTINUOUS
 10
6.159120
 20
1.485880
  0
VERTEX
  8
0
  6
CONTINUOUS
 10
6.186840
 20
1.497760
  0
VERTEX
  8
0
  6
CONTINUOUS
 10
6.216320
 20
1.505240
  0
VERTEX
  8
0
  6
CONTINUOUS
 10
6.247560
 20
1.507880
  0
VERTEX
  8
0
  6
CONTINUOUS
 10
6.277920
 20
1.505680
  0
VERTEX
  8
0
  6
CONTINUOUS
 10
6.306960
 20
1.498200
  0
VERTEX
  8
0
  6
CONTINUOUS
 10
6.334240
 20
1.486760
  0
VERTEX
  8
0
  6
CONTINUOUS
 10
6.358880
 20
1.470920
  0
VERTEX
  8
0
  6
CONTINUOUS
 10
6.380440
 20
1.452000
  0
VERTEX
  8
0
  6
CONTINUOUS
 10
6.398920
 20
1.429560
  0
VERTEX
  8
0
  6
CONTINUOUS
 10
6.413880
 20
1.404480
  0
VERTEX
  8
0
  6
CONTINUOUS
 10
6.426200
 20
1.372800
  0
VERTEX
  8
0
  6
CONTINUOUS
 10
6.426640
 20
1.374120
  0
VERTEX
  8
0
  6
CONTINUOUS
 10
6.515520
 20
1.374120
  0
VERTEX
  8
0
  6
CONTINUOUS
 10
6.515080
 20
1.375440
  0
VERTEX
  8
0
  6
CONTINUOUS
 10
6.538840
 20
1.564640
  0
VERTEX
  8
0
  6
CONTINUOUS
 10
7.266600
 20
1.564640
  0
VERTEX
  8
0
  6
CONTINUOUS
 10
7.266600
 20
1.063480
  0
VERTEX
  8
0
  6
CONTINUOUS
 10
4.772680
 20
1.063920
  0
SEQEND
  8
0
  0
TEXT
  8
0
 10
5.879720
 20
0.838640
 40
0.138161
  1
404
 41
1.000000
  7
SN0
 71
     0
 72
     5
 11
6.156715
 21
0.838640
  0
TEXT
  8
0
 10
5.566880
 20
0.646800
 40
0.138161
  1
1/2" x 2-1/2"
 41
1.000000
  7
SN0
 71
     0
 72
     5
 11
6.467546
 21
0.646800
  0
ENDSEC
  0
EOF
