  0
SECTION
  2
HEADER
  9
$ACADVER
  1
AC1006
  9
$EXTMIN
 10
3.038200
 20
0.452760
  9
$EXTMAX
 10
7.617720
 20
5.951880
  9
$LTSCALE
 40
0.044000
  9
$PDMODE
 70
    35
  9
$PDSIZE
 40
0.035200
  0
ENDSEC
  0
SECTION
  2
TABLES
  0
TABLE
  2
LTYPE
 70
     9
  0
LTYPE
  2
CONTINUOUS
 70
    64
  3
Solid line
 72
    65
 73
     0
 40
0.000000
  0
LTYPE
  2
DASHED
 70
    64
  3
__ __ __ __ __ __ __ __ __ __ __ __ __ __ __
 72
    65
 73
     2
 40
0.000330
 49
0.000220
 49
-0.000110
  0
LTYPE
  2
HIDDEN
 70
    64
  3
 _ _ _ _ _ _ _ _ _ _ _ _ _ _ _ _ _ _ _ _ _ _
 72
    65
 73
     2
 40
0.000165
 49
0.000110
 49
-0.000055
  0
LTYPE
  2
CENTER
 70
    64
  3
____ _ ____ _ ____ _ ____ _ ____ _ ____ _ ____
 72
    65
 73
     4
 40
0.000880
 49
0.000550
 49
-0.000110
 49
0.000110
 49
-0.000110
  0
LTYPE
  2
PHANTOM
 70
    64
  3
_____ _ _ _____ _ _ _____ _ _ _____ _ _ ____
 72
    65
 73
     6
 40
0.001100
 49
0.000550
 49
-0.000110
 49
0.000110
 49
-0.000110
 49
0.000110
 49
-0.000110
  0
LTYPE
  2
DOT
 70
    64
  3
...............................................
 72
    65
 73
     2
 40
0.000110
 49
0.000000
 49
-0.000110
  0
LTYPE
  2
DASHDOT
 70
    64
  3
__ . __ . __ . __ . __ . __ . __ . __ . __ . __
 72
    65
 73
     4
 40
0.000440
 49
0.000220
 49
-0.000110
 49
0.000000
 49
-0.000110
  0
LTYPE
  2
BORDER
 70
    64
  3
__ __ . __ __ . __ __ . __ __ . __ __ . __ __
 72
    65
 73
     6
 40
0.000770
 49
0.000220
 49
-0.000110
 49
0.000220
 49
-0.000110
 49
0.000000
 49
-0.000110
  0
LTYPE
  2
DIVIDE
 70
    64
  3
__ . . __ . . __ . . __ . . __ . . __ . . __
 72
    65
 73
     6
 40
0.000550
 49
0.000220
 49
-0.000110
 49
0.000000
 49
-0.000110
 49
0.000000
 49
-0.000110
  0
LTYPE
  2
DOTDOT
 70
    64
  3
 . .  . .  . .  . .  . .  . . 
 72
    65
 73
     5
 40
0.000242
 49
-0.000110
 49
0.000000
 49
-0.000110
 49
0.000000
 49
-0.000110
  0
ENDTAB
  0
TABLE
  2
STYLE
 70
     2
  0
STYLE
 70
     0
  2
SN0
 40
0.000000
 41
0.000440
 50
0.000000
 71
     0
 42
0.000000
  3
ROMAND
  0
STYLE
 70
    68
  2
SV0
 40
0.000000
 41
0.000440
 50
0.000000
 71
     0
 42
0.000000
  3
ROMAND
  0
ENDTAB
  0
TABLE
  2
LAYER
 70
     3
  0
LAYER
  2
FOREGROUND
 70
    64
 62
     7
  6
CONTINUOUS
  0
LAYER
  2
BACKGROUND
 70
    65
 62
    -7
  6
CONTINUOUS
  0
LAYER
  2
0
 70
    64
 62
     7
  6
CONTINUOUS
  0
ENDTAB
  0
ENDSEC
  0
SECTION
  2
ENTITIES
  0
POLYLINE
  8
FOREGROUND
  6
CONTINUOUS
 66
     1
 40
0.000000
 41
0.000000
  0
VERTEX
  8
FOREGROUND
  6
CONTINUOUS
 10
0.000000
 20
6.404640
  0
VERTEX
  8
FOREGROUND
  6
CONTINUOUS
 10
8.499920
 20
6.404640
  0
VERTEX
  8
FOREGROUND
  6
CONTINUOUS
 10
8.499920
 20
-4.595360
  0
VERTEX
  8
FOREGROUND
  6
CONTINUOUS
 10
0.000000
 20
-4.595360
  0
VERTEX
  8
FOREGROUND
  6
CONTINUOUS
 10
0.000000
 20
6.404640
  0
SEQEND
  8
0
  0
POLYLINE
  8
0
  6
CONTINUOUS
 66
     1
 40
0.014080
 41
0.014080
  0
VERTEX
  8
0
  6
CONTINUOUS
 10
3.355880
 20
4.102120
  0
VERTEX
  8
0
  6
CONTINUOUS
 10
3.355880
 20
3.972760
  0
VERTEX
  8
0
  6
CONTINUOUS
 10
7.065520
 20
3.972760
  0
VERTEX
  8
0
  6
CONTINUOUS
 10
7.065520
 20
4.102120
  0
VERTEX
  8
0
  6
CONTINUOUS
 10
7.190920
 20
4.102120
  0
VERTEX
  8
0
  6
CONTINUOUS
 10
7.190920
 20
4.946920
  0
VERTEX
  8
0
  6
CONTINUOUS
 10
7.190040
 20
4.985640
  0
VERTEX
  8
0
  6
CONTINUOUS
 10
7.182560
 20
5.060440
  0
VERTEX
  8
0
  6
CONTINUOUS
 10
7.175960
 20
5.096960
  0
VERTEX
  8
0
  6
CONTINUOUS
 10
7.167600
 20
5.132600
  0
VERTEX
  8
0
  6
CONTINUOUS
 10
7.146040
 20
5.201680
  0
VERTEX
  8
0
  6
CONTINUOUS
 10
7.132840
 20
5.235120
  0
VERTEX
  8
0
  6
CONTINUOUS
 10
7.101600
 20
5.298920
  0
VERTEX
  8
0
  6
CONTINUOUS
 10
7.084000
 20
5.329280
  0
VERTEX
  8
0
  6
CONTINUOUS
 10
7.043960
 20
5.387360
  0
VERTEX
  8
0
  6
CONTINUOUS
 10
6.998640
 20
5.441040
  0
VERTEX
  8
0
  6
CONTINUOUS
 10
6.974440
 20
5.466560
  0
VERTEX
  8
0
  6
CONTINUOUS
 10
6.921640
 20
5.514080
  0
VERTEX
  8
0
  6
CONTINUOUS
 10
6.864880
 20
5.556760
  0
VERTEX
  8
0
  6
CONTINUOUS
 10
6.803720
 20
5.594600
  0
VERTEX
  8
0
  6
CONTINUOUS
 10
6.739040
 20
5.627600
  0
VERTEX
  8
0
  6
CONTINUOUS
 10
6.705600
 20
5.642120
  0
VERTEX
  8
0
  6
CONTINUOUS
 10
6.636080
 20
5.666760
  0
VERTEX
  8
0
  6
CONTINUOUS
 10
6.600440
 20
5.677320
  0
VERTEX
  8
0
  6
CONTINUOUS
 10
6.526960
 20
5.693600
  0
VERTEX
  8
0
  6
CONTINUOUS
 10
6.451280
 20
5.703720
  0
VERTEX
  8
0
  6
CONTINUOUS
 10
6.453920
 20
5.703720
  0
VERTEX
  8
0
  6
CONTINUOUS
 10
3.985520
 20
5.944400
  0
VERTEX
  8
0
  6
CONTINUOUS
 10
3.946800
 20
5.943520
  0
VERTEX
  8
0
  6
CONTINUOUS
 10
3.908520
 20
5.940440
  0
VERTEX
  8
0
  6
CONTINUOUS
 10
3.871120
 20
5.935600
  0
VERTEX
  8
0
  6
CONTINUOUS
 10
3.834160
 20
5.929000
  0
VERTEX
  8
0
  6
CONTINUOUS
 10
3.797640
 20
5.920640
  0
VERTEX
  8
0
  6
CONTINUOUS
 10
3.762000
 20
5.910520
  0
VERTEX
  8
0
  6
CONTINUOUS
 10
3.692920
 20
5.885440
  0
VERTEX
  8
0
  6
CONTINUOUS
 10
3.626920
 20
5.853760
  0
VERTEX
  8
0
  6
CONTINUOUS
 10
3.564880
 20
5.815920
  0
VERTEX
  8
0
  6
CONTINUOUS
 10
3.535400
 20
5.795240
  0
VERTEX
  8
0
  6
CONTINUOUS
 10
3.479960
 20
5.749040
  0
VERTEX
  8
0
  6
CONTINUOUS
 10
3.428920
 20
5.698000
  0
VERTEX
  8
0
  6
CONTINUOUS
 10
3.382720
 20
5.642560
  0
VERTEX
  8
0
  6
CONTINUOUS
 10
3.342240
 20
5.582280
  0
VERTEX
  8
0
  6
CONTINUOUS
 10
3.324200
 20
5.551040
  0
VERTEX
  8
0
  6
CONTINUOUS
 10
3.292520
 20
5.485040
  0
VERTEX
  8
0
  6
CONTINUOUS
 10
3.267440
 20
5.415960
  0
VERTEX
  8
0
  6
CONTINUOUS
 10
3.257320
 20
5.380320
  0
VERTEX
  8
0
  6
CONTINUOUS
 10
3.248960
 20
5.343800
  0
VERTEX
  8
0
  6
CONTINUOUS
 10
3.242360
 20
5.306840
  0
VERTEX
  8
0
  6
CONTINUOUS
 10
3.237520
 20
5.269440
  0
VERTEX
  8
0
  6
CONTINUOUS
 10
3.234440
 20
5.231160
  0
VERTEX
  8
0
  6
CONTINUOUS
 10
3.233560
 20
5.192440
  0
VERTEX
  8
0
  6
CONTINUOUS
 10
3.233560
 20
4.102120
  0
VERTEX
  8
0
  6
CONTINUOUS
 10
3.233560
 20
4.105200
  0
VERTEX
  8
0
  6
CONTINUOUS
 10
3.355440
 20
4.105200
  0
VERTEX
  8
0
  6
CONTINUOUS
 10
3.355440
 20
4.071320
  0
VERTEX
  8
0
  6
CONTINUOUS
 10
3.355880
 20
4.102120
  0
SEQEND
  8
0
  0
SOLID
  8
0
 62
    15
 10
6.669960
 20
2.523400
 11
7.291240
 21
2.899160
 12
6.779520
 22
2.433200
 13
7.400800
 23
2.808960
  0
POLYLINE
  8
0
  6
CONTINUOUS
 66
     1
 40
0.000000
 41
0.000000
  0
VERTEX
  8
0
  6
CONTINUOUS
 10
6.669960
 20
2.523400
  0
VERTEX
  8
0
  6
CONTINUOUS
 10
7.291240
 20
2.899160
  0
VERTEX
  8
0
  6
CONTINUOUS
 10
7.400800
 20
2.808960
  0
VERTEX
  8
0
  6
CONTINUOUS
 10
6.779520
 20
2.433200
  0
VERTEX
  8
0
  6
CONTINUOUS
 10
6.669960
 20
2.523400
  0
SEQEND
  8
0
  0
SOLID
  8
0
 62
    15
 10
3.370400
 20
2.782560
 11
3.991680
 21
3.158320
 12
3.498000
 22
2.852080
 13
4.119280
 23
3.227840
  0
POLYLINE
  8
0
  6
CONTINUOUS
 66
     1
 40
0.000000
 41
0.000000
  0
VERTEX
  8
0
  6
CONTINUOUS
 10
3.370400
 20
2.782560
  0
VERTEX
  8
0
  6
CONTINUOUS
 10
3.991680
 20
3.158320
  0
VERTEX
  8
0
  6
CONTINUOUS
 10
4.119280
 20
3.227840
  0
VERTEX
  8
0
  6
CONTINUOUS
 10
3.498000
 20
2.852080
  0
VERTEX
  8
0
  6
CONTINUOUS
 10
3.370400
 20
2.782560
  0
SEQEND
  8
0
  0
SOLID
  8
0
 62
    15
 10
3.639240
 20
2.895640
 11
4.260520
 21
3.271400
 12
3.791040
 22
2.911040
 13
4.411880
 23
3.286800
  0
POLYLINE
  8
0
  6
CONTINUOUS
 66
     1
 40
0.000000
 41
0.000000
  0
VERTEX
  8
0
  6
CONTINUOUS
 10
3.639240
 20
2.895640
  0
VERTEX
  8
0
  6
CONTINUOUS
 10
4.260520
 20
3.271400
  0
VERTEX
  8
0
  6
CONTINUOUS
 10
4.411880
 20
3.286800
  0
VERTEX
  8
0
  6
CONTINUOUS
 10
3.791040
 20
2.911040
  0
VERTEX
  8
0
  6
CONTINUOUS
 10
3.639240
 20
2.895640
  0
SEQEND
  8
0
  0
SOLID
  8
0
 62
    15
 10
6.256800
 20
2.670360
 11
6.878080
 21
3.046120
 12
6.405520
 22
2.643960
 13
7.026800
 23
3.019720
  0
POLYLINE
  8
0
  6
CONTINUOUS
 66
     1
 40
0.000000
 41
0.000000
  0
VERTEX
  8
0
  6
CONTINUOUS
 10
6.256800
 20
2.670360
  0
VERTEX
  8
0
  6
CONTINUOUS
 10
6.878080
 20
3.046120
  0
VERTEX
  8
0
  6
CONTINUOUS
 10
7.026800
 20
3.019720
  0
VERTEX
  8
0
  6
CONTINUOUS
 10
6.405520
 20
2.643960
  0
VERTEX
  8
0
  6
CONTINUOUS
 10
6.256800
 20
2.670360
  0
SEQEND
  8
0
  0
SOLID
  8
0
 62
    15
 10
3.791040
 20
2.911040
 11
4.411880
 21
3.286800
 12
6.259000
 22
2.670360
 13
6.880280
 23
3.046120
  0
POLYLINE
  8
0
  6
CONTINUOUS
 66
     1
 40
0.000000
 41
0.000000
  0
VERTEX
  8
0
  6
CONTINUOUS
 10
3.791040
 20
2.911040
  0
VERTEX
  8
0
  6
CONTINUOUS
 10
4.411880
 20
3.286800
  0
VERTEX
  8
0
  6
CONTINUOUS
 10
6.880280
 20
3.046120
  0
VERTEX
  8
0
  6
CONTINUOUS
 10
6.259000
 20
2.670360
  0
VERTEX
  8
0
  6
CONTINUOUS
 10
3.791040
 20
2.911040
  0
SEQEND
  8
0
  0
SOLID
  8
0
 62
    15
 10
6.405520
 20
2.643960
 11
7.026800
 21
3.019720
 12
6.544560
 22
2.594240
 13
7.165840
 23
2.970000
  0
POLYLINE
  8
0
  6
CONTINUOUS
 66
     1
 40
0.000000
 41
0.000000
  0
VERTEX
  8
0
  6
CONTINUOUS
 10
6.405520
 20
2.643960
  0
VERTEX
  8
0
  6
CONTINUOUS
 10
7.026800
 20
3.019720
  0
VERTEX
  8
0
  6
CONTINUOUS
 10
7.165840
 20
2.970000
  0
VERTEX
  8
0
  6
CONTINUOUS
 10
6.544560
 20
2.594240
  0
VERTEX
  8
0
  6
CONTINUOUS
 10
6.405520
 20
2.643960
  0
SEQEND
  8
0
  0
SOLID
  8
0
 62
    15
 10
6.544560
 20
2.594240
 11
7.165840
 21
2.970000
 12
6.669960
 22
2.523400
 13
7.291240
 23
2.899160
  0
POLYLINE
  8
0
  6
CONTINUOUS
 66
     1
 40
0.000000
 41
0.000000
  0
VERTEX
  8
0
  6
CONTINUOUS
 10
6.544560
 20
2.594240
  0
VERTEX
  8
0
  6
CONTINUOUS
 10
7.165840
 20
2.970000
  0
VERTEX
  8
0
  6
CONTINUOUS
 10
7.291240
 20
2.899160
  0
VERTEX
  8
0
  6
CONTINUOUS
 10
6.669960
 20
2.523400
  0
VERTEX
  8
0
  6
CONTINUOUS
 10
6.544560
 20
2.594240
  0
SEQEND
  8
0
  0
SOLID
  8
0
 62
    15
 10
3.498000
 20
2.852080
 11
4.119280
 21
3.227840
 12
3.639240
 22
2.895640
 13
4.260520
 23
3.271400
  0
POLYLINE
  8
0
  6
CONTINUOUS
 66
     1
 40
0.000000
 41
0.000000
  0
VERTEX
  8
0
  6
CONTINUOUS
 10
3.498000
 20
2.852080
  0
VERTEX
  8
0
  6
CONTINUOUS
 10
4.119280
 20
3.227840
  0
VERTEX
  8
0
  6
CONTINUOUS
 10
4.260520
 20
3.271400
  0
VERTEX
  8
0
  6
CONTINUOUS
 10
3.639240
 20
2.895640
  0
VERTEX
  8
0
  6
CONTINUOUS
 10
3.498000
 20
2.852080
  0
SEQEND
  8
0
  0
SOLID
  8
0
 62
    15
 10
6.779520
 20
2.433200
 11
7.400800
 21
2.808960
 12
6.870160
 22
2.325400
 13
7.491000
 23
2.701160
  0
POLYLINE
  8
0
  6
CONTINUOUS
 66
     1
 40
0.000000
 41
0.000000
  0
VERTEX
  8
0
  6
CONTINUOUS
 10
6.779520
 20
2.433200
  0
VERTEX
  8
0
  6
CONTINUOUS
 10
7.400800
 20
2.808960
  0
VERTEX
  8
0
  6
CONTINUOUS
 10
7.491000
 20
2.701160
  0
VERTEX
  8
0
  6
CONTINUOUS
 10
6.870160
 20
2.325400
  0
VERTEX
  8
0
  6
CONTINUOUS
 10
6.779520
 20
2.433200
  0
SEQEND
  8
0
  0
SOLID
  8
0
 62
    15
 10
6.870160
 20
2.325400
 11
7.491000
 21
2.701160
 12
6.938360
 22
2.201760
 13
7.559200
 23
2.577520
  0
POLYLINE
  8
0
  6
CONTINUOUS
 66
     1
 40
0.000000
 41
0.000000
  0
VERTEX
  8
0
  6
CONTINUOUS
 10
6.870160
 20
2.325400
  0
VERTEX
  8
0
  6
CONTINUOUS
 10
7.491000
 20
2.701160
  0
VERTEX
  8
0
  6
CONTINUOUS
 10
7.559200
 20
2.577520
  0
VERTEX
  8
0
  6
CONTINUOUS
 10
6.938360
 20
2.201760
  0
VERTEX
  8
0
  6
CONTINUOUS
 10
6.870160
 20
2.325400
  0
SEQEND
  8
0
  0
SOLID
  8
0
 62
    15
 10
6.938360
 20
2.201760
 11
7.559200
 21
2.577520
 12
6.981480
 22
2.063600
 13
7.602320
 23
2.439800
  0
POLYLINE
  8
0
  6
CONTINUOUS
 66
     1
 40
0.000000
 41
0.000000
  0
VERTEX
  8
0
  6
CONTINUOUS
 10
6.938360
 20
2.201760
  0
VERTEX
  8
0
  6
CONTINUOUS
 10
7.559200
 20
2.577520
  0
VERTEX
  8
0
  6
CONTINUOUS
 10
7.602320
 20
2.439800
  0
VERTEX
  8
0
  6
CONTINUOUS
 10
6.981480
 20
2.063600
  0
VERTEX
  8
0
  6
CONTINUOUS
 10
6.938360
 20
2.201760
  0
SEQEND
  8
0
  0
SOLID
  8
0
 62
    15
 10
6.981480
 20
2.063600
 11
7.602320
 21
2.439800
 12
6.996440
 22
1.913560
 13
7.617720
 23
2.289320
  0
POLYLINE
  8
0
  6
CONTINUOUS
 66
     1
 40
0.000000
 41
0.000000
  0
VERTEX
  8
0
  6
CONTINUOUS
 10
6.981480
 20
2.063600
  0
VERTEX
  8
0
  6
CONTINUOUS
 10
7.602320
 20
2.439800
  0
VERTEX
  8
0
  6
CONTINUOUS
 10
7.617720
 20
2.289320
  0
VERTEX
  8
0
  6
CONTINUOUS
 10
6.996440
 20
1.913560
  0
VERTEX
  8
0
  6
CONTINUOUS
 10
6.981480
 20
2.063600
  0
SEQEND
  8
0
  0
SOLID
  8
0
 62
    15
 10
6.871040
 20
1.068760
 11
7.491880
 21
1.444520
 12
6.871040
 22
0.939400
 13
7.491880
 23
1.315600
  0
POLYLINE
  8
0
  6
CONTINUOUS
 66
     1
 40
0.000000
 41
0.000000
  0
VERTEX
  8
0
  6
CONTINUOUS
 10
6.871040
 20
1.068760
  0
VERTEX
  8
0
  6
CONTINUOUS
 10
7.491880
 20
1.444520
  0
VERTEX
  8
0
  6
CONTINUOUS
 10
7.491880
 20
1.315600
  0
VERTEX
  8
0
  6
CONTINUOUS
 10
6.871040
 20
0.939400
  0
VERTEX
  8
0
  6
CONTINUOUS
 10
6.871040
 20
1.068760
  0
SEQEND
  8
0
  0
SOLID
  8
0
 62
    15
 10
6.996440
 20
1.913560
 11
7.617720
 21
2.289320
 12
6.996440
 22
1.068760
 13
7.617720
 23
1.444520
  0
POLYLINE
  8
0
  6
CONTINUOUS
 66
     1
 40
0.000000
 41
0.000000
  0
VERTEX
  8
0
  6
CONTINUOUS
 10
6.996440
 20
1.913560
  0
VERTEX
  8
0
  6
CONTINUOUS
 10
7.617720
 20
2.289320
  0
VERTEX
  8
0
  6
CONTINUOUS
 10
7.617720
 20
1.444520
  0
VERTEX
  8
0
  6
CONTINUOUS
 10
6.996440
 20
1.068760
  0
VERTEX
  8
0
  6
CONTINUOUS
 10
6.996440
 20
1.913560
  0
SEQEND
  8
0
  0
SOLID
  8
0
 62
    15
 10
3.161400
 20
1.068760
 11
3.782680
 21
1.444520
 12
3.160960
 22
1.038400
 13
3.781800
 23
1.414160
  0
POLYLINE
  8
0
  6
CONTINUOUS
 66
     1
 40
0.000000
 41
0.000000
  0
VERTEX
  8
0
  6
CONTINUOUS
 10
3.161400
 20
1.068760
  0
VERTEX
  8
0
  6
CONTINUOUS
 10
3.782680
 20
1.444520
  0
VERTEX
  8
0
  6
CONTINUOUS
 10
3.781800
 20
1.414160
  0
VERTEX
  8
0
  6
CONTINUOUS
 10
3.160960
 20
1.038400
  0
VERTEX
  8
0
  6
CONTINUOUS
 10
3.161400
 20
1.068760
  0
SEQEND
  8
0
  0
POLYLINE
  8
0
  6
CONTINUOUS
 66
     1
 40
0.000000
 41
0.000000
  0
VERTEX
  8
0
  6
CONTINUOUS
 10
3.160960
 20
1.038400
  0
VERTEX
  8
0
  6
CONTINUOUS
 10
3.160960
 20
1.071840
  0
VERTEX
  8
0
  6
CONTINUOUS
 10
3.039080
 20
1.071840
  0
VERTEX
  8
0
  6
CONTINUOUS
 10
3.039080
 20
2.159080
  0
VERTEX
  8
0
  6
CONTINUOUS
 10
3.054480
 20
2.310880
  0
VERTEX
  8
0
  6
CONTINUOUS
 10
3.098040
 20
2.451680
  0
VERTEX
  8
0
  6
CONTINUOUS
 10
3.167560
 20
2.579720
  0
VERTEX
  8
0
  6
CONTINUOUS
 10
3.259080
 20
2.690600
  0
VERTEX
  8
0
  6
CONTINUOUS
 10
3.370400
 20
2.782560
  0
VERTEX
  8
0
  6
CONTINUOUS
 10
3.498000
 20
2.852080
  0
VERTEX
  8
0
  6
CONTINUOUS
 10
3.639240
 20
2.895640
  0
VERTEX
  8
0
  6
CONTINUOUS
 10
3.791040
 20
2.911040
  0
VERTEX
  8
0
  6
CONTINUOUS
 10
6.259000
 20
2.670360
  0
VERTEX
  8
0
  6
CONTINUOUS
 10
6.256800
 20
2.670360
  0
VERTEX
  8
0
  6
CONTINUOUS
 10
6.405520
 20
2.643960
  0
VERTEX
  8
0
  6
CONTINUOUS
 10
6.544560
 20
2.594240
  0
VERTEX
  8
0
  6
CONTINUOUS
 10
6.669960
 20
2.523400
  0
VERTEX
  8
0
  6
CONTINUOUS
 10
6.779520
 20
2.433200
  0
VERTEX
  8
0
  6
CONTINUOUS
 10
6.870160
 20
2.325400
  0
VERTEX
  8
0
  6
CONTINUOUS
 10
6.938360
 20
2.201760
  0
VERTEX
  8
0
  6
CONTINUOUS
 10
6.981480
 20
2.063600
  0
VERTEX
  8
0
  6
CONTINUOUS
 10
6.996440
 20
1.913560
  0
VERTEX
  8
0
  6
CONTINUOUS
 10
6.996440
 20
1.068760
  0
VERTEX
  8
0
  6
CONTINUOUS
 10
6.871040
 20
1.068760
  0
VERTEX
  8
0
  6
CONTINUOUS
 10
6.871040
 20
0.939400
  0
VERTEX
  8
0
  6
CONTINUOUS
 10
3.161400
 20
0.939400
  0
VERTEX
  8
0
  6
CONTINUOUS
 10
3.161400
 20
1.068760
  0
VERTEX
  8
0
  6
CONTINUOUS
 10
3.160960
 20
1.038400
  0
SEQEND
  8
0
  0
TEXT
  8
0
 10
5.033160
 20
0.687720
 40
0.138125
  1
BA  403
 41
1.000000
  7
SN0
 71
     0
 72
     5
 11
5.623216
 21
0.687720
  0
TEXT
  8
0
 10
5.089480
 20
0.496320
 40
0.138125
  1
2" x 4"
 41
1.000000
  7
SN0
 71
     0
 72
     5
 11
5.566529
 21
0.496320
  0
ENDSEC
  0
EOF
