  0
SECTION
  2
HEADER
  9
$ACADVER
  1
AC1006
  9
$EXTMIN
 10
2.171840
 20
0.348480
  9
$EXTMAX
 10
7.050120
 20
3.188680
  9
$LTSCALE
 40
0.044000
  9
$PDMODE
 70
    35
  9
$PDSIZE
 40
0.035200
  0
ENDSEC
  0
SECTION
  2
TABLES
  0
TABLE
  2
LTYPE
 70
     9
  0
LTYPE
  2
CONTINUOUS
 70
    64
  3
Solid line
 72
    65
 73
     0
 40
0.000000
  0
LTYPE
  2
DASHED
 70
    64
  3
__ __ __ __ __ __ __ __ __ __ __ __ __ __ __
 72
    65
 73
     2
 40
0.000330
 49
0.000220
 49
-0.000110
  0
LTYPE
  2
HIDDEN
 70
    64
  3
 _ _ _ _ _ _ _ _ _ _ _ _ _ _ _ _ _ _ _ _ _ _
 72
    65
 73
     2
 40
0.000165
 49
0.000110
 49
-0.000055
  0
LTYPE
  2
CENTER
 70
    64
  3
____ _ ____ _ ____ _ ____ _ ____ _ ____ _ ____
 72
    65
 73
     4
 40
0.000880
 49
0.000550
 49
-0.000110
 49
0.000110
 49
-0.000110
  0
LTYPE
  2
PHANTOM
 70
    64
  3
_____ _ _ _____ _ _ _____ _ _ _____ _ _ ____
 72
    65
 73
     6
 40
0.001100
 49
0.000550
 49
-0.000110
 49
0.000110
 49
-0.000110
 49
0.000110
 49
-0.000110
  0
LTYPE
  2
DOT
 70
    64
  3
...............................................
 72
    65
 73
     2
 40
0.000110
 49
0.000000
 49
-0.000110
  0
LTYPE
  2
DASHDOT
 70
    64
  3
__ . __ . __ . __ . __ . __ . __ . __ . __ . __
 72
    65
 73
     4
 40
0.000440
 49
0.000220
 49
-0.000110
 49
0.000000
 49
-0.000110
  0
LTYPE
  2
BORDER
 70
    64
  3
__ __ . __ __ . __ __ . __ __ . __ __ . __ __
 72
    65
 73
     6
 40
0.000770
 49
0.000220
 49
-0.000110
 49
0.000220
 49
-0.000110
 49
0.000000
 49
-0.000110
  0
LTYPE
  2
DIVIDE
 70
    64
  3
__ . . __ . . __ . . __ . . __ . . __ . . __
 72
    65
 73
     6
 40
0.000550
 49
0.000220
 49
-0.000110
 49
0.000000
 49
-0.000110
 49
0.000000
 49
-0.000110
  0
LTYPE
  2
DOTDOT
 70
    64
  3
 . .  . .  . .  . .  . .  . . 
 72
    65
 73
     5
 40
0.000242
 49
-0.000110
 49
0.000000
 49
-0.000110
 49
0.000000
 49
-0.000110
  0
ENDTAB
  0
TABLE
  2
STYLE
 70
     2
  0
STYLE
 70
     0
  2
SN0
 40
0.000000
 41
0.000440
 50
0.000000
 71
     0
 42
0.000000
  3
ROMAND
  0
STYLE
 70
    68
  2
SV0
 40
0.000000
 41
0.000440
 50
0.000000
 71
     0
 42
0.000000
  3
ROMAND
  0
ENDTAB
  0
TABLE
  2
LAYER
 70
     3
  0
LAYER
  2
FOREGROUND
 70
    64
 62
     7
  6
CONTINUOUS
  0
LAYER
  2
BACKGROUND
 70
    65
 62
    -7
  6
CONTINUOUS
  0
LAYER
  2
0
 70
    64
 62
     7
  6
CONTINUOUS
  0
ENDTAB
  0
ENDSEC
  0
SECTION
  2
ENTITIES
  0
POLYLINE
  8
FOREGROUND
  6
CONTINUOUS
 66
     1
 40
0.000000
 41
0.000000
  0
VERTEX
  8
FOREGROUND
  6
CONTINUOUS
 10
0.000000
 20
3.537160
  0
VERTEX
  8
FOREGROUND
  6
CONTINUOUS
 10
8.499920
 20
3.537160
  0
VERTEX
  8
FOREGROUND
  6
CONTINUOUS
 10
8.499920
 20
-7.462840
  0
VERTEX
  8
FOREGROUND
  6
CONTINUOUS
 10
0.000000
 20
-7.462840
  0
VERTEX
  8
FOREGROUND
  6
CONTINUOUS
 10
0.000000
 20
3.537160
  0
SEQEND
  8
0
  0
SOLID
  8
0
 62
    15
 10
3.991680
 20
2.794880
 11
4.645520
 21
3.167560
 12
4.070440
 22
2.741640
 13
4.724280
 23
3.114320
  0
POLYLINE
  8
0
  6
CONTINUOUS
 66
     1
 40
0.000000
 41
0.000000
  0
VERTEX
  8
0
  6
CONTINUOUS
 10
3.991680
 20
2.794880
  0
VERTEX
  8
0
  6
CONTINUOUS
 10
4.645520
 20
3.167560
  0
VERTEX
  8
0
  6
CONTINUOUS
 10
4.724280
 20
3.114320
  0
VERTEX
  8
0
  6
CONTINUOUS
 10
4.070440
 20
2.741640
  0
VERTEX
  8
0
  6
CONTINUOUS
 10
3.991680
 20
2.794880
  0
SEQEND
  8
0
  0
SOLID
  8
0
 62
    15
 10
2.371160
 20
2.810720
 11
3.025440
 21
3.182960
 12
2.421320
 22
2.815560
 13
3.075160
 23
3.188240
  0
POLYLINE
  8
0
  6
CONTINUOUS
 66
     1
 40
0.000000
 41
0.000000
  0
VERTEX
  8
0
  6
CONTINUOUS
 10
2.371160
 20
2.810720
  0
VERTEX
  8
0
  6
CONTINUOUS
 10
3.025440
 20
3.182960
  0
VERTEX
  8
0
  6
CONTINUOUS
 10
3.075160
 20
3.188240
  0
VERTEX
  8
0
  6
CONTINUOUS
 10
2.421320
 20
2.815560
  0
VERTEX
  8
0
  6
CONTINUOUS
 10
2.371160
 20
2.810720
  0
SEQEND
  8
0
  0
SOLID
  8
0
 62
    15
 10
2.421320
 20
2.815560
 11
3.075160
 21
3.188240
 12
2.425280
 22
2.815120
 13
3.079560
 23
3.187800
  0
POLYLINE
  8
0
  6
CONTINUOUS
 66
     1
 40
0.000000
 41
0.000000
  0
VERTEX
  8
0
  6
CONTINUOUS
 10
2.421320
 20
2.815560
  0
VERTEX
  8
0
  6
CONTINUOUS
 10
3.075160
 20
3.188240
  0
VERTEX
  8
0
  6
CONTINUOUS
 10
3.079560
 20
3.187800
  0
VERTEX
  8
0
  6
CONTINUOUS
 10
2.425280
 20
2.815120
  0
VERTEX
  8
0
  6
CONTINUOUS
 10
2.421320
 20
2.815560
  0
SEQEND
  8
0
  0
SOLID
  8
0
 62
    15
 10
2.425280
 20
2.815120
 11
3.079560
 21
3.187800
 12
3.895760
 22
2.815120
 13
4.549600
 23
3.187800
  0
POLYLINE
  8
0
  6
CONTINUOUS
 66
     1
 40
0.000000
 41
0.000000
  0
VERTEX
  8
0
  6
CONTINUOUS
 10
2.425280
 20
2.815120
  0
VERTEX
  8
0
  6
CONTINUOUS
 10
3.079560
 20
3.187800
  0
VERTEX
  8
0
  6
CONTINUOUS
 10
4.549600
 20
3.187800
  0
VERTEX
  8
0
  6
CONTINUOUS
 10
3.895760
 20
2.815120
  0
VERTEX
  8
0
  6
CONTINUOUS
 10
2.425280
 20
2.815120
  0
SEQEND
  8
0
  0
SOLID
  8
0
 62
    15
 10
3.895760
 20
2.815120
 11
4.549600
 21
3.187800
 12
3.895320
 22
2.814240
 13
4.549160
 23
3.186920
  0
POLYLINE
  8
0
  6
CONTINUOUS
 66
     1
 40
0.000000
 41
0.000000
  0
VERTEX
  8
0
  6
CONTINUOUS
 10
3.895760
 20
2.815120
  0
VERTEX
  8
0
  6
CONTINUOUS
 10
4.549600
 20
3.187800
  0
VERTEX
  8
0
  6
CONTINUOUS
 10
4.549160
 20
3.186920
  0
VERTEX
  8
0
  6
CONTINUOUS
 10
3.895320
 20
2.814240
  0
VERTEX
  8
0
  6
CONTINUOUS
 10
3.895760
 20
2.815120
  0
SEQEND
  8
0
  0
SOLID
  8
0
 62
    15
 10
3.895320
 20
2.814240
 11
4.549160
 21
3.186920
 12
3.945040
 22
2.809400
 13
4.598880
 23
3.182080
  0
POLYLINE
  8
0
  6
CONTINUOUS
 66
     1
 40
0.000000
 41
0.000000
  0
VERTEX
  8
0
  6
CONTINUOUS
 10
3.895320
 20
2.814240
  0
VERTEX
  8
0
  6
CONTINUOUS
 10
4.549160
 20
3.186920
  0
VERTEX
  8
0
  6
CONTINUOUS
 10
4.598880
 20
3.182080
  0
VERTEX
  8
0
  6
CONTINUOUS
 10
3.945040
 20
2.809400
  0
VERTEX
  8
0
  6
CONTINUOUS
 10
3.895320
 20
2.814240
  0
SEQEND
  8
0
  0
SOLID
  8
0
 62
    15
 10
3.945040
 20
2.809400
 11
4.598880
 21
3.182080
 12
3.991680
 22
2.794880
 13
4.645520
 23
3.167560
  0
POLYLINE
  8
0
  6
CONTINUOUS
 66
     1
 40
0.000000
 41
0.000000
  0
VERTEX
  8
0
  6
CONTINUOUS
 10
3.945040
 20
2.809400
  0
VERTEX
  8
0
  6
CONTINUOUS
 10
4.598880
 20
3.182080
  0
VERTEX
  8
0
  6
CONTINUOUS
 10
4.645520
 20
3.167560
  0
VERTEX
  8
0
  6
CONTINUOUS
 10
3.991680
 20
2.794880
  0
VERTEX
  8
0
  6
CONTINUOUS
 10
3.945040
 20
2.809400
  0
SEQEND
  8
0
  0
SOLID
  8
0
 62
    15
 10
2.324960
 20
2.796200
 11
2.978800
 21
3.168880
 12
2.371160
 22
2.810720
 13
3.025440
 23
3.182960
  0
POLYLINE
  8
0
  6
CONTINUOUS
 66
     1
 40
0.000000
 41
0.000000
  0
VERTEX
  8
0
  6
CONTINUOUS
 10
2.324960
 20
2.796200
  0
VERTEX
  8
0
  6
CONTINUOUS
 10
2.978800
 20
3.168880
  0
VERTEX
  8
0
  6
CONTINUOUS
 10
3.025440
 20
3.182960
  0
VERTEX
  8
0
  6
CONTINUOUS
 10
2.371160
 20
2.810720
  0
VERTEX
  8
0
  6
CONTINUOUS
 10
2.324960
 20
2.796200
  0
SEQEND
  8
0
  0
SOLID
  8
0
 62
    15
 10
4.070440
 20
2.741640
 11
4.724280
 21
3.114320
 12
4.123680
 22
2.662880
 13
4.777520
 23
3.035560
  0
POLYLINE
  8
0
  6
CONTINUOUS
 66
     1
 40
0.000000
 41
0.000000
  0
VERTEX
  8
0
  6
CONTINUOUS
 10
4.070440
 20
2.741640
  0
VERTEX
  8
0
  6
CONTINUOUS
 10
4.724280
 20
3.114320
  0
VERTEX
  8
0
  6
CONTINUOUS
 10
4.777520
 20
3.035560
  0
VERTEX
  8
0
  6
CONTINUOUS
 10
4.123680
 20
2.662880
  0
VERTEX
  8
0
  6
CONTINUOUS
 10
4.070440
 20
2.741640
  0
SEQEND
  8
0
  0
SOLID
  8
0
 62
    15
 10
4.123680
 20
2.662880
 11
4.777520
 21
3.035560
 12
4.138200
 22
2.616240
 13
4.792040
 23
2.988920
  0
POLYLINE
  8
0
  6
CONTINUOUS
 66
     1
 40
0.000000
 41
0.000000
  0
VERTEX
  8
0
  6
CONTINUOUS
 10
4.123680
 20
2.662880
  0
VERTEX
  8
0
  6
CONTINUOUS
 10
4.777520
 20
3.035560
  0
VERTEX
  8
0
  6
CONTINUOUS
 10
4.792040
 20
2.988920
  0
VERTEX
  8
0
  6
CONTINUOUS
 10
4.138200
 20
2.616240
  0
VERTEX
  8
0
  6
CONTINUOUS
 10
4.123680
 20
2.662880
  0
SEQEND
  8
0
  0
SOLID
  8
0
 62
    15
 10
4.138200
 20
2.616240
 11
4.792040
 21
2.988920
 12
4.143040
 22
2.566520
 13
4.796880
 23
2.938760
  0
POLYLINE
  8
0
  6
CONTINUOUS
 66
     1
 40
0.000000
 41
0.000000
  0
VERTEX
  8
0
  6
CONTINUOUS
 10
4.138200
 20
2.616240
  0
VERTEX
  8
0
  6
CONTINUOUS
 10
4.792040
 20
2.988920
  0
VERTEX
  8
0
  6
CONTINUOUS
 10
4.796880
 20
2.938760
  0
VERTEX
  8
0
  6
CONTINUOUS
 10
4.143040
 20
2.566520
  0
VERTEX
  8
0
  6
CONTINUOUS
 10
4.138200
 20
2.616240
  0
SEQEND
  8
0
  0
SOLID
  8
0
 62
    15
 10
4.143040
 20
2.566520
 11
4.796880
 21
2.938760
 12
4.143040
 22
0.806960
 13
4.796880
 23
1.179640
  0
POLYLINE
  8
0
  6
CONTINUOUS
 66
     1
 40
0.000000
 41
0.000000
  0
VERTEX
  8
0
  6
CONTINUOUS
 10
4.143040
 20
2.566520
  0
VERTEX
  8
0
  6
CONTINUOUS
 10
4.796880
 20
2.938760
  0
VERTEX
  8
0
  6
CONTINUOUS
 10
4.796880
 20
1.179640
  0
VERTEX
  8
0
  6
CONTINUOUS
 10
4.143040
 20
0.806960
  0
VERTEX
  8
0
  6
CONTINUOUS
 10
4.143040
 20
2.566520
  0
SEQEND
  8
0
  0
SOLID
  8
0
 62
    15
 10
4.143040
 20
0.806960
 11
4.796880
 21
1.179640
 12
4.141280
 22
0.804760
 13
4.795560
 23
1.177440
  0
POLYLINE
  8
0
  6
CONTINUOUS
 66
     1
 40
0.000000
 41
0.000000
  0
VERTEX
  8
0
  6
CONTINUOUS
 10
4.143040
 20
0.806960
  0
VERTEX
  8
0
  6
CONTINUOUS
 10
4.796880
 20
1.179640
  0
VERTEX
  8
0
  6
CONTINUOUS
 10
4.795560
 20
1.177440
  0
VERTEX
  8
0
  6
CONTINUOUS
 10
4.141280
 20
0.804760
  0
VERTEX
  8
0
  6
CONTINUOUS
 10
4.143040
 20
0.806960
  0
SEQEND
  8
0
  0
SOLID
  8
0
 62
    15
 10
2.172720
 20
0.870320
 11
2.826560
 21
1.243000
 12
2.173600
 22
0.808280
 13
2.827440
 23
1.180520
  0
POLYLINE
  8
0
  6
CONTINUOUS
 66
     1
 40
0.000000
 41
0.000000
  0
VERTEX
  8
0
  6
CONTINUOUS
 10
2.172720
 20
0.870320
  0
VERTEX
  8
0
  6
CONTINUOUS
 10
2.826560
 20
1.243000
  0
VERTEX
  8
0
  6
CONTINUOUS
 10
2.827440
 20
1.180520
  0
VERTEX
  8
0
  6
CONTINUOUS
 10
2.173600
 20
0.808280
  0
VERTEX
  8
0
  6
CONTINUOUS
 10
2.172720
 20
0.870320
  0
SEQEND
  8
0
  0
POLYLINE
  8
0
  6
CONTINUOUS
 66
     1
 40
0.000000
 41
0.000000
  0
VERTEX
  8
0
  6
CONTINUOUS
 10
2.173600
 20
0.808280
  0
VERTEX
  8
0
  6
CONTINUOUS
 10
2.173600
 20
2.567400
  0
VERTEX
  8
0
  6
CONTINUOUS
 10
2.178440
 20
2.617560
  0
VERTEX
  8
0
  6
CONTINUOUS
 10
2.192960
 20
2.664200
  0
VERTEX
  8
0
  6
CONTINUOUS
 10
2.246200
 20
2.742960
  0
VERTEX
  8
0
  6
CONTINUOUS
 10
2.324960
 20
2.796200
  0
VERTEX
  8
0
  6
CONTINUOUS
 10
2.371160
 20
2.810720
  0
VERTEX
  8
0
  6
CONTINUOUS
 10
2.421320
 20
2.815560
  0
VERTEX
  8
0
  6
CONTINUOUS
 10
2.425280
 20
2.815120
  0
VERTEX
  8
0
  6
CONTINUOUS
 10
3.895760
 20
2.815120
  0
VERTEX
  8
0
  6
CONTINUOUS
 10
3.895320
 20
2.814240
  0
VERTEX
  8
0
  6
CONTINUOUS
 10
3.945040
 20
2.809400
  0
VERTEX
  8
0
  6
CONTINUOUS
 10
3.991680
 20
2.794880
  0
VERTEX
  8
0
  6
CONTINUOUS
 10
4.070440
 20
2.741640
  0
VERTEX
  8
0
  6
CONTINUOUS
 10
4.123680
 20
2.662880
  0
VERTEX
  8
0
  6
CONTINUOUS
 10
4.138200
 20
2.616240
  0
VERTEX
  8
0
  6
CONTINUOUS
 10
4.143040
 20
2.566520
  0
VERTEX
  8
0
  6
CONTINUOUS
 10
4.143040
 20
0.806960
  0
VERTEX
  8
0
  6
CONTINUOUS
 10
4.141280
 20
0.804760
  0
VERTEX
  8
0
  6
CONTINUOUS
 10
2.172720
 20
0.804760
  0
VERTEX
  8
0
  6
CONTINUOUS
 10
2.172720
 20
0.870320
  0
VERTEX
  8
0
  6
CONTINUOUS
 10
2.173600
 20
0.808280
  0
SEQEND
  8
0
  0
TEXT
  8
0
 10
3.190000
 20
0.583000
 40
0.137959
  1
BA  402
 41
1.000000
  7
SN0
 71
     0
 72
     5
 11
3.780028
 21
0.583000
  0
TEXT
  8
0
 10
3.246320
 20
0.391600
 40
0.137959
  1
2" x 2"
 41
1.000000
  7
SN0
 71
     0
 72
     5
 11
3.723172
 21
0.391600
  0
POLYLINE
  8
0
  6
CONTINUOUS
 66
     1
 40
0.014080
 41
0.014080
  0
VERTEX
  8
0
  6
CONTINUOUS
 10
5.072320
 20
0.970640
  0
VERTEX
  8
0
  6
CONTINUOUS
 10
5.072320
 20
0.905080
  0
VERTEX
  8
0
  6
CONTINUOUS
 10
7.040880
 20
0.905080
  0
VERTEX
  8
0
  6
CONTINUOUS
 10
7.042640
 20
0.907280
  0
VERTEX
  8
0
  6
CONTINUOUS
 10
7.042200
 20
2.679160
  0
VERTEX
  8
0
  6
CONTINUOUS
 10
7.040000
 20
2.704240
  0
VERTEX
  8
0
  6
CONTINUOUS
 10
7.031640
 20
2.740320
  0
VERTEX
  8
0
  6
CONTINUOUS
 10
7.023280
 20
2.763200
  0
VERTEX
  8
0
  6
CONTINUOUS
 10
7.012720
 20
2.784760
  0
VERTEX
  8
0
  6
CONTINUOUS
 10
7.000400
 20
2.805440
  0
VERTEX
  8
0
  6
CONTINUOUS
 10
6.970040
 20
2.841960
  0
VERTEX
  8
0
  6
CONTINUOUS
 10
6.933520
 20
2.872320
  0
VERTEX
  8
0
  6
CONTINUOUS
 10
6.912840
 20
2.884640
  0
VERTEX
  8
0
  6
CONTINUOUS
 10
6.891280
 20
2.895200
  0
VERTEX
  8
0
  6
CONTINUOUS
 10
6.856960
 20
2.906640
  0
VERTEX
  8
0
  6
CONTINUOUS
 10
6.832760
 20
2.911920
  0
VERTEX
  8
0
  6
CONTINUOUS
 10
6.794920
 20
2.914560
  0
VERTEX
  8
0
  6
CONTINUOUS
 10
6.795360
 20
2.915440
  0
VERTEX
  8
0
  6
CONTINUOUS
 10
5.308160
 20
2.915440
  0
VERTEX
  8
0
  6
CONTINUOUS
 10
5.283080
 20
2.913240
  0
VERTEX
  8
0
  6
CONTINUOUS
 10
5.247440
 20
2.904880
  0
VERTEX
  8
0
  6
CONTINUOUS
 10
5.224560
 20
2.896520
  0
VERTEX
  8
0
  6
CONTINUOUS
 10
5.203000
 20
2.885960
  0
VERTEX
  8
0
  6
CONTINUOUS
 10
5.182320
 20
2.873640
  0
VERTEX
  8
0
  6
CONTINUOUS
 10
5.145800
 20
2.843280
  0
VERTEX
  8
0
  6
CONTINUOUS
 10
5.115440
 20
2.806760
  0
VERTEX
  8
0
  6
CONTINUOUS
 10
5.103120
 20
2.786080
  0
VERTEX
  8
0
  6
CONTINUOUS
 10
5.092560
 20
2.764520
  0
VERTEX
  8
0
  6
CONTINUOUS
 10
5.084200
 20
2.741640
  0
VERTEX
  8
0
  6
CONTINUOUS
 10
5.075840
 20
2.705560
  0
VERTEX
  8
0
  6
CONTINUOUS
 10
5.073200
 20
2.667720
  0
VERTEX
  8
0
  6
CONTINUOUS
 10
5.073200
 20
0.908160
  0
VERTEX
  8
0
  6
CONTINUOUS
 10
5.072320
 20
0.970640
  0
SEQEND
  8
0
  0
ENDSEC
  0
EOF
