  0
SECTION
  2
HEADER
  9
$ACADVER
  1
AC1006
  9
$EXTMIN
 10
2.735480
 20
3.109480
  9
$EXTMAX
 10
6.342160
 20
6.348760
  9
$LTSCALE
 40
0.044000
  9
$PDMODE
 70
    35
  9
$PDSIZE
 40
0.035200
  0
ENDSEC
  0
SECTION
  2
TABLES
  0
TABLE
  2
LTYPE
 70
     9
  0
LTYPE
  2
CONTINUOUS
 70
    64
  3
Solid line
 72
    65
 73
     0
 40
0.000000
  0
LTYPE
  2
DASHED
 70
    64
  3
__ __ __ __ __ __ __ __ __ __ __ __ __ __ __
 72
    65
 73
     2
 40
0.000330
 49
0.000220
 49
-0.000110
  0
LTYPE
  2
HIDDEN
 70
    64
  3
 _ _ _ _ _ _ _ _ _ _ _ _ _ _ _ _ _ _ _ _ _ _
 72
    65
 73
     2
 40
0.000165
 49
0.000110
 49
-0.000055
  0
LTYPE
  2
CENTER
 70
    64
  3
____ _ ____ _ ____ _ ____ _ ____ _ ____ _ ____
 72
    65
 73
     4
 40
0.000880
 49
0.000550
 49
-0.000110
 49
0.000110
 49
-0.000110
  0
LTYPE
  2
PHANTOM
 70
    64
  3
_____ _ _ _____ _ _ _____ _ _ _____ _ _ ____
 72
    65
 73
     6
 40
0.001100
 49
0.000550
 49
-0.000110
 49
0.000110
 49
-0.000110
 49
0.000110
 49
-0.000110
  0
LTYPE
  2
DOT
 70
    64
  3
...............................................
 72
    65
 73
     2
 40
0.000110
 49
0.000000
 49
-0.000110
  0
LTYPE
  2
DASHDOT
 70
    64
  3
__ . __ . __ . __ . __ . __ . __ . __ . __ . __
 72
    65
 73
     4
 40
0.000440
 49
0.000220
 49
-0.000110
 49
0.000000
 49
-0.000110
  0
LTYPE
  2
BORDER
 70
    64
  3
__ __ . __ __ . __ __ . __ __ . __ __ . __ __
 72
    65
 73
     6
 40
0.000770
 49
0.000220
 49
-0.000110
 49
0.000220
 49
-0.000110
 49
0.000000
 49
-0.000110
  0
LTYPE
  2
DIVIDE
 70
    64
  3
__ . . __ . . __ . . __ . . __ . . __ . . __
 72
    65
 73
     6
 40
0.000550
 49
0.000220
 49
-0.000110
 49
0.000000
 49
-0.000110
 49
0.000000
 49
-0.000110
  0
LTYPE
  2
DOTDOT
 70
    64
  3
 . .  . .  . .  . .  . .  . . 
 72
    65
 73
     5
 40
0.000242
 49
-0.000110
 49
0.000000
 49
-0.000110
 49
0.000000
 49
-0.000110
  0
ENDTAB
  0
TABLE
  2
STYLE
 70
     2
  0
STYLE
 70
     0
  2
SN0
 40
0.000000
 41
0.000440
 50
0.000000
 71
     0
 42
0.000000
  3
ROMAND
  0
STYLE
 70
    68
  2
SV0
 40
0.000000
 41
0.000440
 50
0.000000
 71
     0
 42
0.000000
  3
ROMAND
  0
ENDTAB
  0
TABLE
  2
LAYER
 70
     3
  0
LAYER
  2
FOREGROUND
 70
    64
 62
     7
  6
CONTINUOUS
  0
LAYER
  2
BACKGROUND
 70
    65
 62
    -7
  6
CONTINUOUS
  0
LAYER
  2
0
 70
    64
 62
     7
  6
CONTINUOUS
  0
ENDTAB
  0
ENDSEC
  0
SECTION
  2
ENTITIES
  0
POLYLINE
  8
FOREGROUND
  6
CONTINUOUS
 66
     1
 40
0.000000
 41
0.000000
  0
VERTEX
  8
FOREGROUND
  6
CONTINUOUS
 10
0.000000
 20
9.458240
  0
VERTEX
  8
FOREGROUND
  6
CONTINUOUS
 10
8.499920
 20
9.458240
  0
VERTEX
  8
FOREGROUND
  6
CONTINUOUS
 10
8.499920
 20
-1.541760
  0
VERTEX
  8
FOREGROUND
  6
CONTINUOUS
 10
0.000000
 20
-1.541760
  0
VERTEX
  8
FOREGROUND
  6
CONTINUOUS
 10
0.000000
 20
9.458240
  0
SEQEND
  8
0
  0
POLYLINE
  8
FOREGROUND
  6
CONTINUOUS
 66
     1
 40
0.000000
 41
0.000000
  0
VERTEX
  8
FOREGROUND
  6
CONTINUOUS
 10
0.000000
 20
9.458240
  0
VERTEX
  8
FOREGROUND
  6
CONTINUOUS
 10
8.499920
 20
9.458240
  0
VERTEX
  8
FOREGROUND
  6
CONTINUOUS
 10
8.499920
 20
-1.541760
  0
VERTEX
  8
FOREGROUND
  6
CONTINUOUS
 10
0.000000
 20
-1.541760
  0
VERTEX
  8
FOREGROUND
  6
CONTINUOUS
 10
0.000000
 20
9.458240
  0
SEQEND
  8
0
  0
SOLID
  8
0
 62
    15
 10
3.201440
 20
4.037440
 11
3.840320
 21
4.416280
 12
3.168000
 22
4.004000
 13
3.807320
 23
4.382840
  0
POLYLINE
  8
0
  6
CONTINUOUS
 66
     1
 40
0.000000
 41
0.000000
  0
VERTEX
  8
0
  6
CONTINUOUS
 10
3.201440
 20
4.037440
  0
VERTEX
  8
0
  6
CONTINUOUS
 10
3.840320
 20
4.416280
  0
VERTEX
  8
0
  6
CONTINUOUS
 10
3.807320
 20
4.382840
  0
VERTEX
  8
0
  6
CONTINUOUS
 10
3.168000
 20
4.004000
  0
VERTEX
  8
0
  6
CONTINUOUS
 10
3.201440
 20
4.037440
  0
SEQEND
  8
0
  0
SOLID
  8
0
 62
    15
 10
3.404720
 20
4.367000
 11
4.044040
 21
4.745840
 12
3.400760
 22
4.307600
 13
4.040080
 23
4.686440
  0
POLYLINE
  8
0
  6
CONTINUOUS
 66
     1
 40
0.000000
 41
0.000000
  0
VERTEX
  8
0
  6
CONTINUOUS
 10
3.404720
 20
4.367000
  0
VERTEX
  8
0
  6
CONTINUOUS
 10
4.044040
 20
4.745840
  0
VERTEX
  8
0
  6
CONTINUOUS
 10
4.040080
 20
4.686440
  0
VERTEX
  8
0
  6
CONTINUOUS
 10
3.400760
 20
4.307600
  0
VERTEX
  8
0
  6
CONTINUOUS
 10
3.404720
 20
4.367000
  0
SEQEND
  8
0
  0
SOLID
  8
0
 62
    15
 10
3.400760
 20
4.307600
 11
4.040080
 21
4.686440
 12
3.389760
 22
4.255240
 13
4.029080
 23
4.634080
  0
POLYLINE
  8
0
  6
CONTINUOUS
 66
     1
 40
0.000000
 41
0.000000
  0
VERTEX
  8
0
  6
CONTINUOUS
 10
3.400760
 20
4.307600
  0
VERTEX
  8
0
  6
CONTINUOUS
 10
4.040080
 20
4.686440
  0
VERTEX
  8
0
  6
CONTINUOUS
 10
4.029080
 20
4.634080
  0
VERTEX
  8
0
  6
CONTINUOUS
 10
3.389760
 20
4.255240
  0
VERTEX
  8
0
  6
CONTINUOUS
 10
3.400760
 20
4.307600
  0
SEQEND
  8
0
  0
SOLID
  8
0
 62
    15
 10
3.389760
 20
4.255240
 11
4.029080
 21
4.634080
 12
3.372600
 22
4.209040
 13
4.011920
 23
4.587880
  0
POLYLINE
  8
0
  6
CONTINUOUS
 66
     1
 40
0.000000
 41
0.000000
  0
VERTEX
  8
0
  6
CONTINUOUS
 10
3.389760
 20
4.255240
  0
VERTEX
  8
0
  6
CONTINUOUS
 10
4.029080
 20
4.634080
  0
VERTEX
  8
0
  6
CONTINUOUS
 10
4.011920
 20
4.587880
  0
VERTEX
  8
0
  6
CONTINUOUS
 10
3.372600
 20
4.209040
  0
VERTEX
  8
0
  6
CONTINUOUS
 10
3.389760
 20
4.255240
  0
SEQEND
  8
0
  0
SOLID
  8
0
 62
    15
 10
3.372600
 20
4.209040
 11
4.011920
 21
4.587880
 12
3.350600
 22
4.169000
 13
3.989920
 23
4.547840
  0
POLYLINE
  8
0
  6
CONTINUOUS
 66
     1
 40
0.000000
 41
0.000000
  0
VERTEX
  8
0
  6
CONTINUOUS
 10
3.372600
 20
4.209040
  0
VERTEX
  8
0
  6
CONTINUOUS
 10
4.011920
 20
4.587880
  0
VERTEX
  8
0
  6
CONTINUOUS
 10
3.989920
 20
4.547840
  0
VERTEX
  8
0
  6
CONTINUOUS
 10
3.350600
 20
4.169000
  0
VERTEX
  8
0
  6
CONTINUOUS
 10
3.372600
 20
4.209040
  0
SEQEND
  8
0
  0
SOLID
  8
0
 62
    15
 10
3.350600
 20
4.169000
 11
3.989920
 21
4.547840
 12
3.324640
 22
4.134680
 13
3.963960
 23
4.513520
  0
POLYLINE
  8
0
  6
CONTINUOUS
 66
     1
 40
0.000000
 41
0.000000
  0
VERTEX
  8
0
  6
CONTINUOUS
 10
3.350600
 20
4.169000
  0
VERTEX
  8
0
  6
CONTINUOUS
 10
3.989920
 20
4.547840
  0
VERTEX
  8
0
  6
CONTINUOUS
 10
3.963960
 20
4.513520
  0
VERTEX
  8
0
  6
CONTINUOUS
 10
3.324640
 20
4.134680
  0
VERTEX
  8
0
  6
CONTINUOUS
 10
3.350600
 20
4.169000
  0
SEQEND
  8
0
  0
SOLID
  8
0
 62
    15
 10
3.324640
 20
4.134680
 11
3.963960
 21
4.513520
 12
3.295600
 22
4.105200
 13
3.934920
 23
4.484040
  0
POLYLINE
  8
0
  6
CONTINUOUS
 66
     1
 40
0.000000
 41
0.000000
  0
VERTEX
  8
0
  6
CONTINUOUS
 10
3.324640
 20
4.134680
  0
VERTEX
  8
0
  6
CONTINUOUS
 10
3.963960
 20
4.513520
  0
VERTEX
  8
0
  6
CONTINUOUS
 10
3.934920
 20
4.484040
  0
VERTEX
  8
0
  6
CONTINUOUS
 10
3.295600
 20
4.105200
  0
VERTEX
  8
0
  6
CONTINUOUS
 10
3.324640
 20
4.134680
  0
SEQEND
  8
0
  0
SOLID
  8
0
 62
    15
 10
3.295600
 20
4.105200
 11
3.934920
 21
4.484040
 12
3.233560
 22
4.060320
 13
3.872880
 23
4.439160
  0
POLYLINE
  8
0
  6
CONTINUOUS
 66
     1
 40
0.000000
 41
0.000000
  0
VERTEX
  8
0
  6
CONTINUOUS
 10
3.295600
 20
4.105200
  0
VERTEX
  8
0
  6
CONTINUOUS
 10
3.934920
 20
4.484040
  0
VERTEX
  8
0
  6
CONTINUOUS
 10
3.872880
 20
4.439160
  0
VERTEX
  8
0
  6
CONTINUOUS
 10
3.233560
 20
4.060320
  0
VERTEX
  8
0
  6
CONTINUOUS
 10
3.295600
 20
4.105200
  0
SEQEND
  8
0
  0
SOLID
  8
0
 62
    15
 10
3.233560
 20
4.060320
 11
3.872880
 21
4.439160
 12
3.201440
 22
4.037440
 13
3.840320
 23
4.416280
  0
POLYLINE
  8
0
  6
CONTINUOUS
 66
     1
 40
0.000000
 41
0.000000
  0
VERTEX
  8
0
  6
CONTINUOUS
 10
3.233560
 20
4.060320
  0
VERTEX
  8
0
  6
CONTINUOUS
 10
3.872880
 20
4.439160
  0
VERTEX
  8
0
  6
CONTINUOUS
 10
3.840320
 20
4.416280
  0
VERTEX
  8
0
  6
CONTINUOUS
 10
3.201440
 20
4.037440
  0
VERTEX
  8
0
  6
CONTINUOUS
 10
3.233560
 20
4.060320
  0
SEQEND
  8
0
  0
SOLID
  8
0
 62
    15
 10
3.168000
 20
4.004000
 11
3.807320
 21
4.382840
 12
3.135000
 22
3.961760
 13
3.774320
 23
4.340600
  0
POLYLINE
  8
0
  6
CONTINUOUS
 66
     1
 40
0.000000
 41
0.000000
  0
VERTEX
  8
0
  6
CONTINUOUS
 10
3.168000
 20
4.004000
  0
VERTEX
  8
0
  6
CONTINUOUS
 10
3.807320
 20
4.382840
  0
VERTEX
  8
0
  6
CONTINUOUS
 10
3.774320
 20
4.340600
  0
VERTEX
  8
0
  6
CONTINUOUS
 10
3.135000
 20
3.961760
  0
VERTEX
  8
0
  6
CONTINUOUS
 10
3.168000
 20
4.004000
  0
SEQEND
  8
0
  0
SOLID
  8
0
 62
    15
 10
3.790600
 20
4.756840
 11
4.429920
 21
5.135680
 12
3.790600
 22
4.367000
 13
4.429920
 23
4.745840
  0
POLYLINE
  8
0
  6
CONTINUOUS
 66
     1
 40
0.000000
 41
0.000000
  0
VERTEX
  8
0
  6
CONTINUOUS
 10
3.790600
 20
4.756840
  0
VERTEX
  8
0
  6
CONTINUOUS
 10
4.429920
 20
5.135680
  0
VERTEX
  8
0
  6
CONTINUOUS
 10
4.429920
 20
4.745840
  0
VERTEX
  8
0
  6
CONTINUOUS
 10
3.790600
 20
4.367000
  0
VERTEX
  8
0
  6
CONTINUOUS
 10
3.790600
 20
4.756840
  0
SEQEND
  8
0
  0
SOLID
  8
0
 62
    15
 10
3.135000
 20
3.961760
 11
3.774320
 21
4.340600
 12
3.104640
 22
3.909840
 13
3.743960
 23
4.288680
  0
POLYLINE
  8
0
  6
CONTINUOUS
 66
     1
 40
0.000000
 41
0.000000
  0
VERTEX
  8
0
  6
CONTINUOUS
 10
3.135000
 20
3.961760
  0
VERTEX
  8
0
  6
CONTINUOUS
 10
3.774320
 20
4.340600
  0
VERTEX
  8
0
  6
CONTINUOUS
 10
3.743960
 20
4.288680
  0
VERTEX
  8
0
  6
CONTINUOUS
 10
3.104640
 20
3.909840
  0
VERTEX
  8
0
  6
CONTINUOUS
 10
3.135000
 20
3.961760
  0
SEQEND
  8
0
  0
SOLID
  8
0
 62
    15
 10
3.104640
 20
3.909840
 11
3.743960
 21
4.288680
 12
3.078240
 22
3.850000
 13
3.717560
 23
4.228840
  0
POLYLINE
  8
0
  6
CONTINUOUS
 66
     1
 40
0.000000
 41
0.000000
  0
VERTEX
  8
0
  6
CONTINUOUS
 10
3.104640
 20
3.909840
  0
VERTEX
  8
0
  6
CONTINUOUS
 10
3.743960
 20
4.288680
  0
VERTEX
  8
0
  6
CONTINUOUS
 10
3.717560
 20
4.228840
  0
VERTEX
  8
0
  6
CONTINUOUS
 10
3.078240
 20
3.850000
  0
VERTEX
  8
0
  6
CONTINUOUS
 10
3.104640
 20
3.909840
  0
SEQEND
  8
0
  0
SOLID
  8
0
 62
    15
 10
3.078240
 20
3.850000
 11
3.717560
 21
4.228840
 12
3.057120
 22
3.781800
 13
3.696440
 23
4.160640
  0
POLYLINE
  8
0
  6
CONTINUOUS
 66
     1
 40
0.000000
 41
0.000000
  0
VERTEX
  8
0
  6
CONTINUOUS
 10
3.078240
 20
3.850000
  0
VERTEX
  8
0
  6
CONTINUOUS
 10
3.717560
 20
4.228840
  0
VERTEX
  8
0
  6
CONTINUOUS
 10
3.696440
 20
4.160640
  0
VERTEX
  8
0
  6
CONTINUOUS
 10
3.057120
 20
3.781800
  0
VERTEX
  8
0
  6
CONTINUOUS
 10
3.078240
 20
3.850000
  0
SEQEND
  8
0
  0
SOLID
  8
0
 62
    15
 10
3.057120
 20
3.781800
 11
3.696440
 21
4.160640
 12
3.043480
 22
3.705680
 13
3.682800
 23
4.084520
  0
POLYLINE
  8
0
  6
CONTINUOUS
 66
     1
 40
0.000000
 41
0.000000
  0
VERTEX
  8
0
  6
CONTINUOUS
 10
3.057120
 20
3.781800
  0
VERTEX
  8
0
  6
CONTINUOUS
 10
3.696440
 20
4.160640
  0
VERTEX
  8
0
  6
CONTINUOUS
 10
3.682800
 20
4.084520
  0
VERTEX
  8
0
  6
CONTINUOUS
 10
3.043480
 20
3.705680
  0
VERTEX
  8
0
  6
CONTINUOUS
 10
3.057120
 20
3.781800
  0
SEQEND
  8
0
  0
SOLID
  8
0
 62
    15
 10
3.043480
 20
3.705680
 11
3.682800
 21
4.084520
 12
3.038640
 22
3.622520
 13
3.677960
 23
4.001360
  0
POLYLINE
  8
0
  6
CONTINUOUS
 66
     1
 40
0.000000
 41
0.000000
  0
VERTEX
  8
0
  6
CONTINUOUS
 10
3.043480
 20
3.705680
  0
VERTEX
  8
0
  6
CONTINUOUS
 10
3.682800
 20
4.084520
  0
VERTEX
  8
0
  6
CONTINUOUS
 10
3.677960
 20
4.001360
  0
VERTEX
  8
0
  6
CONTINUOUS
 10
3.038640
 20
3.622520
  0
VERTEX
  8
0
  6
CONTINUOUS
 10
3.043480
 20
3.705680
  0
SEQEND
  8
0
  0
SOLID
  8
0
 62
    15
 10
2.736360
 20
5.087280
 11
3.375240
 21
5.466120
 12
3.050520
 22
5.087280
 13
3.689840
 23
5.466120
  0
POLYLINE
  8
0
  6
CONTINUOUS
 66
     1
 40
0.000000
 41
0.000000
  0
VERTEX
  8
0
  6
CONTINUOUS
 10
2.736360
 20
5.087280
  0
VERTEX
  8
0
  6
CONTINUOUS
 10
3.375240
 20
5.466120
  0
VERTEX
  8
0
  6
CONTINUOUS
 10
3.689840
 20
5.466120
  0
VERTEX
  8
0
  6
CONTINUOUS
 10
3.050520
 20
5.087280
  0
VERTEX
  8
0
  6
CONTINUOUS
 10
2.736360
 20
5.087280
  0
SEQEND
  8
0
  0
SOLID
  8
0
 62
     7
 10
3.050520
 20
5.087280
 11
3.689840
 21
5.466120
 12
3.050520
 22
4.756840
 13
3.689840
 23
5.135680
  0
POLYLINE
  8
0
  6
CONTINUOUS
 66
     1
 40
0.000000
 41
0.000000
  0
VERTEX
  8
0
  6
CONTINUOUS
 10
3.050520
 20
5.087280
  0
VERTEX
  8
0
  6
CONTINUOUS
 10
3.689840
 20
5.466120
  0
VERTEX
  8
0
  6
CONTINUOUS
 10
3.689840
 20
5.135680
  0
VERTEX
  8
0
  6
CONTINUOUS
 10
3.050520
 20
4.756840
  0
VERTEX
  8
0
  6
CONTINUOUS
 10
3.050520
 20
5.087280
  0
SEQEND
  8
0
  0
SOLID
  8
0
 62
    15
 10
3.050520
 20
4.756840
 11
3.689840
 21
5.135680
 12
3.790600
 22
4.756840
 13
4.429920
 23
5.135680
  0
POLYLINE
  8
0
  6
CONTINUOUS
 66
     1
 40
0.000000
 41
0.000000
  0
VERTEX
  8
0
  6
CONTINUOUS
 10
3.050520
 20
4.756840
  0
VERTEX
  8
0
  6
CONTINUOUS
 10
3.689840
 20
5.135680
  0
VERTEX
  8
0
  6
CONTINUOUS
 10
4.429920
 20
5.135680
  0
VERTEX
  8
0
  6
CONTINUOUS
 10
3.790600
 20
4.756840
  0
VERTEX
  8
0
  6
CONTINUOUS
 10
3.050520
 20
4.756840
  0
SEQEND
  8
0
  0
POLYLINE
  8
0
  6
CONTINUOUS
 66
     1
 40
0.000000
 41
0.000000
  0
VERTEX
  8
0
  6
CONTINUOUS
 10
3.790600
 20
4.756840
  0
VERTEX
  8
0
  6
CONTINUOUS
 10
3.790600
 20
4.367000
  0
VERTEX
  8
0
  6
CONTINUOUS
 10
3.404720
 20
4.367000
  0
VERTEX
  8
0
  6
CONTINUOUS
 10
3.400760
 20
4.307600
  0
VERTEX
  8
0
  6
CONTINUOUS
 10
3.389760
 20
4.255240
  0
VERTEX
  8
0
  6
CONTINUOUS
 10
3.372600
 20
4.209040
  0
VERTEX
  8
0
  6
CONTINUOUS
 10
3.350600
 20
4.169000
  0
VERTEX
  8
0
  6
CONTINUOUS
 10
3.324640
 20
4.134680
  0
VERTEX
  8
0
  6
CONTINUOUS
 10
3.295600
 20
4.105200
  0
VERTEX
  8
0
  6
CONTINUOUS
 10
3.233560
 20
4.060320
  0
VERTEX
  8
0
  6
CONTINUOUS
 10
3.201440
 20
4.037440
  0
VERTEX
  8
0
  6
CONTINUOUS
 10
3.168000
 20
4.004000
  0
VERTEX
  8
0
  6
CONTINUOUS
 10
3.135000
 20
3.961760
  0
VERTEX
  8
0
  6
CONTINUOUS
 10
3.104640
 20
3.909840
  0
VERTEX
  8
0
  6
CONTINUOUS
 10
3.078240
 20
3.850000
  0
VERTEX
  8
0
  6
CONTINUOUS
 10
3.057120
 20
3.781800
  0
VERTEX
  8
0
  6
CONTINUOUS
 10
3.043480
 20
3.705680
  0
VERTEX
  8
0
  6
CONTINUOUS
 10
3.038640
 20
3.622520
  0
VERTEX
  8
0
  6
CONTINUOUS
 10
2.736360
 20
3.622520
  0
VERTEX
  8
0
  6
CONTINUOUS
 10
2.736360
 20
5.087280
  0
VERTEX
  8
0
  6
CONTINUOUS
 10
3.050520
 20
5.087280
  0
VERTEX
  8
0
  6
CONTINUOUS
 10
3.050520
 20
4.756840
  0
VERTEX
  8
0
  6
CONTINUOUS
 10
3.790600
 20
4.756840
  0
SEQEND
  8
0
  0
TEXT
  8
0
 10
3.233120
 20
3.345320
 40
0.138201
  1
BA  401B
 41
1.000000
  7
SN0
 71
     0
 72
     5
 11
3.933718
 21
3.345320
  0
TEXT
  8
0
 10
3.012680
 20
3.153480
 40
0.138201
  1
1-1/16" x 1-1/2"
 41
1.000000
  7
SN0
 71
     0
 72
     5
 11
4.151850
 21
3.153480
  0
POLYLINE
  8
0
  6
CONTINUOUS
 66
     1
 40
0.014080
 41
0.014080
  0
VERTEX
  8
0
  6
CONTINUOUS
 10
5.200800
 20
6.341280
  0
VERTEX
  8
0
  6
CONTINUOUS
 10
5.590640
 20
6.341280
  0
VERTEX
  8
0
  6
CONTINUOUS
 10
5.590640
 20
5.954960
  0
VERTEX
  8
0
  6
CONTINUOUS
 10
5.606040
 20
5.954520
  0
VERTEX
  8
0
  6
CONTINUOUS
 10
5.621000
 20
5.954080
  0
VERTEX
  8
0
  6
CONTINUOUS
 10
5.650040
 20
5.951000
  0
VERTEX
  8
0
  6
CONTINUOUS
 10
5.676880
 20
5.946160
  0
VERTEX
  8
0
  6
CONTINUOUS
 10
5.702400
 20
5.940000
  0
VERTEX
  8
0
  6
CONTINUOUS
 10
5.726160
 20
5.932080
  0
VERTEX
  8
0
  6
CONTINUOUS
 10
5.748160
 20
5.922840
  0
VERTEX
  8
0
  6
CONTINUOUS
 10
5.769280
 20
5.912280
  0
VERTEX
  8
0
  6
CONTINUOUS
 10
5.788640
 20
5.900840
  0
VERTEX
  8
0
  6
CONTINUOUS
 10
5.806240
 20
5.888080
  0
VERTEX
  8
0
  6
CONTINUOUS
 10
5.822960
 20
5.874880
  0
VERTEX
  8
0
  6
CONTINUOUS
 10
5.838360
 20
5.860360
  0
VERTEX
  8
0
  6
CONTINUOUS
 10
5.852440
 20
5.845840
  0
VERTEX
  8
0
  6
CONTINUOUS
 10
5.865200
 20
5.830440
  0
VERTEX
  8
0
  6
CONTINUOUS
 10
5.876640
 20
5.815040
  0
VERTEX
  8
0
  6
CONTINUOUS
 10
5.887200
 20
5.799640
  0
VERTEX
  8
0
  6
CONTINUOUS
 10
5.896880
 20
5.783800
  0
VERTEX
  8
0
  6
CONTINUOUS
 10
5.901720
 20
5.775880
  0
VERTEX
  8
0
  6
CONTINUOUS
 10
5.907440
 20
5.767960
  0
VERTEX
  8
0
  6
CONTINUOUS
 10
5.913160
 20
5.759600
  0
VERTEX
  8
0
  6
CONTINUOUS
 10
5.920200
 20
5.751240
  0
VERTEX
  8
0
  6
CONTINUOUS
 10
5.935600
 20
5.734960
  0
VERTEX
  8
0
  6
CONTINUOUS
 10
5.953200
 20
5.718240
  0
VERTEX
  8
0
  6
CONTINUOUS
 10
5.973440
 20
5.701520
  0
VERTEX
  8
0
  6
CONTINUOUS
 10
5.995880
 20
5.685240
  0
VERTEX
  8
0
  6
CONTINUOUS
 10
6.020520
 20
5.669840
  0
VERTEX
  8
0
  6
CONTINUOUS
 10
6.047360
 20
5.654880
  0
VERTEX
  8
0
  6
CONTINUOUS
 10
6.076400
 20
5.641240
  0
VERTEX
  8
0
  6
CONTINUOUS
 10
6.107640
 20
5.628480
  0
VERTEX
  8
0
  6
CONTINUOUS
 10
6.123920
 20
5.622760
  0
VERTEX
  8
0
  6
CONTINUOUS
 10
6.140640
 20
5.617040
  0
VERTEX
  8
0
  6
CONTINUOUS
 10
6.175840
 20
5.607360
  0
VERTEX
  8
0
  6
CONTINUOUS
 10
6.193880
 20
5.603400
  0
VERTEX
  8
0
  6
CONTINUOUS
 10
6.212800
 20
5.599880
  0
VERTEX
  8
0
  6
CONTINUOUS
 10
6.232160
 20
5.596360
  0
VERTEX
  8
0
  6
CONTINUOUS
 10
6.251520
 20
5.593720
  0
VERTEX
  8
0
  6
CONTINUOUS
 10
6.271760
 20
5.591520
  0
VERTEX
  8
0
  6
CONTINUOUS
 10
6.292440
 20
5.590200
  0
VERTEX
  8
0
  6
CONTINUOUS
 10
6.313120
 20
5.589320
  0
VERTEX
  8
0
  6
CONTINUOUS
 10
6.334680
 20
5.588880
  0
VERTEX
  8
0
  6
CONTINUOUS
 10
6.334680
 20
5.286600
  0
VERTEX
  8
0
  6
CONTINUOUS
 10
4.870360
 20
5.286600
  0
VERTEX
  8
0
  6
CONTINUOUS
 10
4.870360
 20
5.600760
  0
VERTEX
  8
0
  6
CONTINUOUS
 10
5.200800
 20
5.600760
  0
VERTEX
  8
0
  6
CONTINUOUS
 10
5.200800
 20
6.341280
  0
SEQEND
  8
0
  0
TEXT
  8
0
 10
5.246560
 20
5.022160
 40
0.138201
  1
BA  401B
 41
1.000000
  7
SN0
 71
     0
 72
     5
 11
5.947158
 21
5.022160
  0
TEXT
  8
0
 10
5.026120
 20
4.830320
 40
0.138201
  1
1-1/16" x 1-1/2"
 41
1.000000
  7
SN0
 71
     0
 72
     5
 11
6.165290
 21
4.830320
  0
ENDSEC
  0
EOF
