  0
SECTION
  2
HEADER
  9
$ACADVER
  1
AC1006
  9
$EXTMIN
 10
0.656480
 20
0.957880
  9
$EXTMAX
 10
8.112720
 20
10.148160
  9
$LTSCALE
 40
0.044000
  9
$PDMODE
 70
    35
  9
$PDSIZE
 40
0.035200
  0
ENDSEC
  0
SECTION
  2
TABLES
  0
TABLE
  2
LTYPE
 70
     9
  0
LTYPE
  2
CONTINUOUS
 70
    64
  3
Solid line
 72
    65
 73
     0
 40
0.000000
  0
LTYPE
  2
DASHED
 70
    64
  3
__ __ __ __ __ __ __ __ __ __ __ __ __ __ __
 72
    65
 73
     2
 40
0.000330
 49
0.000220
 49
-0.000110
  0
LTYPE
  2
HIDDEN
 70
    64
  3
 _ _ _ _ _ _ _ _ _ _ _ _ _ _ _ _ _ _ _ _ _ _
 72
    65
 73
     2
 40
0.000165
 49
0.000110
 49
-0.000055
  0
LTYPE
  2
CENTER
 70
    64
  3
____ _ ____ _ ____ _ ____ _ ____ _ ____ _ ____
 72
    65
 73
     4
 40
0.000880
 49
0.000550
 49
-0.000110
 49
0.000110
 49
-0.000110
  0
LTYPE
  2
PHANTOM
 70
    64
  3
_____ _ _ _____ _ _ _____ _ _ _____ _ _ ____
 72
    65
 73
     6
 40
0.001100
 49
0.000550
 49
-0.000110
 49
0.000110
 49
-0.000110
 49
0.000110
 49
-0.000110
  0
LTYPE
  2
DOT
 70
    64
  3
...............................................
 72
    65
 73
     2
 40
0.000110
 49
0.000000
 49
-0.000110
  0
LTYPE
  2
DASHDOT
 70
    64
  3
__ . __ . __ . __ . __ . __ . __ . __ . __ . __
 72
    65
 73
     4
 40
0.000440
 49
0.000220
 49
-0.000110
 49
0.000000
 49
-0.000110
  0
LTYPE
  2
BORDER
 70
    64
  3
__ __ . __ __ . __ __ . __ __ . __ __ . __ __
 72
    65
 73
     6
 40
0.000770
 49
0.000220
 49
-0.000110
 49
0.000220
 49
-0.000110
 49
0.000000
 49
-0.000110
  0
LTYPE
  2
DIVIDE
 70
    64
  3
__ . . __ . . __ . . __ . . __ . . __ . . __
 72
    65
 73
     6
 40
0.000550
 49
0.000220
 49
-0.000110
 49
0.000000
 49
-0.000110
 49
0.000000
 49
-0.000110
  0
LTYPE
  2
DOTDOT
 70
    64
  3
 . .  . .  . .  . .  . .  . . 
 72
    65
 73
     5
 40
0.000242
 49
-0.000110
 49
0.000000
 49
-0.000110
 49
0.000000
 49
-0.000110
  0
ENDTAB
  0
TABLE
  2
STYLE
 70
     2
  0
STYLE
 70
     0
  2
SN0
 40
0.000000
 41
0.000440
 50
0.000000
 71
     0
 42
0.000000
  3
ROMAND
  0
STYLE
 70
    68
  2
SV0
 40
0.000000
 41
0.000440
 50
0.000000
 71
     0
 42
0.000000
  3
ROMAND
  0
ENDTAB
  0
TABLE
  2
LAYER
 70
     3
  0
LAYER
  2
FOREGROUND
 70
    64
 62
     7
  6
CONTINUOUS
  0
LAYER
  2
BACKGROUND
 70
    65
 62
    -7
  6
CONTINUOUS
  0
LAYER
  2
0
 70
    64
 62
     7
  6
CONTINUOUS
  0
ENDTAB
  0
ENDSEC
  0
SECTION
  2
ENTITIES
  0
POLYLINE
  8
FOREGROUND
  6
CONTINUOUS
 66
     1
 40
0.000000
 41
0.000000
  0
VERTEX
  8
FOREGROUND
  6
CONTINUOUS
 10
0.000000
 20
11.106040
  0
VERTEX
  8
FOREGROUND
  6
CONTINUOUS
 10
8.499920
 20
11.106040
  0
VERTEX
  8
FOREGROUND
  6
CONTINUOUS
 10
8.499920
 20
0.106040
  0
VERTEX
  8
FOREGROUND
  6
CONTINUOUS
 10
0.000000
 20
0.106040
  0
VERTEX
  8
FOREGROUND
  6
CONTINUOUS
 10
0.000000
 20
11.106040
  0
SEQEND
  8
0
  0
POLYLINE
  8
0
  6
CONTINUOUS
 66
     1
 40
0.014080
 41
0.014080
  0
VERTEX
  8
0
  6
CONTINUOUS
 10
4.158440
 20
10.140680
  0
VERTEX
  8
0
  6
CONTINUOUS
 10
0.832920
 20
9.950160
  0
VERTEX
  8
0
  6
CONTINUOUS
 10
0.832920
 20
9.562520
  0
VERTEX
  8
0
  6
CONTINUOUS
 10
0.876480
 20
9.551080
  0
VERTEX
  8
0
  6
CONTINUOUS
 10
0.915640
 20
9.536120
  0
VERTEX
  8
0
  6
CONTINUOUS
 10
0.950400
 20
9.517640
  0
VERTEX
  8
0
  6
CONTINUOUS
 10
0.981640
 20
9.495640
  0
VERTEX
  8
0
  6
CONTINUOUS
 10
1.008920
 20
9.470560
  0
VERTEX
  8
0
  6
CONTINUOUS
 10
1.033120
 20
9.442400
  0
VERTEX
  8
0
  6
CONTINUOUS
 10
1.053360
 20
9.411600
  0
VERTEX
  8
0
  6
CONTINUOUS
 10
1.070960
 20
9.378600
  0
VERTEX
  8
0
  6
CONTINUOUS
 10
1.085920
 20
9.343400
  0
VERTEX
  8
0
  6
CONTINUOUS
 10
1.103080
 20
9.286640
  0
VERTEX
  8
0
  6
CONTINUOUS
 10
1.114960
 20
9.226360
  0
VERTEX
  8
0
  6
CONTINUOUS
 10
1.120240
 20
9.184560
  0
VERTEX
  8
0
  6
CONTINUOUS
 10
1.125960
 20
9.097880
  0
VERTEX
  8
0
  6
CONTINUOUS
 10
1.127280
 20
9.008560
  0
VERTEX
  8
0
  6
CONTINUOUS
 10
1.133440
 20
8.941680
  0
VERTEX
  8
0
  6
CONTINUOUS
 10
1.144880
 20
8.876120
  0
VERTEX
  8
0
  6
CONTINUOUS
 10
1.155880
 20
8.833440
  0
VERTEX
  8
0
  6
CONTINUOUS
 10
1.169960
 20
8.792520
  0
VERTEX
  8
0
  6
CONTINUOUS
 10
1.187560
 20
8.753800
  0
VERTEX
  8
0
  6
CONTINUOUS
 10
1.208240
 20
8.716840
  0
VERTEX
  8
0
  6
CONTINUOUS
 10
1.232000
 20
8.682960
  0
VERTEX
  8
0
  6
CONTINUOUS
 10
1.259720
 20
8.652600
  0
VERTEX
  8
0
  6
CONTINUOUS
 10
1.291400
 20
8.625320
  0
VERTEX
  8
0
  6
CONTINUOUS
 10
1.327040
 20
8.601560
  0
VERTEX
  8
0
  6
CONTINUOUS
 10
1.367080
 20
8.582640
  0
VERTEX
  8
0
  6
CONTINUOUS
 10
1.411520
 20
8.568120
  0
VERTEX
  8
0
  6
CONTINUOUS
 10
1.460360
 20
8.558880
  0
VERTEX
  8
0
  6
CONTINUOUS
 10
1.514040
 20
8.554920
  0
VERTEX
  8
0
  6
CONTINUOUS
 10
1.514040
 20
8.195440
  0
VERTEX
  8
0
  6
CONTINUOUS
 10
2.466200
 20
8.195440
  0
VERTEX
  8
0
  6
CONTINUOUS
 10
2.466200
 20
8.521920
  0
VERTEX
  8
0
  6
CONTINUOUS
 10
2.765400
 20
8.521920
  0
VERTEX
  8
0
  6
CONTINUOUS
 10
2.765400
 20
8.195440
  0
VERTEX
  8
0
  6
CONTINUOUS
 10
5.558080
 20
8.195440
  0
VERTEX
  8
0
  6
CONTINUOUS
 10
5.555880
 20
8.194120
  0
VERTEX
  8
0
  6
CONTINUOUS
 10
5.555880
 20
8.520600
  0
VERTEX
  8
0
  6
CONTINUOUS
 10
5.854640
 20
8.520600
  0
VERTEX
  8
0
  6
CONTINUOUS
 10
5.854640
 20
8.194120
  0
VERTEX
  8
0
  6
CONTINUOUS
 10
6.806800
 20
8.194120
  0
VERTEX
  8
0
  6
CONTINUOUS
 10
6.806800
 20
8.553600
  0
VERTEX
  8
0
  6
CONTINUOUS
 10
6.860480
 20
8.557560
  0
VERTEX
  8
0
  6
CONTINUOUS
 10
6.909320
 20
8.566800
  0
VERTEX
  8
0
  6
CONTINUOUS
 10
6.953760
 20
8.581320
  0
VERTEX
  8
0
  6
CONTINUOUS
 10
6.993800
 20
8.600240
  0
VERTEX
  8
0
  6
CONTINUOUS
 10
7.029440
 20
8.624000
  0
VERTEX
  8
0
  6
CONTINUOUS
 10
7.061120
 20
8.651280
  0
VERTEX
  8
0
  6
CONTINUOUS
 10
7.088840
 20
8.681640
  0
VERTEX
  8
0
  6
CONTINUOUS
 10
7.113040
 20
8.715520
  0
VERTEX
  8
0
  6
CONTINUOUS
 10
7.133280
 20
8.752480
  0
VERTEX
  8
0
  6
CONTINUOUS
 10
7.150880
 20
8.791200
  0
VERTEX
  8
0
  6
CONTINUOUS
 10
7.164960
 20
8.832120
  0
VERTEX
  8
0
  6
CONTINUOUS
 10
7.180360
 20
8.896360
  0
VERTEX
  8
0
  6
CONTINUOUS
 10
7.190040
 20
8.962800
  0
VERTEX
  8
0
  6
CONTINUOUS
 10
7.193560
 20
9.007240
  0
VERTEX
  8
0
  6
CONTINUOUS
 10
7.194880
 20
9.096560
  0
VERTEX
  8
0
  6
CONTINUOUS
 10
7.200600
 20
9.183240
  0
VERTEX
  8
0
  6
CONTINUOUS
 10
7.209400
 20
9.245720
  0
VERTEX
  8
0
  6
CONTINUOUS
 10
7.223040
 20
9.304680
  0
VERTEX
  8
0
  6
CONTINUOUS
 10
7.234920
 20
9.342080
  0
VERTEX
  8
0
  6
CONTINUOUS
 10
7.258240
 20
9.394000
  0
VERTEX
  8
0
  6
CONTINUOUS
 10
7.277160
 20
9.426120
  0
VERTEX
  8
0
  6
CONTINUOUS
 10
7.299600
 20
9.455600
  0
VERTEX
  8
0
  6
CONTINUOUS
 10
7.325120
 20
9.482000
  0
VERTEX
  8
0
  6
CONTINUOUS
 10
7.354160
 20
9.505760
  0
VERTEX
  8
0
  6
CONTINUOUS
 10
7.387160
 20
9.526000
  0
VERTEX
  8
0
  6
CONTINUOUS
 10
7.424560
 20
9.542720
  0
VERTEX
  8
0
  6
CONTINUOUS
 10
7.465480
 20
9.555920
  0
VERTEX
  8
0
  6
CONTINUOUS
 10
7.487920
 20
9.561200
  0
VERTEX
  8
0
  6
CONTINUOUS
 10
7.487920
 20
9.948840
  0
VERTEX
  8
0
  6
CONTINUOUS
 10
4.162400
 20
10.139360
  0
VERTEX
  8
0
  6
CONTINUOUS
 10
4.158440
 20
10.140680
  0
SEQEND
  8
0
  0
SOLID
  8
0
 62
    15
 10
5.867400
 20
4.622640
 11
6.512880
 21
4.998400
 12
5.833520
 22
4.598000
 13
6.479440
 23
4.973760
  0
POLYLINE
  8
0
  6
CONTINUOUS
 66
     1
 40
0.000000
 41
0.000000
  0
VERTEX
  8
0
  6
CONTINUOUS
 10
5.867400
 20
4.622640
  0
VERTEX
  8
0
  6
CONTINUOUS
 10
6.512880
 20
4.998400
  0
VERTEX
  8
0
  6
CONTINUOUS
 10
6.479440
 20
4.973760
  0
VERTEX
  8
0
  6
CONTINUOUS
 10
5.833520
 20
4.598000
  0
VERTEX
  8
0
  6
CONTINUOUS
 10
5.867400
 20
4.622640
  0
SEQEND
  8
0
  0
SOLID
  8
0
 62
    15
 10
6.073320
 20
5.056920
 11
6.719240
 21
5.432680
 12
6.073320
 22
4.995320
 13
6.719240
 23
5.371520
  0
POLYLINE
  8
0
  6
CONTINUOUS
 66
     1
 40
0.000000
 41
0.000000
  0
VERTEX
  8
0
  6
CONTINUOUS
 10
6.073320
 20
5.056920
  0
VERTEX
  8
0
  6
CONTINUOUS
 10
6.719240
 20
5.432680
  0
VERTEX
  8
0
  6
CONTINUOUS
 10
6.719240
 20
5.371520
  0
VERTEX
  8
0
  6
CONTINUOUS
 10
6.073320
 20
4.995320
  0
VERTEX
  8
0
  6
CONTINUOUS
 10
6.073320
 20
5.056920
  0
SEQEND
  8
0
  0
SOLID
  8
0
 62
    15
 10
6.073320
 20
4.995320
 11
6.719240
 21
5.371520
 12
6.069360
 22
4.918320
 13
6.715280
 23
5.294080
  0
POLYLINE
  8
0
  6
CONTINUOUS
 66
     1
 40
0.000000
 41
0.000000
  0
VERTEX
  8
0
  6
CONTINUOUS
 10
6.073320
 20
4.995320
  0
VERTEX
  8
0
  6
CONTINUOUS
 10
6.719240
 20
5.371520
  0
VERTEX
  8
0
  6
CONTINUOUS
 10
6.715280
 20
5.294080
  0
VERTEX
  8
0
  6
CONTINUOUS
 10
6.069360
 20
4.918320
  0
VERTEX
  8
0
  6
CONTINUOUS
 10
6.073320
 20
4.995320
  0
SEQEND
  8
0
  0
SOLID
  8
0
 62
    15
 10
6.069360
 20
4.918320
 11
6.715280
 21
5.294080
 12
6.058800
 22
4.854080
 13
6.704720
 23
5.229840
  0
POLYLINE
  8
0
  6
CONTINUOUS
 66
     1
 40
0.000000
 41
0.000000
  0
VERTEX
  8
0
  6
CONTINUOUS
 10
6.069360
 20
4.918320
  0
VERTEX
  8
0
  6
CONTINUOUS
 10
6.715280
 20
5.294080
  0
VERTEX
  8
0
  6
CONTINUOUS
 10
6.704720
 20
5.229840
  0
VERTEX
  8
0
  6
CONTINUOUS
 10
6.058800
 20
4.854080
  0
VERTEX
  8
0
  6
CONTINUOUS
 10
6.069360
 20
4.918320
  0
SEQEND
  8
0
  0
SOLID
  8
0
 62
    15
 10
6.058800
 20
4.854080
 11
6.704720
 21
5.229840
 12
6.042080
 22
4.801720
 13
6.688000
 23
5.177480
  0
POLYLINE
  8
0
  6
CONTINUOUS
 66
     1
 40
0.000000
 41
0.000000
  0
VERTEX
  8
0
  6
CONTINUOUS
 10
6.058800
 20
4.854080
  0
VERTEX
  8
0
  6
CONTINUOUS
 10
6.704720
 20
5.229840
  0
VERTEX
  8
0
  6
CONTINUOUS
 10
6.688000
 20
5.177480
  0
VERTEX
  8
0
  6
CONTINUOUS
 10
6.042080
 20
4.801720
  0
VERTEX
  8
0
  6
CONTINUOUS
 10
6.058800
 20
4.854080
  0
SEQEND
  8
0
  0
SOLID
  8
0
 62
    15
 10
6.042080
 20
4.801720
 11
6.688000
 21
5.177480
 12
6.020520
 22
4.758600
 13
6.666440
 23
5.134360
  0
POLYLINE
  8
0
  6
CONTINUOUS
 66
     1
 40
0.000000
 41
0.000000
  0
VERTEX
  8
0
  6
CONTINUOUS
 10
6.042080
 20
4.801720
  0
VERTEX
  8
0
  6
CONTINUOUS
 10
6.688000
 20
5.177480
  0
VERTEX
  8
0
  6
CONTINUOUS
 10
6.666440
 20
5.134360
  0
VERTEX
  8
0
  6
CONTINUOUS
 10
6.020520
 20
4.758600
  0
VERTEX
  8
0
  6
CONTINUOUS
 10
6.042080
 20
4.801720
  0
SEQEND
  8
0
  0
SOLID
  8
0
 62
    15
 10
6.020520
 20
4.758600
 11
6.666440
 21
5.134360
 12
5.995000
 22
4.723400
 13
6.640480
 23
5.099160
  0
POLYLINE
  8
0
  6
CONTINUOUS
 66
     1
 40
0.000000
 41
0.000000
  0
VERTEX
  8
0
  6
CONTINUOUS
 10
6.020520
 20
4.758600
  0
VERTEX
  8
0
  6
CONTINUOUS
 10
6.666440
 20
5.134360
  0
VERTEX
  8
0
  6
CONTINUOUS
 10
6.640480
 20
5.099160
  0
VERTEX
  8
0
  6
CONTINUOUS
 10
5.995000
 20
4.723400
  0
VERTEX
  8
0
  6
CONTINUOUS
 10
6.020520
 20
4.758600
  0
SEQEND
  8
0
  0
SOLID
  8
0
 62
    15
 10
5.995000
 20
4.723400
 11
6.640480
 21
5.099160
 12
5.965960
 22
4.694360
 13
6.611440
 23
5.070120
  0
POLYLINE
  8
0
  6
CONTINUOUS
 66
     1
 40
0.000000
 41
0.000000
  0
VERTEX
  8
0
  6
CONTINUOUS
 10
5.995000
 20
4.723400
  0
VERTEX
  8
0
  6
CONTINUOUS
 10
6.640480
 20
5.099160
  0
VERTEX
  8
0
  6
CONTINUOUS
 10
6.611440
 20
5.070120
  0
VERTEX
  8
0
  6
CONTINUOUS
 10
5.965960
 20
4.694360
  0
VERTEX
  8
0
  6
CONTINUOUS
 10
5.995000
 20
4.723400
  0
SEQEND
  8
0
  0
SOLID
  8
0
 62
    15
 10
5.965960
 20
4.694360
 11
6.611440
 21
5.070120
 12
5.901280
 22
4.645520
 13
6.546760
 23
5.021720
  0
POLYLINE
  8
0
  6
CONTINUOUS
 66
     1
 40
0.000000
 41
0.000000
  0
VERTEX
  8
0
  6
CONTINUOUS
 10
5.965960
 20
4.694360
  0
VERTEX
  8
0
  6
CONTINUOUS
 10
6.611440
 20
5.070120
  0
VERTEX
  8
0
  6
CONTINUOUS
 10
6.546760
 20
5.021720
  0
VERTEX
  8
0
  6
CONTINUOUS
 10
5.901280
 20
4.645520
  0
VERTEX
  8
0
  6
CONTINUOUS
 10
5.965960
 20
4.694360
  0
SEQEND
  8
0
  0
SOLID
  8
0
 62
    15
 10
5.901280
 20
4.645520
 11
6.546760
 21
5.021720
 12
5.884120
 22
4.634520
 13
6.530040
 23
5.010280
  0
POLYLINE
  8
0
  6
CONTINUOUS
 66
     1
 40
0.000000
 41
0.000000
  0
VERTEX
  8
0
  6
CONTINUOUS
 10
5.901280
 20
4.645520
  0
VERTEX
  8
0
  6
CONTINUOUS
 10
6.546760
 20
5.021720
  0
VERTEX
  8
0
  6
CONTINUOUS
 10
6.530040
 20
5.010280
  0
VERTEX
  8
0
  6
CONTINUOUS
 10
5.884120
 20
4.634520
  0
VERTEX
  8
0
  6
CONTINUOUS
 10
5.901280
 20
4.645520
  0
SEQEND
  8
0
  0
SOLID
  8
0
 62
    15
 10
5.884120
 20
4.634520
 11
6.530040
 21
5.010280
 12
5.867400
 22
4.622640
 13
6.512880
 23
4.998400
  0
POLYLINE
  8
0
  6
CONTINUOUS
 66
     1
 40
0.000000
 41
0.000000
  0
VERTEX
  8
0
  6
CONTINUOUS
 10
5.884120
 20
4.634520
  0
VERTEX
  8
0
  6
CONTINUOUS
 10
6.530040
 20
5.010280
  0
VERTEX
  8
0
  6
CONTINUOUS
 10
6.512880
 20
4.998400
  0
VERTEX
  8
0
  6
CONTINUOUS
 10
5.867400
 20
4.622640
  0
VERTEX
  8
0
  6
CONTINUOUS
 10
5.884120
 20
4.634520
  0
SEQEND
  8
0
  0
SOLID
  8
0
 62
    15
 10
6.430600
 20
5.434000
 11
7.076520
 21
5.809760
 12
6.430600
 22
5.056920
 13
7.076520
 23
5.432680
  0
POLYLINE
  8
0
  6
CONTINUOUS
 66
     1
 40
0.000000
 41
0.000000
  0
VERTEX
  8
0
  6
CONTINUOUS
 10
6.430600
 20
5.434000
  0
VERTEX
  8
0
  6
CONTINUOUS
 10
7.076520
 20
5.809760
  0
VERTEX
  8
0
  6
CONTINUOUS
 10
7.076520
 20
5.432680
  0
VERTEX
  8
0
  6
CONTINUOUS
 10
6.430600
 20
5.056920
  0
VERTEX
  8
0
  6
CONTINUOUS
 10
6.430600
 20
5.434000
  0
SEQEND
  8
0
  0
SOLID
  8
0
 62
    15
 10
5.833520
 20
4.598000
 11
6.479440
 21
4.973760
 12
5.800960
 22
4.569840
 13
6.446440
 23
4.945600
  0
POLYLINE
  8
0
  6
CONTINUOUS
 66
     1
 40
0.000000
 41
0.000000
  0
VERTEX
  8
0
  6
CONTINUOUS
 10
5.833520
 20
4.598000
  0
VERTEX
  8
0
  6
CONTINUOUS
 10
6.479440
 20
4.973760
  0
VERTEX
  8
0
  6
CONTINUOUS
 10
6.446440
 20
4.945600
  0
VERTEX
  8
0
  6
CONTINUOUS
 10
5.800960
 20
4.569840
  0
VERTEX
  8
0
  6
CONTINUOUS
 10
5.833520
 20
4.598000
  0
SEQEND
  8
0
  0
SOLID
  8
0
 62
    15
 10
5.800960
 20
4.569840
 11
6.446440
 21
4.945600
 12
5.770160
 22
4.535960
 13
6.415640
 23
4.911720
  0
POLYLINE
  8
0
  6
CONTINUOUS
 66
     1
 40
0.000000
 41
0.000000
  0
VERTEX
  8
0
  6
CONTINUOUS
 10
5.800960
 20
4.569840
  0
VERTEX
  8
0
  6
CONTINUOUS
 10
6.446440
 20
4.945600
  0
VERTEX
  8
0
  6
CONTINUOUS
 10
6.415640
 20
4.911720
  0
VERTEX
  8
0
  6
CONTINUOUS
 10
5.770160
 20
4.535960
  0
VERTEX
  8
0
  6
CONTINUOUS
 10
5.800960
 20
4.569840
  0
SEQEND
  8
0
  0
SOLID
  8
0
 62
    15
 10
5.770160
 20
4.535960
 11
6.415640
 21
4.911720
 12
5.742000
 22
4.495040
 13
6.387920
 23
4.870800
  0
POLYLINE
  8
0
  6
CONTINUOUS
 66
     1
 40
0.000000
 41
0.000000
  0
VERTEX
  8
0
  6
CONTINUOUS
 10
5.770160
 20
4.535960
  0
VERTEX
  8
0
  6
CONTINUOUS
 10
6.415640
 20
4.911720
  0
VERTEX
  8
0
  6
CONTINUOUS
 10
6.387920
 20
4.870800
  0
VERTEX
  8
0
  6
CONTINUOUS
 10
5.742000
 20
4.495040
  0
VERTEX
  8
0
  6
CONTINUOUS
 10
5.770160
 20
4.535960
  0
SEQEND
  8
0
  0
SOLID
  8
0
 62
    15
 10
5.742000
 20
4.495040
 11
6.387920
 21
4.870800
 12
5.717360
 22
4.444880
 13
6.363280
 23
4.820640
  0
POLYLINE
  8
0
  6
CONTINUOUS
 66
     1
 40
0.000000
 41
0.000000
  0
VERTEX
  8
0
  6
CONTINUOUS
 10
5.742000
 20
4.495040
  0
VERTEX
  8
0
  6
CONTINUOUS
 10
6.387920
 20
4.870800
  0
VERTEX
  8
0
  6
CONTINUOUS
 10
6.363280
 20
4.820640
  0
VERTEX
  8
0
  6
CONTINUOUS
 10
5.717360
 20
4.444880
  0
VERTEX
  8
0
  6
CONTINUOUS
 10
5.742000
 20
4.495040
  0
SEQEND
  8
0
  0
SOLID
  8
0
 62
    15
 10
5.717360
 20
4.444880
 11
6.363280
 21
4.820640
 12
5.697560
 22
4.383280
 13
6.343040
 23
4.759040
  0
POLYLINE
  8
0
  6
CONTINUOUS
 66
     1
 40
0.000000
 41
0.000000
  0
VERTEX
  8
0
  6
CONTINUOUS
 10
5.717360
 20
4.444880
  0
VERTEX
  8
0
  6
CONTINUOUS
 10
6.363280
 20
4.820640
  0
VERTEX
  8
0
  6
CONTINUOUS
 10
6.343040
 20
4.759040
  0
VERTEX
  8
0
  6
CONTINUOUS
 10
5.697560
 20
4.383280
  0
VERTEX
  8
0
  6
CONTINUOUS
 10
5.717360
 20
4.444880
  0
SEQEND
  8
0
  0
SOLID
  8
0
 62
    15
 10
5.697560
 20
4.383280
 11
6.343040
 21
4.759040
 12
5.682600
 22
4.308920
 13
6.328520
 23
4.684680
  0
POLYLINE
  8
0
  6
CONTINUOUS
 66
     1
 40
0.000000
 41
0.000000
  0
VERTEX
  8
0
  6
CONTINUOUS
 10
5.697560
 20
4.383280
  0
VERTEX
  8
0
  6
CONTINUOUS
 10
6.343040
 20
4.759040
  0
VERTEX
  8
0
  6
CONTINUOUS
 10
6.328520
 20
4.684680
  0
VERTEX
  8
0
  6
CONTINUOUS
 10
5.682600
 20
4.308920
  0
VERTEX
  8
0
  6
CONTINUOUS
 10
5.697560
 20
4.383280
  0
SEQEND
  8
0
  0
SOLID
  8
0
 62
    15
 10
5.381200
 20
5.764880
 11
6.027120
 21
6.140640
 12
5.688760
 22
5.764880
 13
6.334240
 23
6.140640
  0
POLYLINE
  8
0
  6
CONTINUOUS
 66
     1
 40
0.000000
 41
0.000000
  0
VERTEX
  8
0
  6
CONTINUOUS
 10
5.381200
 20
5.764880
  0
VERTEX
  8
0
  6
CONTINUOUS
 10
6.027120
 20
6.140640
  0
VERTEX
  8
0
  6
CONTINUOUS
 10
6.334240
 20
6.140640
  0
VERTEX
  8
0
  6
CONTINUOUS
 10
5.688760
 20
5.764880
  0
VERTEX
  8
0
  6
CONTINUOUS
 10
5.381200
 20
5.764880
  0
SEQEND
  8
0
  0
SOLID
  8
0
 62
    15
 10
5.688760
 20
5.764880
 11
6.334240
 21
6.140640
 12
5.688760
 22
5.438840
 13
6.334240
 23
5.814600
  0
POLYLINE
  8
0
  6
CONTINUOUS
 66
     1
 40
0.000000
 41
0.000000
  0
VERTEX
  8
0
  6
CONTINUOUS
 10
5.688760
 20
5.764880
  0
VERTEX
  8
0
  6
CONTINUOUS
 10
6.334240
 20
6.140640
  0
VERTEX
  8
0
  6
CONTINUOUS
 10
6.334240
 20
5.814600
  0
VERTEX
  8
0
  6
CONTINUOUS
 10
5.688760
 20
5.438840
  0
VERTEX
  8
0
  6
CONTINUOUS
 10
5.688760
 20
5.764880
  0
SEQEND
  8
0
  0
SOLID
  8
0
 62
    15
 10
5.688760
 20
5.438840
 11
6.334240
 21
5.814600
 12
6.429720
 22
5.438840
 13
7.075200
 23
5.814600
  0
POLYLINE
  8
0
  6
CONTINUOUS
 66
     1
 40
0.000000
 41
0.000000
  0
VERTEX
  8
0
  6
CONTINUOUS
 10
5.688760
 20
5.438840
  0
VERTEX
  8
0
  6
CONTINUOUS
 10
6.334240
 20
5.814600
  0
VERTEX
  8
0
  6
CONTINUOUS
 10
7.075200
 20
5.814600
  0
VERTEX
  8
0
  6
CONTINUOUS
 10
6.429720
 20
5.438840
  0
VERTEX
  8
0
  6
CONTINUOUS
 10
5.688760
 20
5.438840
  0
SEQEND
  8
0
  0
SOLID
  8
0
 62
     7
 10
6.429720
 20
5.438840
 11
7.075200
 21
5.814600
 12
6.430600
 22
5.434000
 13
7.076520
 23
5.809760
  0
POLYLINE
  8
0
  6
CONTINUOUS
 66
     1
 40
0.000000
 41
0.000000
  0
VERTEX
  8
0
  6
CONTINUOUS
 10
6.429720
 20
5.438840
  0
VERTEX
  8
0
  6
CONTINUOUS
 10
7.075200
 20
5.814600
  0
VERTEX
  8
0
  6
CONTINUOUS
 10
7.076520
 20
5.809760
  0
VERTEX
  8
0
  6
CONTINUOUS
 10
6.430600
 20
5.434000
  0
VERTEX
  8
0
  6
CONTINUOUS
 10
6.429720
 20
5.438840
  0
SEQEND
  8
0
  0
POLYLINE
  8
0
  6
CONTINUOUS
 66
     1
 40
0.000000
 41
0.000000
  0
VERTEX
  8
0
  6
CONTINUOUS
 10
6.430600
 20
5.434000
  0
VERTEX
  8
0
  6
CONTINUOUS
 10
6.430600
 20
5.056920
  0
VERTEX
  8
0
  6
CONTINUOUS
 10
6.073320
 20
5.056920
  0
VERTEX
  8
0
  6
CONTINUOUS
 10
6.073320
 20
4.995320
  0
VERTEX
  8
0
  6
CONTINUOUS
 10
6.069360
 20
4.918320
  0
VERTEX
  8
0
  6
CONTINUOUS
 10
6.058800
 20
4.854080
  0
VERTEX
  8
0
  6
CONTINUOUS
 10
6.042080
 20
4.801720
  0
VERTEX
  8
0
  6
CONTINUOUS
 10
6.020520
 20
4.758600
  0
VERTEX
  8
0
  6
CONTINUOUS
 10
5.995000
 20
4.723400
  0
VERTEX
  8
0
  6
CONTINUOUS
 10
5.965960
 20
4.694360
  0
VERTEX
  8
0
  6
CONTINUOUS
 10
5.901280
 20
4.645520
  0
VERTEX
  8
0
  6
CONTINUOUS
 10
5.884120
 20
4.634520
  0
VERTEX
  8
0
  6
CONTINUOUS
 10
5.867400
 20
4.622640
  0
VERTEX
  8
0
  6
CONTINUOUS
 10
5.833520
 20
4.598000
  0
VERTEX
  8
0
  6
CONTINUOUS
 10
5.800960
 20
4.569840
  0
VERTEX
  8
0
  6
CONTINUOUS
 10
5.770160
 20
4.535960
  0
VERTEX
  8
0
  6
CONTINUOUS
 10
5.742000
 20
4.495040
  0
VERTEX
  8
0
  6
CONTINUOUS
 10
5.717360
 20
4.444880
  0
VERTEX
  8
0
  6
CONTINUOUS
 10
5.697560
 20
4.383280
  0
VERTEX
  8
0
  6
CONTINUOUS
 10
5.682600
 20
4.308920
  0
VERTEX
  8
0
  6
CONTINUOUS
 10
5.679960
 20
4.307600
  0
VERTEX
  8
0
  6
CONTINUOUS
 10
5.381200
 20
4.307600
  0
VERTEX
  8
0
  6
CONTINUOUS
 10
5.381200
 20
5.764880
  0
VERTEX
  8
0
  6
CONTINUOUS
 10
5.688760
 20
5.764880
  0
VERTEX
  8
0
  6
CONTINUOUS
 10
5.688760
 20
5.438840
  0
VERTEX
  8
0
  6
CONTINUOUS
 10
6.429720
 20
5.438840
  0
VERTEX
  8
0
  6
CONTINUOUS
 10
6.430600
 20
5.434000
  0
SEQEND
  8
0
  0
SOLID
  8
0
 62
    15
 10
1.549680
 20
5.437960
 11
2.189880
 21
5.815040
 12
2.290640
 22
5.437960
 13
2.930400
 23
5.815040
  0
POLYLINE
  8
0
  6
CONTINUOUS
 66
     1
 40
0.000000
 41
0.000000
  0
VERTEX
  8
0
  6
CONTINUOUS
 10
1.549680
 20
5.437960
  0
VERTEX
  8
0
  6
CONTINUOUS
 10
2.189880
 20
5.815040
  0
VERTEX
  8
0
  6
CONTINUOUS
 10
2.930400
 20
5.815040
  0
VERTEX
  8
0
  6
CONTINUOUS
 10
2.290640
 20
5.437960
  0
VERTEX
  8
0
  6
CONTINUOUS
 10
1.549680
 20
5.437960
  0
SEQEND
  8
0
  0
SOLID
  8
0
 62
    15
 10
2.597760
 20
5.764000
 11
3.237960
 21
6.141080
 12
2.597760
 22
4.306720
 13
3.237960
 23
4.683360
  0
POLYLINE
  8
0
  6
CONTINUOUS
 66
     1
 40
0.000000
 41
0.000000
  0
VERTEX
  8
0
  6
CONTINUOUS
 10
2.597760
 20
5.764000
  0
VERTEX
  8
0
  6
CONTINUOUS
 10
3.237960
 20
6.141080
  0
VERTEX
  8
0
  6
CONTINUOUS
 10
3.237960
 20
4.683360
  0
VERTEX
  8
0
  6
CONTINUOUS
 10
2.597760
 20
4.306720
  0
VERTEX
  8
0
  6
CONTINUOUS
 10
2.597760
 20
5.764000
  0
SEQEND
  8
0
  0
SOLID
  8
0
 62
    15
 10
2.290640
 20
5.764000
 11
2.930400
 21
6.141080
 12
2.597760
 22
5.764000
 13
3.237960
 23
6.141080
  0
POLYLINE
  8
0
  6
CONTINUOUS
 66
     1
 40
0.000000
 41
0.000000
  0
VERTEX
  8
0
  6
CONTINUOUS
 10
2.290640
 20
5.764000
  0
VERTEX
  8
0
  6
CONTINUOUS
 10
2.930400
 20
6.141080
  0
VERTEX
  8
0
  6
CONTINUOUS
 10
3.237960
 20
6.141080
  0
VERTEX
  8
0
  6
CONTINUOUS
 10
2.597760
 20
5.764000
  0
VERTEX
  8
0
  6
CONTINUOUS
 10
2.290640
 20
5.764000
  0
SEQEND
  8
0
  0
POLYLINE
  8
0
  6
CONTINUOUS
 66
     1
 40
0.000000
 41
0.000000
  0
VERTEX
  8
0
  6
CONTINUOUS
 10
1.549680
 20
5.437960
  0
VERTEX
  8
0
  6
CONTINUOUS
 10
2.290640
 20
5.437960
  0
VERTEX
  8
0
  6
CONTINUOUS
 10
2.290640
 20
5.764000
  0
VERTEX
  8
0
  6
CONTINUOUS
 10
2.597760
 20
5.764000
  0
VERTEX
  8
0
  6
CONTINUOUS
 10
2.597760
 20
4.306720
  0
VERTEX
  8
0
  6
CONTINUOUS
 10
2.299000
 20
4.306720
  0
VERTEX
  8
0
  6
CONTINUOUS
 10
2.296360
 20
4.308040
  0
VERTEX
  8
0
  6
CONTINUOUS
 10
2.281400
 20
4.382400
  0
VERTEX
  8
0
  6
CONTINUOUS
 10
2.261600
 20
4.444000
  0
VERTEX
  8
0
  6
CONTINUOUS
 10
2.236960
 20
4.494160
  0
VERTEX
  8
0
  6
CONTINUOUS
 10
2.208800
 20
4.535080
  0
VERTEX
  8
0
  6
CONTINUOUS
 10
2.178000
 20
4.568960
  0
VERTEX
  8
0
  6
CONTINUOUS
 10
2.145440
 20
4.597120
  0
VERTEX
  8
0
  6
CONTINUOUS
 10
2.112000
 20
4.621760
  0
VERTEX
  8
0
  6
CONTINUOUS
 10
2.094840
 20
4.633640
  0
VERTEX
  8
0
  6
CONTINUOUS
 10
2.078120
 20
4.645080
  0
VERTEX
  8
0
  6
CONTINUOUS
 10
2.013440
 20
4.693480
  0
VERTEX
  8
0
  6
CONTINUOUS
 10
1.984400
 20
4.722520
  0
VERTEX
  8
0
  6
CONTINUOUS
 10
1.958440
 20
4.757720
  0
VERTEX
  8
0
  6
CONTINUOUS
 10
1.936880
 20
4.800840
  0
VERTEX
  8
0
  6
CONTINUOUS
 10
1.920160
 20
4.853200
  0
VERTEX
  8
0
  6
CONTINUOUS
 10
1.909600
 20
4.917440
  0
VERTEX
  8
0
  6
CONTINUOUS
 10
1.905640
 20
4.994880
  0
VERTEX
  8
0
  6
CONTINUOUS
 10
1.905640
 20
5.056040
  0
VERTEX
  8
0
  6
CONTINUOUS
 10
1.548360
 20
5.056040
  0
VERTEX
  8
0
  6
CONTINUOUS
 10
1.548360
 20
5.433560
  0
VERTEX
  8
0
  6
CONTINUOUS
 10
1.549680
 20
5.437960
  0
SEQEND
  8
0
  0
SOLID
  8
0
 62
    15
 10
6.999960
 20
6.117760
 11
7.637520
 21
6.486480
 12
6.974440
 22
6.034600
 13
7.612440
 23
6.403320
  0
POLYLINE
  8
0
  6
CONTINUOUS
 66
     1
 40
0.000000
 41
0.000000
  0
VERTEX
  8
0
  6
CONTINUOUS
 10
6.999960
 20
6.117760
  0
VERTEX
  8
0
  6
CONTINUOUS
 10
7.637520
 20
6.486480
  0
VERTEX
  8
0
  6
CONTINUOUS
 10
7.612440
 20
6.403320
  0
VERTEX
  8
0
  6
CONTINUOUS
 10
6.974440
 20
6.034600
  0
VERTEX
  8
0
  6
CONTINUOUS
 10
6.999960
 20
6.117760
  0
SEQEND
  8
0
  0
SOLID
  8
0
 62
    15
 10
7.311920
 20
7.192240
 11
7.949480
 21
7.560960
 12
7.311920
 22
6.804600
 13
7.949480
 23
7.173320
  0
POLYLINE
  8
0
  6
CONTINUOUS
 66
     1
 40
0.000000
 41
0.000000
  0
VERTEX
  8
0
  6
CONTINUOUS
 10
7.311920
 20
7.192240
  0
VERTEX
  8
0
  6
CONTINUOUS
 10
7.949480
 20
7.560960
  0
VERTEX
  8
0
  6
CONTINUOUS
 10
7.949480
 20
7.173320
  0
VERTEX
  8
0
  6
CONTINUOUS
 10
7.311920
 20
6.804600
  0
VERTEX
  8
0
  6
CONTINUOUS
 10
7.311920
 20
7.192240
  0
SEQEND
  8
0
  0
SOLID
  8
0
 62
    15
 10
7.229200
 20
6.778200
 11
7.867200
 21
7.146920
 12
7.163200
 22
6.737720
 13
7.801200
 23
7.106000
  0
POLYLINE
  8
0
  6
CONTINUOUS
 66
     1
 40
0.000000
 41
0.000000
  0
VERTEX
  8
0
  6
CONTINUOUS
 10
7.229200
 20
6.778200
  0
VERTEX
  8
0
  6
CONTINUOUS
 10
7.867200
 20
7.146920
  0
VERTEX
  8
0
  6
CONTINUOUS
 10
7.801200
 20
7.106000
  0
VERTEX
  8
0
  6
CONTINUOUS
 10
7.163200
 20
6.737720
  0
VERTEX
  8
0
  6
CONTINUOUS
 10
7.229200
 20
6.778200
  0
SEQEND
  8
0
  0
SOLID
  8
0
 62
    15
 10
7.163200
 20
6.737720
 11
7.801200
 21
7.106000
 12
7.111720
 22
6.684480
 13
7.749720
 23
7.053200
  0
POLYLINE
  8
0
  6
CONTINUOUS
 66
     1
 40
0.000000
 41
0.000000
  0
VERTEX
  8
0
  6
CONTINUOUS
 10
7.163200
 20
6.737720
  0
VERTEX
  8
0
  6
CONTINUOUS
 10
7.801200
 20
7.106000
  0
VERTEX
  8
0
  6
CONTINUOUS
 10
7.749720
 20
7.053200
  0
VERTEX
  8
0
  6
CONTINUOUS
 10
7.111720
 20
6.684480
  0
VERTEX
  8
0
  6
CONTINUOUS
 10
7.163200
 20
6.737720
  0
SEQEND
  8
0
  0
SOLID
  8
0
 62
    15
 10
7.111720
 20
6.684480
 11
7.749720
 21
7.053200
 12
7.073880
 22
6.620680
 13
7.711440
 23
6.989400
  0
POLYLINE
  8
0
  6
CONTINUOUS
 66
     1
 40
0.000000
 41
0.000000
  0
VERTEX
  8
0
  6
CONTINUOUS
 10
7.111720
 20
6.684480
  0
VERTEX
  8
0
  6
CONTINUOUS
 10
7.749720
 20
7.053200
  0
VERTEX
  8
0
  6
CONTINUOUS
 10
7.711440
 20
6.989400
  0
VERTEX
  8
0
  6
CONTINUOUS
 10
7.073880
 20
6.620680
  0
VERTEX
  8
0
  6
CONTINUOUS
 10
7.111720
 20
6.684480
  0
SEQEND
  8
0
  0
SOLID
  8
0
 62
    15
 10
7.073880
 20
6.620680
 11
7.711440
 21
6.989400
 12
7.047040
 22
6.548080
 13
7.685040
 23
6.916800
  0
POLYLINE
  8
0
  6
CONTINUOUS
 66
     1
 40
0.000000
 41
0.000000
  0
VERTEX
  8
0
  6
CONTINUOUS
 10
7.073880
 20
6.620680
  0
VERTEX
  8
0
  6
CONTINUOUS
 10
7.711440
 20
6.989400
  0
VERTEX
  8
0
  6
CONTINUOUS
 10
7.685040
 20
6.916800
  0
VERTEX
  8
0
  6
CONTINUOUS
 10
7.047040
 20
6.548080
  0
VERTEX
  8
0
  6
CONTINUOUS
 10
7.073880
 20
6.620680
  0
SEQEND
  8
0
  0
SOLID
  8
0
 62
    15
 10
7.047040
 20
6.548080
 11
7.685040
 21
6.916800
 12
7.029880
 22
6.468440
 13
7.667880
 23
6.837160
  0
POLYLINE
  8
0
  6
CONTINUOUS
 66
     1
 40
0.000000
 41
0.000000
  0
VERTEX
  8
0
  6
CONTINUOUS
 10
7.047040
 20
6.548080
  0
VERTEX
  8
0
  6
CONTINUOUS
 10
7.685040
 20
6.916800
  0
VERTEX
  8
0
  6
CONTINUOUS
 10
7.667880
 20
6.837160
  0
VERTEX
  8
0
  6
CONTINUOUS
 10
7.029880
 20
6.468440
  0
VERTEX
  8
0
  6
CONTINUOUS
 10
7.047040
 20
6.548080
  0
SEQEND
  8
0
  0
SOLID
  8
0
 62
    15
 10
7.029880
 20
6.468440
 11
7.667880
 21
6.837160
 12
7.018440
 22
6.295080
 13
7.656440
 23
6.663800
  0
POLYLINE
  8
0
  6
CONTINUOUS
 66
     1
 40
0.000000
 41
0.000000
  0
VERTEX
  8
0
  6
CONTINUOUS
 10
7.029880
 20
6.468440
  0
VERTEX
  8
0
  6
CONTINUOUS
 10
7.667880
 20
6.837160
  0
VERTEX
  8
0
  6
CONTINUOUS
 10
7.656440
 20
6.663800
  0
VERTEX
  8
0
  6
CONTINUOUS
 10
7.018440
 20
6.295080
  0
VERTEX
  8
0
  6
CONTINUOUS
 10
7.029880
 20
6.468440
  0
SEQEND
  8
0
  0
SOLID
  8
0
 62
    15
 10
7.018440
 20
6.295080
 11
7.656440
 21
6.663800
 12
7.014040
 22
6.205760
 13
7.651600
 23
6.574480
  0
POLYLINE
  8
0
  6
CONTINUOUS
 66
     1
 40
0.000000
 41
0.000000
  0
VERTEX
  8
0
  6
CONTINUOUS
 10
7.018440
 20
6.295080
  0
VERTEX
  8
0
  6
CONTINUOUS
 10
7.656440
 20
6.663800
  0
VERTEX
  8
0
  6
CONTINUOUS
 10
7.651600
 20
6.574480
  0
VERTEX
  8
0
  6
CONTINUOUS
 10
7.014040
 20
6.205760
  0
VERTEX
  8
0
  6
CONTINUOUS
 10
7.018440
 20
6.295080
  0
SEQEND
  8
0
  0
SOLID
  8
0
 62
    15
 10
7.014040
 20
6.205760
 11
7.651600
 21
6.574480
 12
6.999960
 22
6.117760
 13
7.637520
 23
6.486480
  0
POLYLINE
  8
0
  6
CONTINUOUS
 66
     1
 40
0.000000
 41
0.000000
  0
VERTEX
  8
0
  6
CONTINUOUS
 10
7.014040
 20
6.205760
  0
VERTEX
  8
0
  6
CONTINUOUS
 10
7.651600
 20
6.574480
  0
VERTEX
  8
0
  6
CONTINUOUS
 10
7.637520
 20
6.486480
  0
VERTEX
  8
0
  6
CONTINUOUS
 10
6.999960
 20
6.117760
  0
VERTEX
  8
0
  6
CONTINUOUS
 10
7.014040
 20
6.205760
  0
SEQEND
  8
0
  0
SOLID
  8
0
 62
    15
 10
3.986400
 20
7.382320
 11
4.624400
 21
7.751040
 12
7.311920
 22
7.192240
 13
7.949480
 23
7.560960
  0
POLYLINE
  8
0
  6
CONTINUOUS
 66
     1
 40
0.000000
 41
0.000000
  0
VERTEX
  8
0
  6
CONTINUOUS
 10
3.986400
 20
7.382320
  0
VERTEX
  8
0
  6
CONTINUOUS
 10
4.624400
 20
7.751040
  0
VERTEX
  8
0
  6
CONTINUOUS
 10
7.949480
 20
7.560960
  0
VERTEX
  8
0
  6
CONTINUOUS
 10
7.311920
 20
7.192240
  0
VERTEX
  8
0
  6
CONTINUOUS
 10
3.986400
 20
7.382320
  0
SEQEND
  8
0
  0
SOLID
  8
0
 62
    15
 10
6.974440
 20
6.034600
 11
7.612440
 21
6.403320
 12
6.936600
 22
5.958920
 13
7.574600
 23
6.327640
  0
POLYLINE
  8
0
  6
CONTINUOUS
 66
     1
 40
0.000000
 41
0.000000
  0
VERTEX
  8
0
  6
CONTINUOUS
 10
6.974440
 20
6.034600
  0
VERTEX
  8
0
  6
CONTINUOUS
 10
7.612440
 20
6.403320
  0
VERTEX
  8
0
  6
CONTINUOUS
 10
7.574600
 20
6.327640
  0
VERTEX
  8
0
  6
CONTINUOUS
 10
6.936600
 20
5.958920
  0
VERTEX
  8
0
  6
CONTINUOUS
 10
6.974440
 20
6.034600
  0
SEQEND
  8
0
  0
SOLID
  8
0
 62
    15
 10
6.630800
 20
5.797000
 11
7.268800
 21
6.165720
 12
6.630800
 22
5.437080
 13
7.268800
 23
5.805800
  0
POLYLINE
  8
0
  6
CONTINUOUS
 66
     1
 40
0.000000
 41
0.000000
  0
VERTEX
  8
0
  6
CONTINUOUS
 10
6.630800
 20
5.797000
  0
VERTEX
  8
0
  6
CONTINUOUS
 10
7.268800
 20
6.165720
  0
VERTEX
  8
0
  6
CONTINUOUS
 10
7.268800
 20
5.805800
  0
VERTEX
  8
0
  6
CONTINUOUS
 10
6.630800
 20
5.437080
  0
VERTEX
  8
0
  6
CONTINUOUS
 10
6.630800
 20
5.797000
  0
SEQEND
  8
0
  0
SOLID
  8
0
 62
    15
 10
6.884680
 20
5.894240
 11
7.522680
 21
6.262960
 12
6.817360
 22
5.843640
 13
7.455360
 23
6.212360
  0
POLYLINE
  8
0
  6
CONTINUOUS
 66
     1
 40
0.000000
 41
0.000000
  0
VERTEX
  8
0
  6
CONTINUOUS
 10
6.884680
 20
5.894240
  0
VERTEX
  8
0
  6
CONTINUOUS
 10
7.522680
 20
6.262960
  0
VERTEX
  8
0
  6
CONTINUOUS
 10
7.455360
 20
6.212360
  0
VERTEX
  8
0
  6
CONTINUOUS
 10
6.817360
 20
5.843640
  0
VERTEX
  8
0
  6
CONTINUOUS
 10
6.884680
 20
5.894240
  0
SEQEND
  8
0
  0
SOLID
  8
0
 62
    15
 10
6.936600
 20
5.958920
 11
7.574600
 21
6.327640
 12
6.884680
 22
5.894240
 13
7.522680
 23
6.262960
  0
POLYLINE
  8
0
  6
CONTINUOUS
 66
     1
 40
0.000000
 41
0.000000
  0
VERTEX
  8
0
  6
CONTINUOUS
 10
6.936600
 20
5.958920
  0
VERTEX
  8
0
  6
CONTINUOUS
 10
7.574600
 20
6.327640
  0
VERTEX
  8
0
  6
CONTINUOUS
 10
7.522680
 20
6.262960
  0
VERTEX
  8
0
  6
CONTINUOUS
 10
6.884680
 20
5.894240
  0
VERTEX
  8
0
  6
CONTINUOUS
 10
6.936600
 20
5.958920
  0
SEQEND
  8
0
  0
SOLID
  8
0
 62
    15
 10
5.379440
 20
5.764000
 11
6.017440
 21
6.132280
 12
5.379440
 22
5.437080
 13
6.017440
 23
5.805800
  0
POLYLINE
  8
0
  6
CONTINUOUS
 66
     1
 40
0.000000
 41
0.000000
  0
VERTEX
  8
0
  6
CONTINUOUS
 10
5.379440
 20
5.764000
  0
VERTEX
  8
0
  6
CONTINUOUS
 10
6.017440
 20
6.132280
  0
VERTEX
  8
0
  6
CONTINUOUS
 10
6.017440
 20
5.805800
  0
VERTEX
  8
0
  6
CONTINUOUS
 10
5.379440
 20
5.437080
  0
VERTEX
  8
0
  6
CONTINUOUS
 10
5.379440
 20
5.764000
  0
SEQEND
  8
0
  0
SOLID
  8
0
 62
    15
 10
5.379440
 20
5.437080
 11
6.017440
 21
5.805800
 12
5.382080
 22
5.438400
 13
6.020080
 23
5.807120
  0
POLYLINE
  8
0
  6
CONTINUOUS
 66
     1
 40
0.000000
 41
0.000000
  0
VERTEX
  8
0
  6
CONTINUOUS
 10
5.379440
 20
5.437080
  0
VERTEX
  8
0
  6
CONTINUOUS
 10
6.017440
 20
5.805800
  0
VERTEX
  8
0
  6
CONTINUOUS
 10
6.020080
 20
5.807120
  0
VERTEX
  8
0
  6
CONTINUOUS
 10
5.382080
 20
5.438400
  0
VERTEX
  8
0
  6
CONTINUOUS
 10
5.379440
 20
5.437080
  0
SEQEND
  8
0
  0
SOLID
  8
0
 62
    15
 10
2.290200
 20
5.765320
 11
2.928200
 21
6.133600
 12
2.290200
 22
5.438400
 13
2.928200
 23
5.807120
  0
POLYLINE
  8
0
  6
CONTINUOUS
 66
     1
 40
0.000000
 41
0.000000
  0
VERTEX
  8
0
  6
CONTINUOUS
 10
2.290200
 20
5.765320
  0
VERTEX
  8
0
  6
CONTINUOUS
 10
2.928200
 20
6.133600
  0
VERTEX
  8
0
  6
CONTINUOUS
 10
2.928200
 20
5.807120
  0
VERTEX
  8
0
  6
CONTINUOUS
 10
2.290200
 20
5.438400
  0
VERTEX
  8
0
  6
CONTINUOUS
 10
2.290200
 20
5.765320
  0
SEQEND
  8
0
  0
SOLID
  8
0
 62
    15
 10
0.656920
 20
7.193560
 11
1.294920
 21
7.562280
 12
3.982440
 22
7.383640
 13
4.620440
 23
7.752360
  0
POLYLINE
  8
0
  6
CONTINUOUS
 66
     1
 40
0.000000
 41
0.000000
  0
VERTEX
  8
0
  6
CONTINUOUS
 10
0.656920
 20
7.193560
  0
VERTEX
  8
0
  6
CONTINUOUS
 10
1.294920
 20
7.562280
  0
VERTEX
  8
0
  6
CONTINUOUS
 10
4.620440
 20
7.752360
  0
VERTEX
  8
0
  6
CONTINUOUS
 10
3.982440
 20
7.383640
  0
VERTEX
  8
0
  6
CONTINUOUS
 10
0.656920
 20
7.193560
  0
SEQEND
  8
0
  0
SOLID
  8
0
 62
    15
 10
3.982440
 20
7.383640
 11
4.620440
 21
7.752360
 12
3.986400
 22
7.382320
 13
4.624400
 23
7.751040
  0
POLYLINE
  8
0
  6
CONTINUOUS
 66
     1
 40
0.000000
 41
0.000000
  0
VERTEX
  8
0
  6
CONTINUOUS
 10
3.982440
 20
7.383640
  0
VERTEX
  8
0
  6
CONTINUOUS
 10
4.620440
 20
7.752360
  0
VERTEX
  8
0
  6
CONTINUOUS
 10
4.624400
 20
7.751040
  0
VERTEX
  8
0
  6
CONTINUOUS
 10
3.986400
 20
7.382320
  0
VERTEX
  8
0
  6
CONTINUOUS
 10
3.982440
 20
7.383640
  0
SEQEND
  8
0
  0
POLYLINE
  8
0
  6
CONTINUOUS
 66
     1
 40
0.000000
 41
0.000000
  0
VERTEX
  8
0
  6
CONTINUOUS
 10
3.986400
 20
7.382320
  0
VERTEX
  8
0
  6
CONTINUOUS
 10
7.311920
 20
7.192240
  0
VERTEX
  8
0
  6
CONTINUOUS
 10
7.311920
 20
6.804600
  0
VERTEX
  8
0
  6
CONTINUOUS
 10
7.229200
 20
6.778200
  0
VERTEX
  8
0
  6
CONTINUOUS
 10
7.163200
 20
6.737720
  0
VERTEX
  8
0
  6
CONTINUOUS
 10
7.111720
 20
6.684480
  0
VERTEX
  8
0
  6
CONTINUOUS
 10
7.073880
 20
6.620680
  0
VERTEX
  8
0
  6
CONTINUOUS
 10
7.047040
 20
6.548080
  0
VERTEX
  8
0
  6
CONTINUOUS
 10
7.029880
 20
6.468440
  0
VERTEX
  8
0
  6
CONTINUOUS
 10
7.018440
 20
6.295080
  0
VERTEX
  8
0
  6
CONTINUOUS
 10
7.014040
 20
6.205760
  0
VERTEX
  8
0
  6
CONTINUOUS
 10
6.999960
 20
6.117760
  0
VERTEX
  8
0
  6
CONTINUOUS
 10
6.974440
 20
6.034600
  0
VERTEX
  8
0
  6
CONTINUOUS
 10
6.936600
 20
5.958920
  0
VERTEX
  8
0
  6
CONTINUOUS
 10
6.884680
 20
5.894240
  0
VERTEX
  8
0
  6
CONTINUOUS
 10
6.817360
 20
5.843640
  0
VERTEX
  8
0
  6
CONTINUOUS
 10
6.733320
 20
5.810200
  0
VERTEX
  8
0
  6
CONTINUOUS
 10
6.630800
 20
5.797000
  0
VERTEX
  8
0
  6
CONTINUOUS
 10
6.630800
 20
5.437080
  0
VERTEX
  8
0
  6
CONTINUOUS
 10
5.678640
 20
5.437080
  0
VERTEX
  8
0
  6
CONTINUOUS
 10
5.678640
 20
5.764000
  0
VERTEX
  8
0
  6
CONTINUOUS
 10
5.379440
 20
5.764000
  0
VERTEX
  8
0
  6
CONTINUOUS
 10
5.379440
 20
5.437080
  0
VERTEX
  8
0
  6
CONTINUOUS
 10
5.382080
 20
5.438400
  0
VERTEX
  8
0
  6
CONTINUOUS
 10
2.588960
 20
5.438400
  0
VERTEX
  8
0
  6
CONTINUOUS
 10
2.588960
 20
5.765320
  0
VERTEX
  8
0
  6
CONTINUOUS
 10
2.290200
 20
5.765320
  0
VERTEX
  8
0
  6
CONTINUOUS
 10
2.290200
 20
5.438400
  0
VERTEX
  8
0
  6
CONTINUOUS
 10
1.338040
 20
5.438400
  0
VERTEX
  8
0
  6
CONTINUOUS
 10
1.338040
 20
5.798320
  0
VERTEX
  8
0
  6
CONTINUOUS
 10
1.235520
 20
5.811520
  0
VERTEX
  8
0
  6
CONTINUOUS
 10
1.151040
 20
5.844960
  0
VERTEX
  8
0
  6
CONTINUOUS
 10
1.083720
 20
5.895560
  0
VERTEX
  8
0
  6
CONTINUOUS
 10
1.031800
 20
5.960240
  0
VERTEX
  8
0
  6
CONTINUOUS
 10
0.993960
 20
6.035920
  0
VERTEX
  8
0
  6
CONTINUOUS
 10
0.968880
 20
6.119080
  0
VERTEX
  8
0
  6
CONTINUOUS
 10
0.954800
 20
6.207080
  0
VERTEX
  8
0
  6
CONTINUOUS
 10
0.950400
 20
6.296840
  0
VERTEX
  8
0
  6
CONTINUOUS
 10
0.938520
 20
6.469760
  0
VERTEX
  8
0
  6
CONTINUOUS
 10
0.921800
 20
6.549400
  0
VERTEX
  8
0
  6
CONTINUOUS
 10
0.894960
 20
6.622000
  0
VERTEX
  8
0
  6
CONTINUOUS
 10
0.856680
 20
6.685800
  0
VERTEX
  8
0
  6
CONTINUOUS
 10
0.805640
 20
6.739040
  0
VERTEX
  8
0
  6
CONTINUOUS
 10
0.739200
 20
6.779520
  0
VERTEX
  8
0
  6
CONTINUOUS
 10
0.656920
 20
6.805920
  0
VERTEX
  8
0
  6
CONTINUOUS
 10
0.656920
 20
7.193560
  0
VERTEX
  8
0
  6
CONTINUOUS
 10
3.982440
 20
7.383640
  0
VERTEX
  8
0
  6
CONTINUOUS
 10
3.986400
 20
7.382320
  0
SEQEND
  8
0
  0
POLYLINE
  8
0
  6
CONTINUOUS
 66
     1
 40
0.000000
 41
0.000000
  0
VERTEX
  8
0
  6
CONTINUOUS
 10
1.548360
 20
5.433560
  0
VERTEX
  8
0
  6
CONTINUOUS
 10
1.548360
 20
5.056040
  0
VERTEX
  8
0
  6
CONTINUOUS
 10
1.905640
 20
5.056040
  0
VERTEX
  8
0
  6
CONTINUOUS
 10
1.906520
 20
4.954400
  0
VERTEX
  8
0
  6
CONTINUOUS
 10
1.911800
 20
4.900280
  0
VERTEX
  8
0
  6
CONTINUOUS
 10
1.920160
 20
4.853200
  0
VERTEX
  8
0
  6
CONTINUOUS
 10
1.932040
 20
4.813160
  0
VERTEX
  8
0
  6
CONTINUOUS
 10
1.947000
 20
4.778400
  0
VERTEX
  8
0
  6
CONTINUOUS
 10
1.958440
 20
4.757720
  0
VERTEX
  8
0
  6
CONTINUOUS
 10
1.970760
 20
4.739240
  0
VERTEX
  8
0
  6
CONTINUOUS
 10
1.998480
 20
4.707560
  0
VERTEX
  8
0
  6
CONTINUOUS
 10
2.028840
 20
4.680280
  0
VERTEX
  8
0
  6
CONTINUOUS
 10
2.145440
 20
4.597120
  0
VERTEX
  8
0
  6
CONTINUOUS
 10
2.178440
 20
4.568960
  0
VERTEX
  8
0
  6
CONTINUOUS
 10
2.209240
 20
4.535080
  0
VERTEX
  8
0
  6
CONTINUOUS
 10
2.223760
 20
4.515720
  0
VERTEX
  8
0
  6
CONTINUOUS
 10
2.243560
 20
4.482280
  0
VERTEX
  8
0
  6
CONTINUOUS
 10
2.250160
 20
4.470400
  0
VERTEX
  8
0
  6
CONTINUOUS
 10
2.267320
 20
4.429480
  0
VERTEX
  8
0
  6
CONTINUOUS
 10
2.281840
 20
4.382400
  0
VERTEX
  8
0
  6
CONTINUOUS
 10
2.293280
 20
4.327840
  0
VERTEX
  8
0
  6
CONTINUOUS
 10
2.296360
 20
4.308040
  0
VERTEX
  8
0
  6
CONTINUOUS
 10
2.299000
 20
4.306720
  0
VERTEX
  8
0
  6
CONTINUOUS
 10
2.597760
 20
4.306720
  0
VERTEX
  8
0
  6
CONTINUOUS
 10
2.597760
 20
5.764000
  0
VERTEX
  8
0
  6
CONTINUOUS
 10
2.290640
 20
5.764000
  0
VERTEX
  8
0
  6
CONTINUOUS
 10
2.290640
 20
5.437960
  0
VERTEX
  8
0
  6
CONTINUOUS
 10
1.549680
 20
5.437960
  0
VERTEX
  8
0
  6
CONTINUOUS
 10
1.548360
 20
5.433560
  0
SEQEND
  8
0
  0
POLYLINE
  8
0
  6
CONTINUOUS
 66
     1
 40
0.000000
 41
0.000000
  0
VERTEX
  8
0
  6
CONTINUOUS
 10
6.430600
 20
5.434000
  0
VERTEX
  8
0
  6
CONTINUOUS
 10
6.430600
 20
5.056920
  0
VERTEX
  8
0
  6
CONTINUOUS
 10
6.073320
 20
5.056920
  0
VERTEX
  8
0
  6
CONTINUOUS
 10
6.072440
 20
4.954840
  0
VERTEX
  8
0
  6
CONTINUOUS
 10
6.067160
 20
4.900720
  0
VERTEX
  8
0
  6
CONTINUOUS
 10
6.058800
 20
4.854080
  0
VERTEX
  8
0
  6
CONTINUOUS
 10
6.046920
 20
4.813600
  0
VERTEX
  8
0
  6
CONTINUOUS
 10
6.031960
 20
4.778840
  0
VERTEX
  8
0
  6
CONTINUOUS
 10
6.008200
 20
4.740120
  0
VERTEX
  8
0
  6
CONTINUOUS
 10
5.995000
 20
4.723400
  0
VERTEX
  8
0
  6
CONTINUOUS
 10
5.965520
 20
4.694360
  0
VERTEX
  8
0
  6
CONTINUOUS
 10
5.934280
 20
4.668840
  0
VERTEX
  8
0
  6
CONTINUOUS
 10
5.833520
 20
4.598000
  0
VERTEX
  8
0
  6
CONTINUOUS
 10
5.800960
 20
4.569840
  0
VERTEX
  8
0
  6
CONTINUOUS
 10
5.770160
 20
4.535960
  0
VERTEX
  8
0
  6
CONTINUOUS
 10
5.755640
 20
4.516600
  0
VERTEX
  8
0
  6
CONTINUOUS
 10
5.735400
 20
4.483160
  0
VERTEX
  8
0
  6
CONTINUOUS
 10
5.717360
 20
4.444880
  0
VERTEX
  8
0
  6
CONTINUOUS
 10
5.701960
 20
4.400000
  0
VERTEX
  8
0
  6
CONTINUOUS
 10
5.689200
 20
4.347640
  0
VERTEX
  8
0
  6
CONTINUOUS
 10
5.682600
 20
4.308920
  0
VERTEX
  8
0
  6
CONTINUOUS
 10
5.679960
 20
4.307600
  0
VERTEX
  8
0
  6
CONTINUOUS
 10
5.381200
 20
4.307600
  0
VERTEX
  8
0
  6
CONTINUOUS
 10
5.381200
 20
5.764880
  0
VERTEX
  8
0
  6
CONTINUOUS
 10
5.688760
 20
5.764880
  0
VERTEX
  8
0
  6
CONTINUOUS
 10
5.688760
 20
5.438840
  0
VERTEX
  8
0
  6
CONTINUOUS
 10
6.429720
 20
5.438840
  0
VERTEX
  8
0
  6
CONTINUOUS
 10
6.430600
 20
5.434000
  0
SEQEND
  8
0
  0
TEXT
  8
0
 10
3.056680
 20
5.730560
 40
0.138166
  1
BA  401, 1-15/16" x 6-5/8"
 41
1.000000
  7
SN0
 71
     0
 72
     5
 11
4.978368
 21
5.730560
  0
TEXT
  8
0
 10
3.224760
 20
5.539160
 40
0.138166
  1
BA  53, 1-1/8 x 1-1/2"
 41
1.000000
  7
SN0
 71
     0
 72
     5
 11
4.810083
 21
5.539160
  0
TEXT
  8
0
 10
2.353560
 20
4.441360
 40
0.138166
  1
53
 41
1.000000
  7
SN0
 71
     0
 72
     5
 11
2.538285
 21
4.441360
  0
TEXT
  8
0
 10
1.396560
 20
5.514520
 40
0.138166
  1
401
 41
1.000000
  7
SN0
 71
     0
 72
     5
 11
1.673647
 21
5.514520
  0
SOLID
  8
0
 62
    15
 10
4.972000
 20
1.885400
 11
5.611320
 21
2.264240
 12
4.938560
 22
1.852400
 13
5.577880
 23
2.231240
  0
POLYLINE
  8
0
  6
CONTINUOUS
 66
     1
 40
0.000000
 41
0.000000
  0
VERTEX
  8
0
  6
CONTINUOUS
 10
4.972000
 20
1.885400
  0
VERTEX
  8
0
  6
CONTINUOUS
 10
5.611320
 20
2.264240
  0
VERTEX
  8
0
  6
CONTINUOUS
 10
5.577880
 20
2.231240
  0
VERTEX
  8
0
  6
CONTINUOUS
 10
4.938560
 20
1.852400
  0
VERTEX
  8
0
  6
CONTINUOUS
 10
4.972000
 20
1.885400
  0
SEQEND
  8
0
  0
SOLID
  8
0
 62
    15
 10
5.175280
 20
2.214960
 11
5.814600
 21
2.593800
 12
5.171320
 22
2.156000
 13
5.810640
 23
2.534840
  0
POLYLINE
  8
0
  6
CONTINUOUS
 66
     1
 40
0.000000
 41
0.000000
  0
VERTEX
  8
0
  6
CONTINUOUS
 10
5.175280
 20
2.214960
  0
VERTEX
  8
0
  6
CONTINUOUS
 10
5.814600
 20
2.593800
  0
VERTEX
  8
0
  6
CONTINUOUS
 10
5.810640
 20
2.534840
  0
VERTEX
  8
0
  6
CONTINUOUS
 10
5.171320
 20
2.156000
  0
VERTEX
  8
0
  6
CONTINUOUS
 10
5.175280
 20
2.214960
  0
SEQEND
  8
0
  0
SOLID
  8
0
 62
    15
 10
5.171320
 20
2.156000
 11
5.810640
 21
2.534840
 12
5.160320
 22
2.103200
 13
5.799640
 23
2.482040
  0
POLYLINE
  8
0
  6
CONTINUOUS
 66
     1
 40
0.000000
 41
0.000000
  0
VERTEX
  8
0
  6
CONTINUOUS
 10
5.171320
 20
2.156000
  0
VERTEX
  8
0
  6
CONTINUOUS
 10
5.810640
 20
2.534840
  0
VERTEX
  8
0
  6
CONTINUOUS
 10
5.799640
 20
2.482040
  0
VERTEX
  8
0
  6
CONTINUOUS
 10
5.160320
 20
2.103200
  0
VERTEX
  8
0
  6
CONTINUOUS
 10
5.171320
 20
2.156000
  0
SEQEND
  8
0
  0
SOLID
  8
0
 62
    15
 10
5.160320
 20
2.103200
 11
5.799640
 21
2.482040
 12
5.143160
 22
2.057440
 13
5.782480
 23
2.436280
  0
POLYLINE
  8
0
  6
CONTINUOUS
 66
     1
 40
0.000000
 41
0.000000
  0
VERTEX
  8
0
  6
CONTINUOUS
 10
5.160320
 20
2.103200
  0
VERTEX
  8
0
  6
CONTINUOUS
 10
5.799640
 20
2.482040
  0
VERTEX
  8
0
  6
CONTINUOUS
 10
5.782480
 20
2.436280
  0
VERTEX
  8
0
  6
CONTINUOUS
 10
5.143160
 20
2.057440
  0
VERTEX
  8
0
  6
CONTINUOUS
 10
5.160320
 20
2.103200
  0
SEQEND
  8
0
  0
SOLID
  8
0
 62
    15
 10
5.143160
 20
2.057440
 11
5.782480
 21
2.436280
 12
5.121160
 22
2.017400
 13
5.760480
 23
2.395800
  0
POLYLINE
  8
0
  6
CONTINUOUS
 66
     1
 40
0.000000
 41
0.000000
  0
VERTEX
  8
0
  6
CONTINUOUS
 10
5.143160
 20
2.057440
  0
VERTEX
  8
0
  6
CONTINUOUS
 10
5.782480
 20
2.436280
  0
VERTEX
  8
0
  6
CONTINUOUS
 10
5.760480
 20
2.395800
  0
VERTEX
  8
0
  6
CONTINUOUS
 10
5.121160
 20
2.017400
  0
VERTEX
  8
0
  6
CONTINUOUS
 10
5.143160
 20
2.057440
  0
SEQEND
  8
0
  0
SOLID
  8
0
 62
    15
 10
5.121160
 20
2.017400
 11
5.760480
 21
2.395800
 12
5.095200
 22
1.982640
 13
5.734520
 23
2.361480
  0
POLYLINE
  8
0
  6
CONTINUOUS
 66
     1
 40
0.000000
 41
0.000000
  0
VERTEX
  8
0
  6
CONTINUOUS
 10
5.121160
 20
2.017400
  0
VERTEX
  8
0
  6
CONTINUOUS
 10
5.760480
 20
2.395800
  0
VERTEX
  8
0
  6
CONTINUOUS
 10
5.734520
 20
2.361480
  0
VERTEX
  8
0
  6
CONTINUOUS
 10
5.095200
 20
1.982640
  0
VERTEX
  8
0
  6
CONTINUOUS
 10
5.121160
 20
2.017400
  0
SEQEND
  8
0
  0
SOLID
  8
0
 62
    15
 10
5.095200
 20
1.982640
 11
5.734520
 21
2.361480
 12
5.066160
 22
1.953160
 13
5.705480
 23
2.332000
  0
POLYLINE
  8
0
  6
CONTINUOUS
 66
     1
 40
0.000000
 41
0.000000
  0
VERTEX
  8
0
  6
CONTINUOUS
 10
5.095200
 20
1.982640
  0
VERTEX
  8
0
  6
CONTINUOUS
 10
5.734520
 20
2.361480
  0
VERTEX
  8
0
  6
CONTINUOUS
 10
5.705480
 20
2.332000
  0
VERTEX
  8
0
  6
CONTINUOUS
 10
5.066160
 20
1.953160
  0
VERTEX
  8
0
  6
CONTINUOUS
 10
5.095200
 20
1.982640
  0
SEQEND
  8
0
  0
SOLID
  8
0
 62
    15
 10
5.066160
 20
1.953160
 11
5.705480
 21
2.332000
 12
5.004120
 22
1.908720
 13
5.643440
 23
2.287560
  0
POLYLINE
  8
0
  6
CONTINUOUS
 66
     1
 40
0.000000
 41
0.000000
  0
VERTEX
  8
0
  6
CONTINUOUS
 10
5.066160
 20
1.953160
  0
VERTEX
  8
0
  6
CONTINUOUS
 10
5.705480
 20
2.332000
  0
VERTEX
  8
0
  6
CONTINUOUS
 10
5.643440
 20
2.287560
  0
VERTEX
  8
0
  6
CONTINUOUS
 10
5.004120
 20
1.908720
  0
VERTEX
  8
0
  6
CONTINUOUS
 10
5.066160
 20
1.953160
  0
SEQEND
  8
0
  0
SOLID
  8
0
 62
    15
 10
5.004120
 20
1.908720
 11
5.643440
 21
2.287560
 12
4.972000
 22
1.885400
 13
5.611320
 23
2.264240
  0
POLYLINE
  8
0
  6
CONTINUOUS
 66
     1
 40
0.000000
 41
0.000000
  0
VERTEX
  8
0
  6
CONTINUOUS
 10
5.004120
 20
1.908720
  0
VERTEX
  8
0
  6
CONTINUOUS
 10
5.643440
 20
2.287560
  0
VERTEX
  8
0
  6
CONTINUOUS
 10
5.611320
 20
2.264240
  0
VERTEX
  8
0
  6
CONTINUOUS
 10
4.972000
 20
1.885400
  0
VERTEX
  8
0
  6
CONTINUOUS
 10
5.004120
 20
1.908720
  0
SEQEND
  8
0
  0
SOLID
  8
0
 62
    15
 10
4.938560
 20
1.852400
 11
5.577880
 21
2.231240
 12
4.906000
 22
1.809720
 13
5.544880
 23
2.188560
  0
POLYLINE
  8
0
  6
CONTINUOUS
 66
     1
 40
0.000000
 41
0.000000
  0
VERTEX
  8
0
  6
CONTINUOUS
 10
4.938560
 20
1.852400
  0
VERTEX
  8
0
  6
CONTINUOUS
 10
5.577880
 20
2.231240
  0
VERTEX
  8
0
  6
CONTINUOUS
 10
5.544880
 20
2.188560
  0
VERTEX
  8
0
  6
CONTINUOUS
 10
4.906000
 20
1.809720
  0
VERTEX
  8
0
  6
CONTINUOUS
 10
4.938560
 20
1.852400
  0
SEQEND
  8
0
  0
SOLID
  8
0
 62
    15
 10
5.561160
 20
2.604800
 11
6.200480
 21
2.983640
 12
5.561160
 22
2.214960
 13
6.200480
 23
2.593800
  0
POLYLINE
  8
0
  6
CONTINUOUS
 66
     1
 40
0.000000
 41
0.000000
  0
VERTEX
  8
0
  6
CONTINUOUS
 10
5.561160
 20
2.604800
  0
VERTEX
  8
0
  6
CONTINUOUS
 10
6.200480
 20
2.983640
  0
VERTEX
  8
0
  6
CONTINUOUS
 10
6.200480
 20
2.593800
  0
VERTEX
  8
0
  6
CONTINUOUS
 10
5.561160
 20
2.214960
  0
VERTEX
  8
0
  6
CONTINUOUS
 10
5.561160
 20
2.604800
  0
SEQEND
  8
0
  0
SOLID
  8
0
 62
    15
 10
4.906000
 20
1.809720
 11
5.544880
 21
2.188560
 12
4.875200
 22
1.758240
 13
5.514520
 23
2.137080
  0
POLYLINE
  8
0
  6
CONTINUOUS
 66
     1
 40
0.000000
 41
0.000000
  0
VERTEX
  8
0
  6
CONTINUOUS
 10
4.906000
 20
1.809720
  0
VERTEX
  8
0
  6
CONTINUOUS
 10
5.544880
 20
2.188560
  0
VERTEX
  8
0
  6
CONTINUOUS
 10
5.514520
 20
2.137080
  0
VERTEX
  8
0
  6
CONTINUOUS
 10
4.875200
 20
1.758240
  0
VERTEX
  8
0
  6
CONTINUOUS
 10
4.906000
 20
1.809720
  0
SEQEND
  8
0
  0
SOLID
  8
0
 62
    15
 10
4.875200
 20
1.758240
 11
5.514520
 21
2.137080
 12
4.848800
 22
1.697960
 13
5.488120
 23
2.076800
  0
POLYLINE
  8
0
  6
CONTINUOUS
 66
     1
 40
0.000000
 41
0.000000
  0
VERTEX
  8
0
  6
CONTINUOUS
 10
4.875200
 20
1.758240
  0
VERTEX
  8
0
  6
CONTINUOUS
 10
5.514520
 20
2.137080
  0
VERTEX
  8
0
  6
CONTINUOUS
 10
5.488120
 20
2.076800
  0
VERTEX
  8
0
  6
CONTINUOUS
 10
4.848800
 20
1.697960
  0
VERTEX
  8
0
  6
CONTINUOUS
 10
4.875200
 20
1.758240
  0
SEQEND
  8
0
  0
SOLID
  8
0
 62
    15
 10
4.848800
 20
1.697960
 11
5.488120
 21
2.076800
 12
4.828120
 22
1.629760
 13
5.467000
 23
2.008600
  0
POLYLINE
  8
0
  6
CONTINUOUS
 66
     1
 40
0.000000
 41
0.000000
  0
VERTEX
  8
0
  6
CONTINUOUS
 10
4.848800
 20
1.697960
  0
VERTEX
  8
0
  6
CONTINUOUS
 10
5.488120
 20
2.076800
  0
VERTEX
  8
0
  6
CONTINUOUS
 10
5.467000
 20
2.008600
  0
VERTEX
  8
0
  6
CONTINUOUS
 10
4.828120
 20
1.629760
  0
VERTEX
  8
0
  6
CONTINUOUS
 10
4.848800
 20
1.697960
  0
SEQEND
  8
0
  0
SOLID
  8
0
 62
    15
 10
4.828120
 20
1.629760
 11
5.467000
 21
2.008600
 12
4.814040
 22
1.554080
 13
5.453360
 23
1.932480
  0
POLYLINE
  8
0
  6
CONTINUOUS
 66
     1
 40
0.000000
 41
0.000000
  0
VERTEX
  8
0
  6
CONTINUOUS
 10
4.828120
 20
1.629760
  0
VERTEX
  8
0
  6
CONTINUOUS
 10
5.467000
 20
2.008600
  0
VERTEX
  8
0
  6
CONTINUOUS
 10
5.453360
 20
1.932480
  0
VERTEX
  8
0
  6
CONTINUOUS
 10
4.814040
 20
1.554080
  0
VERTEX
  8
0
  6
CONTINUOUS
 10
4.828120
 20
1.629760
  0
SEQEND
  8
0
  0
SOLID
  8
0
 62
    15
 10
4.814040
 20
1.554080
 11
5.453360
 21
1.932480
 12
4.809200
 22
1.470920
 13
5.448520
 23
1.849760
  0
POLYLINE
  8
0
  6
CONTINUOUS
 66
     1
 40
0.000000
 41
0.000000
  0
VERTEX
  8
0
  6
CONTINUOUS
 10
4.814040
 20
1.554080
  0
VERTEX
  8
0
  6
CONTINUOUS
 10
5.453360
 20
1.932480
  0
VERTEX
  8
0
  6
CONTINUOUS
 10
5.448520
 20
1.849760
  0
VERTEX
  8
0
  6
CONTINUOUS
 10
4.809200
 20
1.470920
  0
VERTEX
  8
0
  6
CONTINUOUS
 10
4.814040
 20
1.554080
  0
SEQEND
  8
0
  0
SOLID
  8
0
 62
    15
 10
4.506920
 20
2.935240
 11
5.145800
 21
3.314080
 12
4.821080
 22
2.935240
 13
5.460400
 23
3.314080
  0
POLYLINE
  8
0
  6
CONTINUOUS
 66
     1
 40
0.000000
 41
0.000000
  0
VERTEX
  8
0
  6
CONTINUOUS
 10
4.506920
 20
2.935240
  0
VERTEX
  8
0
  6
CONTINUOUS
 10
5.145800
 20
3.314080
  0
VERTEX
  8
0
  6
CONTINUOUS
 10
5.460400
 20
3.314080
  0
VERTEX
  8
0
  6
CONTINUOUS
 10
4.821080
 20
2.935240
  0
VERTEX
  8
0
  6
CONTINUOUS
 10
4.506920
 20
2.935240
  0
SEQEND
  8
0
  0
SOLID
  8
0
 62
     7
 10
4.821080
 20
2.935240
 11
5.460400
 21
3.314080
 12
4.821080
 22
2.604800
 13
5.460400
 23
2.983640
  0
POLYLINE
  8
0
  6
CONTINUOUS
 66
     1
 40
0.000000
 41
0.000000
  0
VERTEX
  8
0
  6
CONTINUOUS
 10
4.821080
 20
2.935240
  0
VERTEX
  8
0
  6
CONTINUOUS
 10
5.460400
 20
3.314080
  0
VERTEX
  8
0
  6
CONTINUOUS
 10
5.460400
 20
2.983640
  0
VERTEX
  8
0
  6
CONTINUOUS
 10
4.821080
 20
2.604800
  0
VERTEX
  8
0
  6
CONTINUOUS
 10
4.821080
 20
2.935240
  0
SEQEND
  8
0
  0
SOLID
  8
0
 62
    15
 10
4.821080
 20
2.604800
 11
5.460400
 21
2.983640
 12
5.561160
 22
2.604800
 13
6.200480
 23
2.983640
  0
POLYLINE
  8
0
  6
CONTINUOUS
 66
     1
 40
0.000000
 41
0.000000
  0
VERTEX
  8
0
  6
CONTINUOUS
 10
4.821080
 20
2.604800
  0
VERTEX
  8
0
  6
CONTINUOUS
 10
5.460400
 20
2.983640
  0
VERTEX
  8
0
  6
CONTINUOUS
 10
6.200480
 20
2.983640
  0
VERTEX
  8
0
  6
CONTINUOUS
 10
5.561160
 20
2.604800
  0
VERTEX
  8
0
  6
CONTINUOUS
 10
4.821080
 20
2.604800
  0
SEQEND
  8
0
  0
POLYLINE
  8
0
  6
CONTINUOUS
 66
     1
 40
0.000000
 41
0.000000
  0
VERTEX
  8
0
  6
CONTINUOUS
 10
5.561160
 20
2.604800
  0
VERTEX
  8
0
  6
CONTINUOUS
 10
5.561160
 20
2.214960
  0
VERTEX
  8
0
  6
CONTINUOUS
 10
5.175280
 20
2.214960
  0
VERTEX
  8
0
  6
CONTINUOUS
 10
5.171320
 20
2.156000
  0
VERTEX
  8
0
  6
CONTINUOUS
 10
5.160320
 20
2.103200
  0
VERTEX
  8
0
  6
CONTINUOUS
 10
5.143160
 20
2.057440
  0
VERTEX
  8
0
  6
CONTINUOUS
 10
5.121160
 20
2.017400
  0
VERTEX
  8
0
  6
CONTINUOUS
 10
5.095200
 20
1.982640
  0
VERTEX
  8
0
  6
CONTINUOUS
 10
5.066160
 20
1.953160
  0
VERTEX
  8
0
  6
CONTINUOUS
 10
5.004120
 20
1.908720
  0
VERTEX
  8
0
  6
CONTINUOUS
 10
4.972000
 20
1.885400
  0
VERTEX
  8
0
  6
CONTINUOUS
 10
4.938560
 20
1.852400
  0
VERTEX
  8
0
  6
CONTINUOUS
 10
4.906000
 20
1.809720
  0
VERTEX
  8
0
  6
CONTINUOUS
 10
4.875200
 20
1.758240
  0
VERTEX
  8
0
  6
CONTINUOUS
 10
4.848800
 20
1.697960
  0
VERTEX
  8
0
  6
CONTINUOUS
 10
4.828120
 20
1.629760
  0
VERTEX
  8
0
  6
CONTINUOUS
 10
4.814040
 20
1.554080
  0
VERTEX
  8
0
  6
CONTINUOUS
 10
4.809200
 20
1.470920
  0
VERTEX
  8
0
  6
CONTINUOUS
 10
4.506920
 20
1.470920
  0
VERTEX
  8
0
  6
CONTINUOUS
 10
4.506920
 20
2.935240
  0
VERTEX
  8
0
  6
CONTINUOUS
 10
4.821080
 20
2.935240
  0
VERTEX
  8
0
  6
CONTINUOUS
 10
4.821080
 20
2.604800
  0
VERTEX
  8
0
  6
CONTINUOUS
 10
5.561160
 20
2.604800
  0
SEQEND
  8
0
  0
TEXT
  8
0
 10
5.003680
 20
1.193280
 40
0.138166
  1
BA  401B
 41
1.000000
  7
SN0
 71
     0
 72
     5
 11
5.705817
 21
1.193280
  0
TEXT
  8
0
 10
4.783240
 20
1.001880
 40
0.138166
  1
1-1/16" x 1-1/2"
 41
1.000000
  7
SN0
 71
     0
 72
     5
 11
5.928349
 21
1.001880
  0
POLYLINE
  8
0
  6
CONTINUOUS
 66
     1
 40
0.014080
 41
0.014080
  0
VERTEX
  8
0
  6
CONTINUOUS
 10
6.971360
 20
4.189240
  0
VERTEX
  8
0
  6
CONTINUOUS
 10
7.361200
 20
4.189240
  0
VERTEX
  8
0
  6
CONTINUOUS
 10
7.361200
 20
3.803360
  0
VERTEX
  8
0
  6
CONTINUOUS
 10
7.376600
 20
3.802920
  0
VERTEX
  8
0
  6
CONTINUOUS
 10
7.391560
 20
3.802480
  0
VERTEX
  8
0
  6
CONTINUOUS
 10
7.420600
 20
3.799400
  0
VERTEX
  8
0
  6
CONTINUOUS
 10
7.447440
 20
3.794560
  0
VERTEX
  8
0
  6
CONTINUOUS
 10
7.472960
 20
3.788400
  0
VERTEX
  8
0
  6
CONTINUOUS
 10
7.496720
 20
3.780480
  0
VERTEX
  8
0
  6
CONTINUOUS
 10
7.519160
 20
3.771240
  0
VERTEX
  8
0
  6
CONTINUOUS
 10
7.539840
 20
3.760680
  0
VERTEX
  8
0
  6
CONTINUOUS
 10
7.559200
 20
3.749240
  0
VERTEX
  8
0
  6
CONTINUOUS
 10
7.577240
 20
3.736480
  0
VERTEX
  8
0
  6
CONTINUOUS
 10
7.593520
 20
3.723280
  0
VERTEX
  8
0
  6
CONTINUOUS
 10
7.608920
 20
3.708760
  0
VERTEX
  8
0
  6
CONTINUOUS
 10
7.623000
 20
3.694240
  0
VERTEX
  8
0
  6
CONTINUOUS
 10
7.635760
 20
3.678840
  0
VERTEX
  8
0
  6
CONTINUOUS
 10
7.647640
 20
3.663440
  0
VERTEX
  8
0
  6
CONTINUOUS
 10
7.658200
 20
3.648040
  0
VERTEX
  8
0
  6
CONTINUOUS
 10
7.667880
 20
3.632200
  0
VERTEX
  8
0
  6
CONTINUOUS
 10
7.672720
 20
3.624280
  0
VERTEX
  8
0
  6
CONTINUOUS
 10
7.678000
 20
3.616360
  0
VERTEX
  8
0
  6
CONTINUOUS
 10
7.684160
 20
3.608000
  0
VERTEX
  8
0
  6
CONTINUOUS
 10
7.691200
 20
3.599640
  0
VERTEX
  8
0
  6
CONTINUOUS
 10
7.706160
 20
3.583360
  0
VERTEX
  8
0
  6
CONTINUOUS
 10
7.724200
 20
3.566640
  0
VERTEX
  8
0
  6
CONTINUOUS
 10
7.744000
 20
3.549920
  0
VERTEX
  8
0
  6
CONTINUOUS
 10
7.766440
 20
3.533640
  0
VERTEX
  8
0
  6
CONTINUOUS
 10
7.791080
 20
3.518240
  0
VERTEX
  8
0
  6
CONTINUOUS
 10
7.818360
 20
3.503280
  0
VERTEX
  8
0
  6
CONTINUOUS
 10
7.846960
 20
3.489640
  0
VERTEX
  8
0
  6
CONTINUOUS
 10
7.878200
 20
3.476880
  0
VERTEX
  8
0
  6
CONTINUOUS
 10
7.894480
 20
3.471160
  0
VERTEX
  8
0
  6
CONTINUOUS
 10
7.911640
 20
3.465440
  0
VERTEX
  8
0
  6
CONTINUOUS
 10
7.928800
 20
3.460600
  0
VERTEX
  8
0
  6
CONTINUOUS
 10
7.946400
 20
3.455760
  0
VERTEX
  8
0
  6
CONTINUOUS
 10
7.964880
 20
3.451800
  0
VERTEX
  8
0
  6
CONTINUOUS
 10
8.002720
 20
3.444760
  0
VERTEX
  8
0
  6
CONTINUOUS
 10
8.022520
 20
3.442120
  0
VERTEX
  8
0
  6
CONTINUOUS
 10
8.042760
 20
3.439920
  0
VERTEX
  8
0
  6
CONTINUOUS
 10
8.063440
 20
3.438600
  0
VERTEX
  8
0
  6
CONTINUOUS
 10
8.084120
 20
3.437720
  0
VERTEX
  8
0
  6
CONTINUOUS
 10
8.105680
 20
3.437280
  0
VERTEX
  8
0
  6
CONTINUOUS
 10
8.105680
 20
3.134560
  0
VERTEX
  8
0
  6
CONTINUOUS
 10
6.640920
 20
3.134560
  0
VERTEX
  8
0
  6
CONTINUOUS
 10
6.640920
 20
3.449160
  0
VERTEX
  8
0
  6
CONTINUOUS
 10
6.971360
 20
3.449160
  0
VERTEX
  8
0
  6
CONTINUOUS
 10
6.971360
 20
4.189240
  0
SEQEND
  8
0
  0
TEXT
  8
0
 10
7.017120
 20
2.870120
 40
0.138166
  1
BA  401B
 41
1.000000
  7
SN0
 71
     0
 72
     5
 11
7.719257
 21
2.870120
  0
TEXT
  8
0
 10
6.796680
 20
2.678720
 40
0.138166
  1
1-1/16" x 1-1/2"
 41
1.000000
  7
SN0
 71
     0
 72
     5
 11
7.941789
 21
2.678720
  0
ENDSEC
  0
EOF
