  0
SECTION
  2
HEADER
  9
$ACADVER
  1
AC1006
  9
$EXTMIN
 10
2.437160
 20
0.468160
  9
$EXTMAX
 10
7.462840
 20
7.567120
  9
$LTSCALE
 40
0.044000
  9
$PDMODE
 70
    35
  9
$PDSIZE
 40
0.035200
  0
ENDSEC
  0
SECTION
  2
TABLES
  0
TABLE
  2
LTYPE
 70
     9
  0
LTYPE
  2
CONTINUOUS
 70
    64
  3
Solid line
 72
    65
 73
     0
 40
0.000000
  0
LTYPE
  2
DASHED
 70
    64
  3
__ __ __ __ __ __ __ __ __ __ __ __ __ __ __
 72
    65
 73
     2
 40
0.000330
 49
0.000220
 49
-0.000110
  0
LTYPE
  2
HIDDEN
 70
    64
  3
 _ _ _ _ _ _ _ _ _ _ _ _ _ _ _ _ _ _ _ _ _ _
 72
    65
 73
     2
 40
0.000165
 49
0.000110
 49
-0.000055
  0
LTYPE
  2
CENTER
 70
    64
  3
____ _ ____ _ ____ _ ____ _ ____ _ ____ _ ____
 72
    65
 73
     4
 40
0.000880
 49
0.000550
 49
-0.000110
 49
0.000110
 49
-0.000110
  0
LTYPE
  2
PHANTOM
 70
    64
  3
_____ _ _ _____ _ _ _____ _ _ _____ _ _ ____
 72
    65
 73
     6
 40
0.001100
 49
0.000550
 49
-0.000110
 49
0.000110
 49
-0.000110
 49
0.000110
 49
-0.000110
  0
LTYPE
  2
DOT
 70
    64
  3
...............................................
 72
    65
 73
     2
 40
0.000110
 49
0.000000
 49
-0.000110
  0
LTYPE
  2
DASHDOT
 70
    64
  3
__ . __ . __ . __ . __ . __ . __ . __ . __ . __
 72
    65
 73
     4
 40
0.000440
 49
0.000220
 49
-0.000110
 49
0.000000
 49
-0.000110
  0
LTYPE
  2
BORDER
 70
    64
  3
__ __ . __ __ . __ __ . __ __ . __ __ . __ __
 72
    65
 73
     6
 40
0.000770
 49
0.000220
 49
-0.000110
 49
0.000220
 49
-0.000110
 49
0.000000
 49
-0.000110
  0
LTYPE
  2
DIVIDE
 70
    64
  3
__ . . __ . . __ . . __ . . __ . . __ . . __
 72
    65
 73
     6
 40
0.000550
 49
0.000220
 49
-0.000110
 49
0.000000
 49
-0.000110
 49
0.000000
 49
-0.000110
  0
LTYPE
  2
DOTDOT
 70
    64
  3
 . .  . .  . .  . .  . .  . . 
 72
    65
 73
     5
 40
0.000242
 49
-0.000110
 49
0.000000
 49
-0.000110
 49
0.000000
 49
-0.000110
  0
ENDTAB
  0
TABLE
  2
STYLE
 70
     2
  0
STYLE
 70
     0
  2
SN0
 40
0.000000
 41
0.000440
 50
0.000000
 71
     0
 42
0.000000
  3
ROMAND
  0
STYLE
 70
    68
  2
SV0
 40
0.000000
 41
0.000440
 50
0.000000
 71
     0
 42
0.000000
  3
ROMAND
  0
ENDTAB
  0
TABLE
  2
LAYER
 70
     3
  0
LAYER
  2
FOREGROUND
 70
    64
 62
     7
  6
CONTINUOUS
  0
LAYER
  2
BACKGROUND
 70
    65
 62
    -7
  6
CONTINUOUS
  0
LAYER
  2
0
 70
    64
 62
     7
  6
CONTINUOUS
  0
ENDTAB
  0
ENDSEC
  0
SECTION
  2
ENTITIES
  0
POLYLINE
  8
FOREGROUND
  6
CONTINUOUS
 66
     1
 40
0.000000
 41
0.000000
  0
VERTEX
  8
FOREGROUND
  6
CONTINUOUS
 10
0.000000
 20
8.035280
  0
VERTEX
  8
FOREGROUND
  6
CONTINUOUS
 10
8.499920
 20
8.035280
  0
VERTEX
  8
FOREGROUND
  6
CONTINUOUS
 10
8.499920
 20
-2.964720
  0
VERTEX
  8
FOREGROUND
  6
CONTINUOUS
 10
0.000000
 20
-2.964720
  0
VERTEX
  8
FOREGROUND
  6
CONTINUOUS
 10
0.000000
 20
8.035280
  0
SEQEND
  8
0
  0
SOLID
  8
0
 62
    15
 10
6.480320
 20
2.768480
 11
7.131520
 21
3.148640
 12
6.572720
 22
2.734160
 13
7.223920
 23
3.114760
  0
POLYLINE
  8
0
  6
CONTINUOUS
 66
     1
 40
0.000000
 41
0.000000
  0
VERTEX
  8
0
  6
CONTINUOUS
 10
6.480320
 20
2.768480
  0
VERTEX
  8
0
  6
CONTINUOUS
 10
7.131520
 20
3.148640
  0
VERTEX
  8
0
  6
CONTINUOUS
 10
7.223920
 20
3.114760
  0
VERTEX
  8
0
  6
CONTINUOUS
 10
6.572720
 20
2.734160
  0
VERTEX
  8
0
  6
CONTINUOUS
 10
6.480320
 20
2.768480
  0
SEQEND
  8
0
  0
SOLID
  8
0
 62
    15
 10
5.913600
 20
3.288560
 11
6.564800
 21
3.669160
 12
6.007320
 22
3.288120
 13
6.658520
 23
3.668280
  0
POLYLINE
  8
0
  6
CONTINUOUS
 66
     1
 40
0.000000
 41
0.000000
  0
VERTEX
  8
0
  6
CONTINUOUS
 10
5.913600
 20
3.288560
  0
VERTEX
  8
0
  6
CONTINUOUS
 10
6.564800
 20
3.669160
  0
VERTEX
  8
0
  6
CONTINUOUS
 10
6.658520
 20
3.668280
  0
VERTEX
  8
0
  6
CONTINUOUS
 10
6.007320
 20
3.288120
  0
VERTEX
  8
0
  6
CONTINUOUS
 10
5.913600
 20
3.288560
  0
SEQEND
  8
0
  0
SOLID
  8
0
 62
    15
 10
6.007320
 20
3.288120
 11
6.658520
 21
3.668280
 12
6.109400
 22
3.264800
 13
6.760600
 23
3.644960
  0
POLYLINE
  8
0
  6
CONTINUOUS
 66
     1
 40
0.000000
 41
0.000000
  0
VERTEX
  8
0
  6
CONTINUOUS
 10
6.007320
 20
3.288120
  0
VERTEX
  8
0
  6
CONTINUOUS
 10
6.658520
 20
3.668280
  0
VERTEX
  8
0
  6
CONTINUOUS
 10
6.760600
 20
3.644960
  0
VERTEX
  8
0
  6
CONTINUOUS
 10
6.109400
 20
3.264800
  0
VERTEX
  8
0
  6
CONTINUOUS
 10
6.007320
 20
3.288120
  0
SEQEND
  8
0
  0
SOLID
  8
0
 62
    15
 10
6.109400
 20
3.264800
 11
6.760600
 21
3.644960
 12
6.159560
 22
3.234440
 13
6.810320
 23
3.614600
  0
POLYLINE
  8
0
  6
CONTINUOUS
 66
     1
 40
0.000000
 41
0.000000
  0
VERTEX
  8
0
  6
CONTINUOUS
 10
6.109400
 20
3.264800
  0
VERTEX
  8
0
  6
CONTINUOUS
 10
6.760600
 20
3.644960
  0
VERTEX
  8
0
  6
CONTINUOUS
 10
6.810320
 20
3.614600
  0
VERTEX
  8
0
  6
CONTINUOUS
 10
6.159560
 20
3.234440
  0
VERTEX
  8
0
  6
CONTINUOUS
 10
6.109400
 20
3.264800
  0
SEQEND
  8
0
  0
SOLID
  8
0
 62
    15
 10
6.159560
 20
3.234440
 11
6.810320
 21
3.614600
 12
6.206200
 22
3.186920
 13
6.857400
 23
3.567080
  0
POLYLINE
  8
0
  6
CONTINUOUS
 66
     1
 40
0.000000
 41
0.000000
  0
VERTEX
  8
0
  6
CONTINUOUS
 10
6.159560
 20
3.234440
  0
VERTEX
  8
0
  6
CONTINUOUS
 10
6.810320
 20
3.614600
  0
VERTEX
  8
0
  6
CONTINUOUS
 10
6.857400
 20
3.567080
  0
VERTEX
  8
0
  6
CONTINUOUS
 10
6.206200
 20
3.186920
  0
VERTEX
  8
0
  6
CONTINUOUS
 10
6.159560
 20
3.234440
  0
SEQEND
  8
0
  0
SOLID
  8
0
 62
    15
 10
6.206200
 20
3.186920
 11
6.857400
 21
3.567080
 12
6.248440
 22
3.117840
 13
6.899640
 23
3.498000
  0
POLYLINE
  8
0
  6
CONTINUOUS
 66
     1
 40
0.000000
 41
0.000000
  0
VERTEX
  8
0
  6
CONTINUOUS
 10
6.206200
 20
3.186920
  0
VERTEX
  8
0
  6
CONTINUOUS
 10
6.857400
 20
3.567080
  0
VERTEX
  8
0
  6
CONTINUOUS
 10
6.899640
 20
3.498000
  0
VERTEX
  8
0
  6
CONTINUOUS
 10
6.248440
 20
3.117840
  0
VERTEX
  8
0
  6
CONTINUOUS
 10
6.206200
 20
3.186920
  0
SEQEND
  8
0
  0
SOLID
  8
0
 62
    15
 10
6.248440
 20
3.117840
 11
6.899640
 21
3.498000
 12
6.284080
 22
3.023240
 13
6.935280
 23
3.403400
  0
POLYLINE
  8
0
  6
CONTINUOUS
 66
     1
 40
0.000000
 41
0.000000
  0
VERTEX
  8
0
  6
CONTINUOUS
 10
6.248440
 20
3.117840
  0
VERTEX
  8
0
  6
CONTINUOUS
 10
6.899640
 20
3.498000
  0
VERTEX
  8
0
  6
CONTINUOUS
 10
6.935280
 20
3.403400
  0
VERTEX
  8
0
  6
CONTINUOUS
 10
6.284080
 20
3.023240
  0
VERTEX
  8
0
  6
CONTINUOUS
 10
6.248440
 20
3.117840
  0
SEQEND
  8
0
  0
SOLID
  8
0
 62
    15
 10
6.284080
 20
3.023240
 11
6.935280
 21
3.403400
 12
6.322360
 22
2.927320
 13
6.973560
 23
3.307480
  0
POLYLINE
  8
0
  6
CONTINUOUS
 66
     1
 40
0.000000
 41
0.000000
  0
VERTEX
  8
0
  6
CONTINUOUS
 10
6.284080
 20
3.023240
  0
VERTEX
  8
0
  6
CONTINUOUS
 10
6.935280
 20
3.403400
  0
VERTEX
  8
0
  6
CONTINUOUS
 10
6.973560
 20
3.307480
  0
VERTEX
  8
0
  6
CONTINUOUS
 10
6.322360
 20
2.927320
  0
VERTEX
  8
0
  6
CONTINUOUS
 10
6.284080
 20
3.023240
  0
SEQEND
  8
0
  0
SOLID
  8
0
 62
    15
 10
6.322360
 20
2.927320
 11
6.973560
 21
3.307480
 12
6.371200
 22
2.855600
 13
7.022400
 23
3.235760
  0
POLYLINE
  8
0
  6
CONTINUOUS
 66
     1
 40
0.000000
 41
0.000000
  0
VERTEX
  8
0
  6
CONTINUOUS
 10
6.322360
 20
2.927320
  0
VERTEX
  8
0
  6
CONTINUOUS
 10
6.973560
 20
3.307480
  0
VERTEX
  8
0
  6
CONTINUOUS
 10
7.022400
 20
3.235760
  0
VERTEX
  8
0
  6
CONTINUOUS
 10
6.371200
 20
2.855600
  0
VERTEX
  8
0
  6
CONTINUOUS
 10
6.322360
 20
2.927320
  0
SEQEND
  8
0
  0
SOLID
  8
0
 62
    15
 10
6.371200
 20
2.855600
 11
7.022400
 21
3.235760
 12
6.425320
 22
2.803680
 13
7.076520
 23
3.183840
  0
POLYLINE
  8
0
  6
CONTINUOUS
 66
     1
 40
0.000000
 41
0.000000
  0
VERTEX
  8
0
  6
CONTINUOUS
 10
6.371200
 20
2.855600
  0
VERTEX
  8
0
  6
CONTINUOUS
 10
7.022400
 20
3.235760
  0
VERTEX
  8
0
  6
CONTINUOUS
 10
7.076520
 20
3.183840
  0
VERTEX
  8
0
  6
CONTINUOUS
 10
6.425320
 20
2.803680
  0
VERTEX
  8
0
  6
CONTINUOUS
 10
6.371200
 20
2.855600
  0
SEQEND
  8
0
  0
SOLID
  8
0
 62
    15
 10
6.425320
 20
2.803680
 11
7.076520
 21
3.183840
 12
6.480320
 22
2.768480
 13
7.131520
 23
3.148640
  0
POLYLINE
  8
0
  6
CONTINUOUS
 66
     1
 40
0.000000
 41
0.000000
  0
VERTEX
  8
0
  6
CONTINUOUS
 10
6.425320
 20
2.803680
  0
VERTEX
  8
0
  6
CONTINUOUS
 10
7.076520
 20
3.183840
  0
VERTEX
  8
0
  6
CONTINUOUS
 10
7.131520
 20
3.148640
  0
VERTEX
  8
0
  6
CONTINUOUS
 10
6.480320
 20
2.768480
  0
VERTEX
  8
0
  6
CONTINUOUS
 10
6.425320
 20
2.803680
  0
SEQEND
  8
0
  0
SOLID
  8
0
 62
    15
 10
5.913600
 20
3.602720
 11
6.564800
 21
3.982880
 12
5.913600
 22
3.288560
 13
6.564800
 23
3.669160
  0
POLYLINE
  8
0
  6
CONTINUOUS
 66
     1
 40
0.000000
 41
0.000000
  0
VERTEX
  8
0
  6
CONTINUOUS
 10
5.913600
 20
3.602720
  0
VERTEX
  8
0
  6
CONTINUOUS
 10
6.564800
 20
3.982880
  0
VERTEX
  8
0
  6
CONTINUOUS
 10
6.564800
 20
3.669160
  0
VERTEX
  8
0
  6
CONTINUOUS
 10
5.913600
 20
3.288560
  0
VERTEX
  8
0
  6
CONTINUOUS
 10
5.913600
 20
3.602720
  0
SEQEND
  8
0
  0
SOLID
  8
0
 62
    15
 10
6.572720
 20
2.734160
 11
7.223920
 21
3.114760
 12
6.600880
 22
2.728440
 13
7.251640
 23
3.108600
  0
POLYLINE
  8
0
  6
CONTINUOUS
 66
     1
 40
0.000000
 41
0.000000
  0
VERTEX
  8
0
  6
CONTINUOUS
 10
6.572720
 20
2.734160
  0
VERTEX
  8
0
  6
CONTINUOUS
 10
7.223920
 20
3.114760
  0
VERTEX
  8
0
  6
CONTINUOUS
 10
7.251640
 20
3.108600
  0
VERTEX
  8
0
  6
CONTINUOUS
 10
6.600880
 20
2.728440
  0
VERTEX
  8
0
  6
CONTINUOUS
 10
6.572720
 20
2.734160
  0
SEQEND
  8
0
  0
SOLID
  8
0
 62
    15
 10
6.600880
 20
2.728440
 11
7.251640
 21
3.108600
 12
6.610120
 22
2.725360
 13
7.261320
 23
3.105520
  0
POLYLINE
  8
0
  6
CONTINUOUS
 66
     1
 40
0.000000
 41
0.000000
  0
VERTEX
  8
0
  6
CONTINUOUS
 10
6.600880
 20
2.728440
  0
VERTEX
  8
0
  6
CONTINUOUS
 10
7.251640
 20
3.108600
  0
VERTEX
  8
0
  6
CONTINUOUS
 10
7.261320
 20
3.105520
  0
VERTEX
  8
0
  6
CONTINUOUS
 10
6.610120
 20
2.725360
  0
VERTEX
  8
0
  6
CONTINUOUS
 10
6.600880
 20
2.728440
  0
SEQEND
  8
0
  0
SOLID
  8
0
 62
    15
 10
6.610120
 20
2.725360
 11
7.261320
 21
3.105520
 12
6.610120
 22
2.503600
 13
7.261320
 23
2.883760
  0
POLYLINE
  8
0
  6
CONTINUOUS
 66
     1
 40
0.000000
 41
0.000000
  0
VERTEX
  8
0
  6
CONTINUOUS
 10
6.610120
 20
2.725360
  0
VERTEX
  8
0
  6
CONTINUOUS
 10
7.261320
 20
3.105520
  0
VERTEX
  8
0
  6
CONTINUOUS
 10
7.261320
 20
2.883760
  0
VERTEX
  8
0
  6
CONTINUOUS
 10
6.610120
 20
2.503600
  0
VERTEX
  8
0
  6
CONTINUOUS
 10
6.610120
 20
2.725360
  0
SEQEND
  8
0
  0
SOLID
  8
0
 62
    15
 10
6.610120
 20
2.503600
 11
7.261320
 21
2.883760
 12
6.811640
 22
2.503600
 13
7.462400
 23
2.883760
  0
POLYLINE
  8
0
  6
CONTINUOUS
 66
     1
 40
0.000000
 41
0.000000
  0
VERTEX
  8
0
  6
CONTINUOUS
 10
6.610120
 20
2.503600
  0
VERTEX
  8
0
  6
CONTINUOUS
 10
7.261320
 20
2.883760
  0
VERTEX
  8
0
  6
CONTINUOUS
 10
7.462400
 20
2.883760
  0
VERTEX
  8
0
  6
CONTINUOUS
 10
6.811640
 20
2.503600
  0
VERTEX
  8
0
  6
CONTINUOUS
 10
6.610120
 20
2.503600
  0
SEQEND
  8
0
  0
SOLID
  8
0
 62
    15
 10
6.811640
 20
2.503600
 11
7.462400
 21
2.883760
 12
6.811640
 22
1.048080
 13
7.462400
 23
1.428240
  0
POLYLINE
  8
0
  6
CONTINUOUS
 66
     1
 40
0.000000
 41
0.000000
  0
VERTEX
  8
0
  6
CONTINUOUS
 10
6.811640
 20
2.503600
  0
VERTEX
  8
0
  6
CONTINUOUS
 10
7.462400
 20
2.883760
  0
VERTEX
  8
0
  6
CONTINUOUS
 10
7.462400
 20
1.428240
  0
VERTEX
  8
0
  6
CONTINUOUS
 10
6.811640
 20
1.048080
  0
VERTEX
  8
0
  6
CONTINUOUS
 10
6.811640
 20
2.503600
  0
SEQEND
  8
0
  0
SOLID
  8
0
 62
    15
 10
2.438040
 20
1.641640
 11
3.089240
 21
2.021800
 12
2.692360
 22
1.655720
 13
3.343560
 23
2.035880
  0
POLYLINE
  8
0
  6
CONTINUOUS
 66
     1
 40
0.000000
 41
0.000000
  0
VERTEX
  8
0
  6
CONTINUOUS
 10
2.438040
 20
1.641640
  0
VERTEX
  8
0
  6
CONTINUOUS
 10
3.089240
 20
2.021800
  0
VERTEX
  8
0
  6
CONTINUOUS
 10
3.343560
 20
2.035880
  0
VERTEX
  8
0
  6
CONTINUOUS
 10
2.692360
 20
1.655720
  0
VERTEX
  8
0
  6
CONTINUOUS
 10
2.438040
 20
1.641640
  0
SEQEND
  8
0
  0
SOLID
  8
0
 62
    15
 10
2.437600
 20
2.201760
 11
3.088800
 21
2.582360
 12
2.692360
 22
2.218480
 13
3.343560
 23
2.598640
  0
POLYLINE
  8
0
  6
CONTINUOUS
 66
     1
 40
0.000000
 41
0.000000
  0
VERTEX
  8
0
  6
CONTINUOUS
 10
2.437600
 20
2.201760
  0
VERTEX
  8
0
  6
CONTINUOUS
 10
3.088800
 20
2.582360
  0
VERTEX
  8
0
  6
CONTINUOUS
 10
3.343560
 20
2.598640
  0
VERTEX
  8
0
  6
CONTINUOUS
 10
2.692360
 20
2.218480
  0
VERTEX
  8
0
  6
CONTINUOUS
 10
2.437600
 20
2.201760
  0
SEQEND
  8
0
  0
SOLID
  8
0
 62
    15
 10
2.437600
 20
2.759240
 11
3.088800
 21
3.139400
 12
2.692360
 22
2.779920
 13
3.343560
 23
3.160080
  0
POLYLINE
  8
0
  6
CONTINUOUS
 66
     1
 40
0.000000
 41
0.000000
  0
VERTEX
  8
0
  6
CONTINUOUS
 10
2.437600
 20
2.759240
  0
VERTEX
  8
0
  6
CONTINUOUS
 10
3.088800
 20
3.139400
  0
VERTEX
  8
0
  6
CONTINUOUS
 10
3.343560
 20
3.160080
  0
VERTEX
  8
0
  6
CONTINUOUS
 10
2.692360
 20
2.779920
  0
VERTEX
  8
0
  6
CONTINUOUS
 10
2.437600
 20
2.759240
  0
SEQEND
  8
0
  0
SOLID
  8
0
 62
    15
 10
2.437600
 20
3.611080
 11
3.088800
 21
3.991240
 12
4.181760
 22
3.915560
 13
4.832520
 23
4.295720
  0
POLYLINE
  8
0
  6
CONTINUOUS
 66
     1
 40
0.000000
 41
0.000000
  0
VERTEX
  8
0
  6
CONTINUOUS
 10
2.437600
 20
3.611080
  0
VERTEX
  8
0
  6
CONTINUOUS
 10
3.088800
 20
3.991240
  0
VERTEX
  8
0
  6
CONTINUOUS
 10
4.832520
 20
4.295720
  0
VERTEX
  8
0
  6
CONTINUOUS
 10
4.181760
 20
3.915560
  0
VERTEX
  8
0
  6
CONTINUOUS
 10
2.437600
 20
3.611080
  0
SEQEND
  8
0
  0
SOLID
  8
0
 62
    15
 10
4.181760
 20
3.915560
 11
4.832520
 21
4.295720
 12
5.913600
 22
3.602720
 13
6.564800
 23
3.982880
  0
POLYLINE
  8
0
  6
CONTINUOUS
 66
     1
 40
0.000000
 41
0.000000
  0
VERTEX
  8
0
  6
CONTINUOUS
 10
4.181760
 20
3.915560
  0
VERTEX
  8
0
  6
CONTINUOUS
 10
4.832520
 20
4.295720
  0
VERTEX
  8
0
  6
CONTINUOUS
 10
6.564800
 20
3.982880
  0
VERTEX
  8
0
  6
CONTINUOUS
 10
5.913600
 20
3.602720
  0
VERTEX
  8
0
  6
CONTINUOUS
 10
4.181760
 20
3.915560
  0
SEQEND
  8
0
  0
POLYLINE
  8
0
  6
CONTINUOUS
 66
     1
 40
0.000000
 41
0.000000
  0
VERTEX
  8
0
  6
CONTINUOUS
 10
5.913600
 20
3.602720
  0
VERTEX
  8
0
  6
CONTINUOUS
 10
5.913600
 20
3.288560
  0
VERTEX
  8
0
  6
CONTINUOUS
 10
6.007320
 20
3.288120
  0
VERTEX
  8
0
  6
CONTINUOUS
 10
6.109400
 20
3.264800
  0
VERTEX
  8
0
  6
CONTINUOUS
 10
6.159560
 20
3.234440
  0
VERTEX
  8
0
  6
CONTINUOUS
 10
6.206200
 20
3.186920
  0
VERTEX
  8
0
  6
CONTINUOUS
 10
6.248440
 20
3.117840
  0
VERTEX
  8
0
  6
CONTINUOUS
 10
6.284080
 20
3.023240
  0
VERTEX
  8
0
  6
CONTINUOUS
 10
6.322360
 20
2.927320
  0
VERTEX
  8
0
  6
CONTINUOUS
 10
6.371200
 20
2.855600
  0
VERTEX
  8
0
  6
CONTINUOUS
 10
6.425320
 20
2.803680
  0
VERTEX
  8
0
  6
CONTINUOUS
 10
6.480320
 20
2.768480
  0
VERTEX
  8
0
  6
CONTINUOUS
 10
6.572720
 20
2.734160
  0
VERTEX
  8
0
  6
CONTINUOUS
 10
6.600880
 20
2.728440
  0
VERTEX
  8
0
  6
CONTINUOUS
 10
6.610120
 20
2.725360
  0
VERTEX
  8
0
  6
CONTINUOUS
 10
6.610120
 20
2.503600
  0
VERTEX
  8
0
  6
CONTINUOUS
 10
6.811640
 20
2.503600
  0
VERTEX
  8
0
  6
CONTINUOUS
 10
6.811640
 20
1.048080
  0
VERTEX
  8
0
  6
CONTINUOUS
 10
2.438040
 20
1.048080
  0
VERTEX
  8
0
  6
CONTINUOUS
 10
2.438040
 20
1.641640
  0
VERTEX
  8
0
  6
CONTINUOUS
 10
2.692360
 20
1.655720
  0
VERTEX
  8
0
  6
CONTINUOUS
 10
2.692360
 20
1.891560
  0
VERTEX
  8
0
  6
CONTINUOUS
 10
2.437600
 20
1.920160
  0
VERTEX
  8
0
  6
CONTINUOUS
 10
2.437600
 20
2.201760
  0
VERTEX
  8
0
  6
CONTINUOUS
 10
2.692360
 20
2.218480
  0
VERTEX
  8
0
  6
CONTINUOUS
 10
2.692360
 20
2.466200
  0
VERTEX
  8
0
  6
CONTINUOUS
 10
2.437600
 20
2.485120
  0
VERTEX
  8
0
  6
CONTINUOUS
 10
2.437600
 20
2.759240
  0
VERTEX
  8
0
  6
CONTINUOUS
 10
2.692360
 20
2.779920
  0
VERTEX
  8
0
  6
CONTINUOUS
 10
2.692360
 20
3.020600
  0
VERTEX
  8
0
  6
CONTINUOUS
 10
2.437600
 20
3.048760
  0
VERTEX
  8
0
  6
CONTINUOUS
 10
2.437600
 20
3.611080
  0
VERTEX
  8
0
  6
CONTINUOUS
 10
4.181760
 20
3.915560
  0
VERTEX
  8
0
  6
CONTINUOUS
 10
5.913600
 20
3.602720
  0
SEQEND
  8
0
  0
TEXT
  8
0
 10
4.656520
 20
0.703120
 40
0.138287
  1
BA  400
 41
1.000000
  7
SN0
 71
     0
 72
     5
 11
5.246799
 21
0.703120
  0
TEXT
  8
0
 10
4.334440
 20
0.511280
 40
0.138287
  1
2-13/16" x 4-3/8"
 41
1.000000
  7
SN0
 71
     0
 72
     5
 11
5.566465
 21
0.511280
  0
POLYLINE
  8
0
  6
CONTINUOUS
 66
     1
 40
0.014080
 41
0.014080
  0
VERTEX
  8
0
  6
CONTINUOUS
 10
6.229520
 20
7.246360
  0
VERTEX
  8
0
  6
CONTINUOUS
 10
6.229520
 20
6.932640
  0
VERTEX
  8
0
  6
CONTINUOUS
 10
6.298160
 20
6.933080
  0
VERTEX
  8
0
  6
CONTINUOUS
 10
6.348320
 20
6.929560
  0
VERTEX
  8
0
  6
CONTINUOUS
 10
6.386600
 20
6.922080
  0
VERTEX
  8
0
  6
CONTINUOUS
 10
6.425320
 20
6.908440
  0
VERTEX
  8
0
  6
CONTINUOUS
 10
6.462720
 20
6.887320
  0
VERTEX
  8
0
  6
CONTINUOUS
 10
6.486920
 20
6.868400
  0
VERTEX
  8
0
  6
CONTINUOUS
 10
6.510680
 20
6.844640
  0
VERTEX
  8
0
  6
CONTINUOUS
 10
6.533120
 20
6.815600
  0
VERTEX
  8
0
  6
CONTINUOUS
 10
6.554240
 20
6.781280
  0
VERTEX
  8
0
  6
CONTINUOUS
 10
6.573600
 20
6.740360
  0
VERTEX
  8
0
  6
CONTINUOUS
 10
6.591200
 20
6.693280
  0
VERTEX
  8
0
  6
CONTINUOUS
 10
6.607920
 20
6.640480
  0
VERTEX
  8
0
  6
CONTINUOUS
 10
6.627280
 20
6.592520
  0
VERTEX
  8
0
  6
CONTINUOUS
 10
6.649280
 20
6.551160
  0
VERTEX
  8
0
  6
CONTINUOUS
 10
6.673920
 20
6.515080
  0
VERTEX
  8
0
  6
CONTINUOUS
 10
6.699880
 20
6.484280
  0
VERTEX
  8
0
  6
CONTINUOUS
 10
6.740800
 20
6.447320
  0
VERTEX
  8
0
  6
CONTINUOUS
 10
6.782600
 20
6.419600
  0
VERTEX
  8
0
  6
CONTINUOUS
 10
6.822200
 20
6.399800
  0
VERTEX
  8
0
  6
CONTINUOUS
 10
6.868840
 20
6.383080
  0
VERTEX
  8
0
  6
CONTINUOUS
 10
6.925160
 20
6.369880
  0
VERTEX
  8
0
  6
CONTINUOUS
 10
6.925600
 20
6.147680
  0
VERTEX
  8
0
  6
CONTINUOUS
 10
7.127120
 20
6.147680
  0
VERTEX
  8
0
  6
CONTINUOUS
 10
7.127120
 20
4.691720
  0
VERTEX
  8
0
  6
CONTINUOUS
 10
2.753960
 20
4.691720
  0
VERTEX
  8
0
  6
CONTINUOUS
 10
2.753960
 20
5.285720
  0
VERTEX
  8
0
  6
CONTINUOUS
 10
3.008280
 20
5.299800
  0
VERTEX
  8
0
  6
CONTINUOUS
 10
3.008280
 20
5.535640
  0
VERTEX
  8
0
  6
CONTINUOUS
 10
2.753520
 20
5.563800
  0
VERTEX
  8
0
  6
CONTINUOUS
 10
2.753520
 20
5.845840
  0
VERTEX
  8
0
  6
CONTINUOUS
 10
3.008280
 20
5.862560
  0
VERTEX
  8
0
  6
CONTINUOUS
 10
3.008280
 20
6.110280
  0
VERTEX
  8
0
  6
CONTINUOUS
 10
2.753520
 20
6.129200
  0
VERTEX
  8
0
  6
CONTINUOUS
 10
2.753520
 20
6.402880
  0
VERTEX
  8
0
  6
CONTINUOUS
 10
3.008280
 20
6.423560
  0
VERTEX
  8
0
  6
CONTINUOUS
 10
3.008280
 20
6.664240
  0
VERTEX
  8
0
  6
CONTINUOUS
 10
2.753520
 20
6.692400
  0
VERTEX
  8
0
  6
CONTINUOUS
 10
2.753520
 20
7.254720
  0
VERTEX
  8
0
  6
CONTINUOUS
 10
4.497240
 20
7.559640
  0
VERTEX
  8
0
  6
CONTINUOUS
 10
6.229520
 20
7.246360
  0
SEQEND
  8
0
  0
ENDSEC
  0
EOF
