  0
SECTION
  2
HEADER
  9
$ACADVER
  1
AC1006
  9
$EXTMIN
 10
4.819320
 20
0.502040
  9
$EXTMAX
 10
7.762920
 20
3.555200
  9
$LTSCALE
 40
0.044000
  9
$PDMODE
 70
    35
  9
$PDSIZE
 40
0.035200
  0
ENDSEC
  0
SECTION
  2
TABLES
  0
TABLE
  2
LTYPE
 70
     9
  0
LTYPE
  2
CONTINUOUS
 70
    64
  3
Solid line
 72
    65
 73
     0
 40
0.000000
  0
LTYPE
  2
DASHED
 70
    64
  3
__ __ __ __ __ __ __ __ __ __ __ __ __ __ __
 72
    65
 73
     2
 40
0.000330
 49
0.000220
 49
-0.000110
  0
LTYPE
  2
HIDDEN
 70
    64
  3
 _ _ _ _ _ _ _ _ _ _ _ _ _ _ _ _ _ _ _ _ _ _
 72
    65
 73
     2
 40
0.000165
 49
0.000110
 49
-0.000055
  0
LTYPE
  2
CENTER
 70
    64
  3
____ _ ____ _ ____ _ ____ _ ____ _ ____ _ ____
 72
    65
 73
     4
 40
0.000880
 49
0.000550
 49
-0.000110
 49
0.000110
 49
-0.000110
  0
LTYPE
  2
PHANTOM
 70
    64
  3
_____ _ _ _____ _ _ _____ _ _ _____ _ _ ____
 72
    65
 73
     6
 40
0.001100
 49
0.000550
 49
-0.000110
 49
0.000110
 49
-0.000110
 49
0.000110
 49
-0.000110
  0
LTYPE
  2
DOT
 70
    64
  3
...............................................
 72
    65
 73
     2
 40
0.000110
 49
0.000000
 49
-0.000110
  0
LTYPE
  2
DASHDOT
 70
    64
  3
__ . __ . __ . __ . __ . __ . __ . __ . __ . __
 72
    65
 73
     4
 40
0.000440
 49
0.000220
 49
-0.000110
 49
0.000000
 49
-0.000110
  0
LTYPE
  2
BORDER
 70
    64
  3
__ __ . __ __ . __ __ . __ __ . __ __ . __ __
 72
    65
 73
     6
 40
0.000770
 49
0.000220
 49
-0.000110
 49
0.000220
 49
-0.000110
 49
0.000000
 49
-0.000110
  0
LTYPE
  2
DIVIDE
 70
    64
  3
__ . . __ . . __ . . __ . . __ . . __ . . __
 72
    65
 73
     6
 40
0.000550
 49
0.000220
 49
-0.000110
 49
0.000000
 49
-0.000110
 49
0.000000
 49
-0.000110
  0
LTYPE
  2
DOTDOT
 70
    64
  3
 . .  . .  . .  . .  . .  . . 
 72
    65
 73
     5
 40
0.000242
 49
-0.000110
 49
0.000000
 49
-0.000110
 49
0.000000
 49
-0.000110
  0
ENDTAB
  0
TABLE
  2
STYLE
 70
     2
  0
STYLE
 70
     0
  2
SN0
 40
0.000000
 41
0.000440
 50
0.000000
 71
     0
 42
0.000000
  3
ROMAND
  0
STYLE
 70
    68
  2
SV0
 40
0.000000
 41
0.000440
 50
0.000000
 71
     0
 42
0.000000
  3
ROMAND
  0
ENDTAB
  0
TABLE
  2
LAYER
 70
     3
  0
LAYER
  2
FOREGROUND
 70
    64
 62
     7
  6
CONTINUOUS
  0
LAYER
  2
BACKGROUND
 70
    65
 62
    -7
  6
CONTINUOUS
  0
LAYER
  2
0
 70
    64
 62
     7
  6
CONTINUOUS
  0
ENDTAB
  0
ENDSEC
  0
SECTION
  2
ENTITIES
  0
POLYLINE
  8
FOREGROUND
  6
CONTINUOUS
 66
     1
 40
0.000000
 41
0.000000
  0
VERTEX
  8
FOREGROUND
  6
CONTINUOUS
 10
0.000000
 20
4.057240
  0
VERTEX
  8
FOREGROUND
  6
CONTINUOUS
 10
8.499920
 20
4.057240
  0
VERTEX
  8
FOREGROUND
  6
CONTINUOUS
 10
8.499920
 20
-6.942760
  0
VERTEX
  8
FOREGROUND
  6
CONTINUOUS
 10
0.000000
 20
-6.942760
  0
VERTEX
  8
FOREGROUND
  6
CONTINUOUS
 10
0.000000
 20
4.057240
  0
SEQEND
  8
0
  0
POLYLINE
  8
0
  6
CONTINUOUS
 66
     1
 40
0.014080
 41
0.014080
  0
VERTEX
  8
0
  6
CONTINUOUS
 10
7.054520
 20
2.850760
  0
VERTEX
  8
0
  6
CONTINUOUS
 10
6.679640
 20
2.850760
  0
VERTEX
  8
0
  6
CONTINUOUS
 10
6.679640
 20
3.027200
  0
VERTEX
  8
0
  6
CONTINUOUS
 10
6.308720
 20
3.027200
  0
VERTEX
  8
0
  6
CONTINUOUS
 10
6.308720
 20
3.196160
  0
VERTEX
  8
0
  6
CONTINUOUS
 10
5.935600
 20
3.196160
  0
VERTEX
  8
0
  6
CONTINUOUS
 10
5.935600
 20
3.380960
  0
VERTEX
  8
0
  6
CONTINUOUS
 10
5.549280
 20
3.380960
  0
VERTEX
  8
0
  6
CONTINUOUS
 10
5.549280
 20
3.547720
  0
VERTEX
  8
0
  6
CONTINUOUS
 10
4.826800
 20
3.547720
  0
VERTEX
  8
0
  6
CONTINUOUS
 10
4.826800
 20
2.705560
  0
VERTEX
  8
0
  6
CONTINUOUS
 10
7.014920
 20
2.705560
  0
VERTEX
  8
0
  6
CONTINUOUS
 10
7.056280
 20
2.705560
  0
VERTEX
  8
0
  6
CONTINUOUS
 10
7.056280
 20
2.849440
  0
VERTEX
  8
0
  6
CONTINUOUS
 10
7.054520
 20
2.850760
  0
SEQEND
  8
0
  0
SOLID
  8
0
 62
    15
 10
5.991920
 20
1.461240
 11
6.641800
 21
1.834800
 12
6.365040
 22
1.461240
 13
7.014920
 23
1.834800
  0
POLYLINE
  8
0
  6
CONTINUOUS
 66
     1
 40
0.000000
 41
0.000000
  0
VERTEX
  8
0
  6
CONTINUOUS
 10
5.991920
 20
1.461240
  0
VERTEX
  8
0
  6
CONTINUOUS
 10
6.641800
 20
1.834800
  0
VERTEX
  8
0
  6
CONTINUOUS
 10
7.014920
 20
1.834800
  0
VERTEX
  8
0
  6
CONTINUOUS
 10
6.365040
 20
1.461240
  0
VERTEX
  8
0
  6
CONTINUOUS
 10
5.991920
 20
1.461240
  0
SEQEND
  8
0
  0
SOLID
  8
0
 62
    15
 10
4.883120
 20
1.812800
 11
5.533000
 21
2.186360
 12
5.605600
 22
1.812800
 13
6.255480
 23
2.186360
  0
POLYLINE
  8
0
  6
CONTINUOUS
 66
     1
 40
0.000000
 41
0.000000
  0
VERTEX
  8
0
  6
CONTINUOUS
 10
4.883120
 20
1.812800
  0
VERTEX
  8
0
  6
CONTINUOUS
 10
5.533000
 20
2.186360
  0
VERTEX
  8
0
  6
CONTINUOUS
 10
6.255480
 20
2.186360
  0
VERTEX
  8
0
  6
CONTINUOUS
 10
5.605600
 20
1.812800
  0
VERTEX
  8
0
  6
CONTINUOUS
 10
4.883120
 20
1.812800
  0
SEQEND
  8
0
  0
SOLID
  8
0
 62
    15
 10
5.605600
 20
1.812800
 11
6.255480
 21
2.186360
 12
5.605600
 22
1.646480
 13
6.255480
 23
2.020040
  0
POLYLINE
  8
0
  6
CONTINUOUS
 66
     1
 40
0.000000
 41
0.000000
  0
VERTEX
  8
0
  6
CONTINUOUS
 10
5.605600
 20
1.812800
  0
VERTEX
  8
0
  6
CONTINUOUS
 10
6.255480
 20
2.186360
  0
VERTEX
  8
0
  6
CONTINUOUS
 10
6.255480
 20
2.020040
  0
VERTEX
  8
0
  6
CONTINUOUS
 10
5.605600
 20
1.646480
  0
VERTEX
  8
0
  6
CONTINUOUS
 10
5.605600
 20
1.812800
  0
SEQEND
  8
0
  0
SOLID
  8
0
 62
    15
 10
5.605600
 20
1.646480
 11
6.255480
 21
2.020040
 12
5.991920
 22
1.646480
 13
6.641800
 23
2.020040
  0
POLYLINE
  8
0
  6
CONTINUOUS
 66
     1
 40
0.000000
 41
0.000000
  0
VERTEX
  8
0
  6
CONTINUOUS
 10
5.605600
 20
1.646480
  0
VERTEX
  8
0
  6
CONTINUOUS
 10
6.255480
 20
2.020040
  0
VERTEX
  8
0
  6
CONTINUOUS
 10
6.641800
 20
2.020040
  0
VERTEX
  8
0
  6
CONTINUOUS
 10
5.991920
 20
1.646480
  0
VERTEX
  8
0
  6
CONTINUOUS
 10
5.605600
 20
1.646480
  0
SEQEND
  8
0
  0
SOLID
  8
0
 62
    15
 10
5.991920
 20
1.646480
 11
6.641800
 21
2.020040
 12
5.991920
 22
1.461240
 13
6.641800
 23
1.834800
  0
POLYLINE
  8
0
  6
CONTINUOUS
 66
     1
 40
0.000000
 41
0.000000
  0
VERTEX
  8
0
  6
CONTINUOUS
 10
5.991920
 20
1.646480
  0
VERTEX
  8
0
  6
CONTINUOUS
 10
6.641800
 20
2.020040
  0
VERTEX
  8
0
  6
CONTINUOUS
 10
6.641800
 20
1.834800
  0
VERTEX
  8
0
  6
CONTINUOUS
 10
5.991920
 20
1.461240
  0
VERTEX
  8
0
  6
CONTINUOUS
 10
5.991920
 20
1.646480
  0
SEQEND
  8
0
  0
SOLID
  8
0
 62
    15
 10
7.112600
 20
1.114960
 11
7.762480
 21
1.488520
 12
7.112600
 22
0.971080
 13
7.762480
 23
1.344640
  0
POLYLINE
  8
0
  6
CONTINUOUS
 66
     1
 40
0.000000
 41
0.000000
  0
VERTEX
  8
0
  6
CONTINUOUS
 10
7.112600
 20
1.114960
  0
VERTEX
  8
0
  6
CONTINUOUS
 10
7.762480
 20
1.488520
  0
VERTEX
  8
0
  6
CONTINUOUS
 10
7.762480
 20
1.344640
  0
VERTEX
  8
0
  6
CONTINUOUS
 10
7.112600
 20
0.971080
  0
VERTEX
  8
0
  6
CONTINUOUS
 10
7.112600
 20
1.114960
  0
SEQEND
  8
0
  0
SOLID
  8
0
 62
    15
 10
6.365040
 20
1.461240
 11
7.014920
 21
1.834800
 12
6.365040
 22
1.292280
 13
7.014920
 23
1.665840
  0
POLYLINE
  8
0
  6
CONTINUOUS
 66
     1
 40
0.000000
 41
0.000000
  0
VERTEX
  8
0
  6
CONTINUOUS
 10
6.365040
 20
1.461240
  0
VERTEX
  8
0
  6
CONTINUOUS
 10
7.014920
 20
1.834800
  0
VERTEX
  8
0
  6
CONTINUOUS
 10
7.014920
 20
1.665840
  0
VERTEX
  8
0
  6
CONTINUOUS
 10
6.365040
 20
1.292280
  0
VERTEX
  8
0
  6
CONTINUOUS
 10
6.365040
 20
1.461240
  0
SEQEND
  8
0
  0
SOLID
  8
0
 62
    15
 10
6.365040
 20
1.292280
 11
7.014920
 21
1.665840
 12
6.736400
 22
1.292280
 13
7.385840
 23
1.665840
  0
POLYLINE
  8
0
  6
CONTINUOUS
 66
     1
 40
0.000000
 41
0.000000
  0
VERTEX
  8
0
  6
CONTINUOUS
 10
6.365040
 20
1.292280
  0
VERTEX
  8
0
  6
CONTINUOUS
 10
7.014920
 20
1.665840
  0
VERTEX
  8
0
  6
CONTINUOUS
 10
7.385840
 20
1.665840
  0
VERTEX
  8
0
  6
CONTINUOUS
 10
6.736400
 20
1.292280
  0
VERTEX
  8
0
  6
CONTINUOUS
 10
6.365040
 20
1.292280
  0
SEQEND
  8
0
  0
SOLID
  8
0
 62
    15
 10
6.736400
 20
1.292280
 11
7.385840
 21
1.665840
 12
6.736400
 22
1.115840
 13
7.385840
 23
1.489400
  0
POLYLINE
  8
0
  6
CONTINUOUS
 66
     1
 40
0.000000
 41
0.000000
  0
VERTEX
  8
0
  6
CONTINUOUS
 10
6.736400
 20
1.292280
  0
VERTEX
  8
0
  6
CONTINUOUS
 10
7.385840
 20
1.665840
  0
VERTEX
  8
0
  6
CONTINUOUS
 10
7.385840
 20
1.489400
  0
VERTEX
  8
0
  6
CONTINUOUS
 10
6.736400
 20
1.115840
  0
VERTEX
  8
0
  6
CONTINUOUS
 10
6.736400
 20
1.292280
  0
SEQEND
  8
0
  0
SOLID
  8
0
 62
    15
 10
6.736400
 20
1.115840
 11
7.385840
 21
1.489400
 12
7.110840
 22
1.115840
 13
7.760720
 23
1.489400
  0
POLYLINE
  8
0
  6
CONTINUOUS
 66
     1
 40
0.000000
 41
0.000000
  0
VERTEX
  8
0
  6
CONTINUOUS
 10
6.736400
 20
1.115840
  0
VERTEX
  8
0
  6
CONTINUOUS
 10
7.385840
 20
1.489400
  0
VERTEX
  8
0
  6
CONTINUOUS
 10
7.760720
 20
1.489400
  0
VERTEX
  8
0
  6
CONTINUOUS
 10
7.110840
 20
1.115840
  0
VERTEX
  8
0
  6
CONTINUOUS
 10
6.736400
 20
1.115840
  0
SEQEND
  8
0
  0
SOLID
  8
0
 62
    15
 10
7.110840
 20
1.115840
 11
7.760720
 21
1.489400
 12
7.112600
 22
1.114960
 13
7.762480
 23
1.488520
  0
POLYLINE
  8
0
  6
CONTINUOUS
 66
     1
 40
0.000000
 41
0.000000
  0
VERTEX
  8
0
  6
CONTINUOUS
 10
7.110840
 20
1.115840
  0
VERTEX
  8
0
  6
CONTINUOUS
 10
7.760720
 20
1.489400
  0
VERTEX
  8
0
  6
CONTINUOUS
 10
7.762480
 20
1.488520
  0
VERTEX
  8
0
  6
CONTINUOUS
 10
7.112600
 20
1.114960
  0
VERTEX
  8
0
  6
CONTINUOUS
 10
7.110840
 20
1.115840
  0
SEQEND
  8
0
  0
POLYLINE
  8
0
  6
CONTINUOUS
 66
     1
 40
0.000000
 41
0.000000
  0
VERTEX
  8
0
  6
CONTINUOUS
 10
7.112600
 20
1.114960
  0
VERTEX
  8
0
  6
CONTINUOUS
 10
7.112600
 20
0.971080
  0
VERTEX
  8
0
  6
CONTINUOUS
 10
4.883120
 20
0.971080
  0
VERTEX
  8
0
  6
CONTINUOUS
 10
4.883120
 20
1.812800
  0
VERTEX
  8
0
  6
CONTINUOUS
 10
5.605600
 20
1.812800
  0
VERTEX
  8
0
  6
CONTINUOUS
 10
5.605600
 20
1.646480
  0
VERTEX
  8
0
  6
CONTINUOUS
 10
5.991920
 20
1.646480
  0
VERTEX
  8
0
  6
CONTINUOUS
 10
5.991920
 20
1.461240
  0
VERTEX
  8
0
  6
CONTINUOUS
 10
6.365040
 20
1.461240
  0
VERTEX
  8
0
  6
CONTINUOUS
 10
6.365040
 20
1.292280
  0
VERTEX
  8
0
  6
CONTINUOUS
 10
6.736400
 20
1.292280
  0
VERTEX
  8
0
  6
CONTINUOUS
 10
6.736400
 20
1.115840
  0
VERTEX
  8
0
  6
CONTINUOUS
 10
7.110840
 20
1.115840
  0
VERTEX
  8
0
  6
CONTINUOUS
 10
7.112600
 20
1.114960
  0
SEQEND
  8
0
  0
TEXT
  8
0
 10
6.027120
 20
0.736560
 40
0.138122
  1
BA  398
 41
1.000000
  7
SN0
 71
     0
 72
     5
 11
6.617296
 21
0.736560
  0
TEXT
  8
0
 10
5.871360
 20
0.545160
 40
0.138122
  1
7/8" x 2-1/4"
 41
1.000000
  7
SN0
 71
     0
 72
     5
 11
6.772042
 21
0.545160
  0
ENDSEC
  0
EOF
