  0
SECTION
  2
HEADER
  9
$ACADVER
  1
AC1006
  9
$EXTMIN
 10
4.693040
 20
0.579920
  9
$EXTMAX
 10
7.813520
 20
4.645960
  9
$LTSCALE
 40
0.044000
  9
$PDMODE
 70
    35
  9
$PDSIZE
 40
0.035200
  0
ENDSEC
  0
SECTION
  2
TABLES
  0
TABLE
  2
LTYPE
 70
     9
  0
LTYPE
  2
CONTINUOUS
 70
    64
  3
Solid line
 72
    65
 73
     0
 40
0.000000
  0
LTYPE
  2
DASHED
 70
    64
  3
__ __ __ __ __ __ __ __ __ __ __ __ __ __ __
 72
    65
 73
     2
 40
0.000330
 49
0.000220
 49
-0.000110
  0
LTYPE
  2
HIDDEN
 70
    64
  3
 _ _ _ _ _ _ _ _ _ _ _ _ _ _ _ _ _ _ _ _ _ _
 72
    65
 73
     2
 40
0.000165
 49
0.000110
 49
-0.000055
  0
LTYPE
  2
CENTER
 70
    64
  3
____ _ ____ _ ____ _ ____ _ ____ _ ____ _ ____
 72
    65
 73
     4
 40
0.000880
 49
0.000550
 49
-0.000110
 49
0.000110
 49
-0.000110
  0
LTYPE
  2
PHANTOM
 70
    64
  3
_____ _ _ _____ _ _ _____ _ _ _____ _ _ ____
 72
    65
 73
     6
 40
0.001100
 49
0.000550
 49
-0.000110
 49
0.000110
 49
-0.000110
 49
0.000110
 49
-0.000110
  0
LTYPE
  2
DOT
 70
    64
  3
...............................................
 72
    65
 73
     2
 40
0.000110
 49
0.000000
 49
-0.000110
  0
LTYPE
  2
DASHDOT
 70
    64
  3
__ . __ . __ . __ . __ . __ . __ . __ . __ . __
 72
    65
 73
     4
 40
0.000440
 49
0.000220
 49
-0.000110
 49
0.000000
 49
-0.000110
  0
LTYPE
  2
BORDER
 70
    64
  3
__ __ . __ __ . __ __ . __ __ . __ __ . __ __
 72
    65
 73
     6
 40
0.000770
 49
0.000220
 49
-0.000110
 49
0.000220
 49
-0.000110
 49
0.000000
 49
-0.000110
  0
LTYPE
  2
DIVIDE
 70
    64
  3
__ . . __ . . __ . . __ . . __ . . __ . . __
 72
    65
 73
     6
 40
0.000550
 49
0.000220
 49
-0.000110
 49
0.000000
 49
-0.000110
 49
0.000000
 49
-0.000110
  0
LTYPE
  2
DOTDOT
 70
    64
  3
 . .  . .  . .  . .  . .  . . 
 72
    65
 73
     5
 40
0.000242
 49
-0.000110
 49
0.000000
 49
-0.000110
 49
0.000000
 49
-0.000110
  0
ENDTAB
  0
TABLE
  2
STYLE
 70
     2
  0
STYLE
 70
     0
  2
SN0
 40
0.000000
 41
0.000440
 50
0.000000
 71
     0
 42
0.000000
  3
ROMAND
  0
STYLE
 70
    68
  2
SV0
 40
0.000000
 41
0.000440
 50
0.000000
 71
     0
 42
0.000000
  3
ROMAND
  0
ENDTAB
  0
TABLE
  2
LAYER
 70
     3
  0
LAYER
  2
FOREGROUND
 70
    64
 62
     7
  6
CONTINUOUS
  0
LAYER
  2
BACKGROUND
 70
    65
 62
    -7
  6
CONTINUOUS
  0
LAYER
  2
0
 70
    64
 62
     7
  6
CONTINUOUS
  0
ENDTAB
  0
ENDSEC
  0
SECTION
  2
ENTITIES
  0
POLYLINE
  8
FOREGROUND
  6
CONTINUOUS
 66
     1
 40
0.000000
 41
0.000000
  0
VERTEX
  8
FOREGROUND
  6
CONTINUOUS
 10
0.000000
 20
5.225880
  0
VERTEX
  8
FOREGROUND
  6
CONTINUOUS
 10
8.499920
 20
5.225880
  0
VERTEX
  8
FOREGROUND
  6
CONTINUOUS
 10
8.499920
 20
-5.774120
  0
VERTEX
  8
FOREGROUND
  6
CONTINUOUS
 10
0.000000
 20
-5.774120
  0
VERTEX
  8
FOREGROUND
  6
CONTINUOUS
 10
0.000000
 20
5.225880
  0
SEQEND
  8
0
  0
POLYLINE
  8
0
  6
CONTINUOUS
 66
     1
 40
0.014080
 41
0.014080
  0
VERTEX
  8
0
  6
CONTINUOUS
 10
6.267360
 20
4.635400
  0
VERTEX
  8
0
  6
CONTINUOUS
 10
6.267360
 20
4.529800
  0
VERTEX
  8
0
  6
CONTINUOUS
 10
6.354040
 20
4.529800
  0
VERTEX
  8
0
  6
CONTINUOUS
 10
6.354040
 20
4.417600
  0
VERTEX
  8
0
  6
CONTINUOUS
 10
6.368560
 20
4.414080
  0
VERTEX
  8
0
  6
CONTINUOUS
 10
6.390120
 20
4.403520
  0
VERTEX
  8
0
  6
CONTINUOUS
 10
6.410360
 20
4.386800
  0
VERTEX
  8
0
  6
CONTINUOUS
 10
6.429280
 20
4.364360
  0
VERTEX
  8
0
  6
CONTINUOUS
 10
6.451720
 20
4.324760
  0
VERTEX
  8
0
  6
CONTINUOUS
 10
6.470640
 20
4.274160
  0
VERTEX
  8
0
  6
CONTINUOUS
 10
6.484720
 20
4.213000
  0
VERTEX
  8
0
  6
CONTINUOUS
 10
6.492200
 20
4.159320
  0
VERTEX
  8
0
  6
CONTINUOUS
 10
6.496600
 20
4.099920
  0
VERTEX
  8
0
  6
CONTINUOUS
 10
6.497040
 20
4.034360
  0
VERTEX
  8
0
  6
CONTINUOUS
 10
6.553360
 20
4.034360
  0
VERTEX
  8
0
  6
CONTINUOUS
 10
6.553360
 20
3.707000
  0
VERTEX
  8
0
  6
CONTINUOUS
 10
6.300360
 20
3.707000
  0
VERTEX
  8
0
  6
CONTINUOUS
 10
6.300360
 20
3.113000
  0
VERTEX
  8
0
  6
CONTINUOUS
 10
6.300800
 20
3.114760
  0
VERTEX
  8
0
  6
CONTINUOUS
 10
5.922400
 20
3.114320
  0
VERTEX
  8
0
  6
CONTINUOUS
 10
5.922400
 20
3.708320
  0
VERTEX
  8
0
  6
CONTINUOUS
 10
5.669400
 20
3.708320
  0
VERTEX
  8
0
  6
CONTINUOUS
 10
5.669400
 20
4.035680
  0
VERTEX
  8
0
  6
CONTINUOUS
 10
5.725280
 20
4.035680
  0
VERTEX
  8
0
  6
CONTINUOUS
 10
5.726160
 20
4.101240
  0
VERTEX
  8
0
  6
CONTINUOUS
 10
5.730120
 20
4.160640
  0
VERTEX
  8
0
  6
CONTINUOUS
 10
5.740680
 20
4.230600
  0
VERTEX
  8
0
  6
CONTINUOUS
 10
5.752120
 20
4.275480
  0
VERTEX
  8
0
  6
CONTINUOUS
 10
5.765760
 20
4.314200
  0
VERTEX
  8
0
  6
CONTINUOUS
 10
5.781600
 20
4.347200
  0
VERTEX
  8
0
  6
CONTINUOUS
 10
5.799200
 20
4.374040
  0
VERTEX
  8
0
  6
CONTINUOUS
 10
5.818560
 20
4.394280
  0
VERTEX
  8
0
  6
CONTINUOUS
 10
5.839240
 20
4.408800
  0
VERTEX
  8
0
  6
CONTINUOUS
 10
5.860800
 20
4.417600
  0
VERTEX
  8
0
  6
CONTINUOUS
 10
5.868280
 20
4.418920
  0
VERTEX
  8
0
  6
CONTINUOUS
 10
5.868280
 20
4.531120
  0
VERTEX
  8
0
  6
CONTINUOUS
 10
5.955400
 20
4.531120
  0
VERTEX
  8
0
  6
CONTINUOUS
 10
5.955840
 20
4.638040
  0
VERTEX
  8
0
  6
CONTINUOUS
 10
6.266920
 20
4.638040
  0
VERTEX
  8
0
  6
CONTINUOUS
 10
6.267360
 20
4.635400
  0
SEQEND
  8
0
  0
SOLID
  8
0
 62
    15
 10
5.519800
 20
1.882320
 11
6.161760
 21
2.258080
 12
5.521560
 22
1.796520
 13
6.163520
 23
2.172280
  0
POLYLINE
  8
0
  6
CONTINUOUS
 66
     1
 40
0.000000
 41
0.000000
  0
VERTEX
  8
0
  6
CONTINUOUS
 10
5.519800
 20
1.882320
  0
VERTEX
  8
0
  6
CONTINUOUS
 10
6.161760
 20
2.258080
  0
VERTEX
  8
0
  6
CONTINUOUS
 10
6.163520
 20
2.172280
  0
VERTEX
  8
0
  6
CONTINUOUS
 10
5.521560
 20
1.796520
  0
VERTEX
  8
0
  6
CONTINUOUS
 10
5.519800
 20
1.882320
  0
SEQEND
  8
0
  0
SOLID
  8
0
 62
    15
 10
5.291440
 20
2.291520
 11
5.933840
 21
2.667280
 12
5.378560
 22
2.291520
 13
6.020520
 23
2.667280
  0
POLYLINE
  8
0
  6
CONTINUOUS
 66
     1
 40
0.000000
 41
0.000000
  0
VERTEX
  8
0
  6
CONTINUOUS
 10
5.291440
 20
2.291520
  0
VERTEX
  8
0
  6
CONTINUOUS
 10
5.933840
 20
2.667280
  0
VERTEX
  8
0
  6
CONTINUOUS
 10
6.020520
 20
2.667280
  0
VERTEX
  8
0
  6
CONTINUOUS
 10
5.378560
 20
2.291520
  0
VERTEX
  8
0
  6
CONTINUOUS
 10
5.291440
 20
2.291520
  0
SEQEND
  8
0
  0
SOLID
  8
0
 62
    15
 10
5.378560
 20
2.291520
 11
6.020520
 21
2.667280
 12
5.378560
 22
2.179760
 13
6.020520
 23
2.555520
  0
POLYLINE
  8
0
  6
CONTINUOUS
 66
     1
 40
0.000000
 41
0.000000
  0
VERTEX
  8
0
  6
CONTINUOUS
 10
5.378560
 20
2.291520
  0
VERTEX
  8
0
  6
CONTINUOUS
 10
6.020520
 20
2.667280
  0
VERTEX
  8
0
  6
CONTINUOUS
 10
6.020520
 20
2.555520
  0
VERTEX
  8
0
  6
CONTINUOUS
 10
5.378560
 20
2.179760
  0
VERTEX
  8
0
  6
CONTINUOUS
 10
5.378560
 20
2.291520
  0
SEQEND
  8
0
  0
SOLID
  8
0
 62
    15
 10
5.378560
 20
2.179760
 11
6.020520
 21
2.555520
 12
5.407600
 22
2.169640
 13
6.049560
 23
2.545400
  0
POLYLINE
  8
0
  6
CONTINUOUS
 66
     1
 40
0.000000
 41
0.000000
  0
VERTEX
  8
0
  6
CONTINUOUS
 10
5.378560
 20
2.179760
  0
VERTEX
  8
0
  6
CONTINUOUS
 10
6.020520
 20
2.555520
  0
VERTEX
  8
0
  6
CONTINUOUS
 10
6.049560
 20
2.545400
  0
VERTEX
  8
0
  6
CONTINUOUS
 10
5.407600
 20
2.169640
  0
VERTEX
  8
0
  6
CONTINUOUS
 10
5.378560
 20
2.179760
  0
SEQEND
  8
0
  0
SOLID
  8
0
 62
     7
 10
5.407600
 20
2.169640
 11
6.049560
 21
2.545400
 12
5.434880
 22
2.148960
 13
6.076840
 23
2.524720
  0
POLYLINE
  8
0
  6
CONTINUOUS
 66
     1
 40
0.000000
 41
0.000000
  0
VERTEX
  8
0
  6
CONTINUOUS
 10
5.407600
 20
2.169640
  0
VERTEX
  8
0
  6
CONTINUOUS
 10
6.049560
 20
2.545400
  0
VERTEX
  8
0
  6
CONTINUOUS
 10
6.076840
 20
2.524720
  0
VERTEX
  8
0
  6
CONTINUOUS
 10
5.434880
 20
2.148960
  0
VERTEX
  8
0
  6
CONTINUOUS
 10
5.407600
 20
2.169640
  0
SEQEND
  8
0
  0
SOLID
  8
0
 62
     7
 10
5.434880
 20
2.148960
 11
6.076840
 21
2.524720
 12
5.459520
 22
2.117280
 13
6.101480
 23
2.493040
  0
POLYLINE
  8
0
  6
CONTINUOUS
 66
     1
 40
0.000000
 41
0.000000
  0
VERTEX
  8
0
  6
CONTINUOUS
 10
5.434880
 20
2.148960
  0
VERTEX
  8
0
  6
CONTINUOUS
 10
6.076840
 20
2.524720
  0
VERTEX
  8
0
  6
CONTINUOUS
 10
6.101480
 20
2.493040
  0
VERTEX
  8
0
  6
CONTINUOUS
 10
5.459520
 20
2.117280
  0
VERTEX
  8
0
  6
CONTINUOUS
 10
5.434880
 20
2.148960
  0
SEQEND
  8
0
  0
SOLID
  8
0
 62
     7
 10
5.459520
 20
2.117280
 11
6.101480
 21
2.493040
 12
5.481080
 22
2.075040
 13
6.123480
 23
2.450800
  0
POLYLINE
  8
0
  6
CONTINUOUS
 66
     1
 40
0.000000
 41
0.000000
  0
VERTEX
  8
0
  6
CONTINUOUS
 10
5.459520
 20
2.117280
  0
VERTEX
  8
0
  6
CONTINUOUS
 10
6.101480
 20
2.493040
  0
VERTEX
  8
0
  6
CONTINUOUS
 10
6.123480
 20
2.450800
  0
VERTEX
  8
0
  6
CONTINUOUS
 10
5.481080
 20
2.075040
  0
VERTEX
  8
0
  6
CONTINUOUS
 10
5.459520
 20
2.117280
  0
SEQEND
  8
0
  0
SOLID
  8
0
 62
     7
 10
5.481080
 20
2.075040
 11
6.123480
 21
2.450800
 12
5.499120
 22
2.021800
 13
6.141080
 23
2.397560
  0
POLYLINE
  8
0
  6
CONTINUOUS
 66
     1
 40
0.000000
 41
0.000000
  0
VERTEX
  8
0
  6
CONTINUOUS
 10
5.481080
 20
2.075040
  0
VERTEX
  8
0
  6
CONTINUOUS
 10
6.123480
 20
2.450800
  0
VERTEX
  8
0
  6
CONTINUOUS
 10
6.141080
 20
2.397560
  0
VERTEX
  8
0
  6
CONTINUOUS
 10
5.499120
 20
2.021800
  0
VERTEX
  8
0
  6
CONTINUOUS
 10
5.481080
 20
2.075040
  0
SEQEND
  8
0
  0
SOLID
  8
0
 62
    15
 10
5.499120
 20
2.021800
 11
6.141080
 21
2.397560
 12
5.512320
 22
1.957560
 13
6.154280
 23
2.333320
  0
POLYLINE
  8
0
  6
CONTINUOUS
 66
     1
 40
0.000000
 41
0.000000
  0
VERTEX
  8
0
  6
CONTINUOUS
 10
5.499120
 20
2.021800
  0
VERTEX
  8
0
  6
CONTINUOUS
 10
6.141080
 20
2.397560
  0
VERTEX
  8
0
  6
CONTINUOUS
 10
6.154280
 20
2.333320
  0
VERTEX
  8
0
  6
CONTINUOUS
 10
5.512320
 20
1.957560
  0
VERTEX
  8
0
  6
CONTINUOUS
 10
5.499120
 20
2.021800
  0
SEQEND
  8
0
  0
SOLID
  8
0
 62
    15
 10
5.512320
 20
1.957560
 11
6.154280
 21
2.333320
 12
5.519800
 22
1.882320
 13
6.161760
 23
2.258080
  0
POLYLINE
  8
0
  6
CONTINUOUS
 66
     1
 40
0.000000
 41
0.000000
  0
VERTEX
  8
0
  6
CONTINUOUS
 10
5.512320
 20
1.957560
  0
VERTEX
  8
0
  6
CONTINUOUS
 10
6.154280
 20
2.333320
  0
VERTEX
  8
0
  6
CONTINUOUS
 10
6.161760
 20
2.258080
  0
VERTEX
  8
0
  6
CONTINUOUS
 10
5.519800
 20
1.882320
  0
VERTEX
  8
0
  6
CONTINUOUS
 10
5.512320
 20
1.957560
  0
SEQEND
  8
0
  0
SOLID
  8
0
 62
    15
 10
5.291440
 20
2.397560
 11
5.933840
 21
2.773320
 12
5.291440
 22
2.291520
 13
5.933840
 23
2.667280
  0
POLYLINE
  8
0
  6
CONTINUOUS
 66
     1
 40
0.000000
 41
0.000000
  0
VERTEX
  8
0
  6
CONTINUOUS
 10
5.291440
 20
2.397560
  0
VERTEX
  8
0
  6
CONTINUOUS
 10
5.933840
 20
2.773320
  0
VERTEX
  8
0
  6
CONTINUOUS
 10
5.933840
 20
2.667280
  0
VERTEX
  8
0
  6
CONTINUOUS
 10
5.291440
 20
2.291520
  0
VERTEX
  8
0
  6
CONTINUOUS
 10
5.291440
 20
2.397560
  0
SEQEND
  8
0
  0
SOLID
  8
0
 62
    15
 10
5.521560
 20
1.796520
 11
6.163520
 21
2.172280
 12
5.577440
 22
1.796520
 13
6.219840
 23
2.172280
  0
POLYLINE
  8
0
  6
CONTINUOUS
 66
     1
 40
0.000000
 41
0.000000
  0
VERTEX
  8
0
  6
CONTINUOUS
 10
5.521560
 20
1.796520
  0
VERTEX
  8
0
  6
CONTINUOUS
 10
6.163520
 20
2.172280
  0
VERTEX
  8
0
  6
CONTINUOUS
 10
6.219840
 20
2.172280
  0
VERTEX
  8
0
  6
CONTINUOUS
 10
5.577440
 20
1.796520
  0
VERTEX
  8
0
  6
CONTINUOUS
 10
5.521560
 20
1.796520
  0
SEQEND
  8
0
  0
SOLID
  8
0
 62
    15
 10
4.947360
 20
0.876920
 11
5.589320
 21
1.252680
 12
4.946480
 22
0.876480
 13
5.588880
 23
1.252240
  0
POLYLINE
  8
0
  6
CONTINUOUS
 66
     1
 40
0.000000
 41
0.000000
  0
VERTEX
  8
0
  6
CONTINUOUS
 10
4.947360
 20
0.876920
  0
VERTEX
  8
0
  6
CONTINUOUS
 10
5.589320
 20
1.252680
  0
VERTEX
  8
0
  6
CONTINUOUS
 10
5.588880
 20
1.252240
  0
VERTEX
  8
0
  6
CONTINUOUS
 10
4.946480
 20
0.876480
  0
VERTEX
  8
0
  6
CONTINUOUS
 10
4.947360
 20
0.876920
  0
SEQEND
  8
0
  0
SOLID
  8
0
 62
    15
 10
5.324880
 20
1.468720
 11
5.966840
 21
1.844480
 12
5.324880
 22
0.875160
 13
5.966840
 23
1.250920
  0
POLYLINE
  8
0
  6
CONTINUOUS
 66
     1
 40
0.000000
 41
0.000000
  0
VERTEX
  8
0
  6
CONTINUOUS
 10
5.324880
 20
1.468720
  0
VERTEX
  8
0
  6
CONTINUOUS
 10
5.966840
 20
1.844480
  0
VERTEX
  8
0
  6
CONTINUOUS
 10
5.966840
 20
1.250920
  0
VERTEX
  8
0
  6
CONTINUOUS
 10
5.324880
 20
0.875160
  0
VERTEX
  8
0
  6
CONTINUOUS
 10
5.324880
 20
1.468720
  0
SEQEND
  8
0
  0
SOLID
  8
0
 62
    15
 10
5.577440
 20
1.796520
 11
6.219840
 21
2.172280
 12
5.577440
 22
1.468720
 13
6.219840
 23
1.844480
  0
POLYLINE
  8
0
  6
CONTINUOUS
 66
     1
 40
0.000000
 41
0.000000
  0
VERTEX
  8
0
  6
CONTINUOUS
 10
5.577440
 20
1.796520
  0
VERTEX
  8
0
  6
CONTINUOUS
 10
6.219840
 20
2.172280
  0
VERTEX
  8
0
  6
CONTINUOUS
 10
6.219840
 20
1.844480
  0
VERTEX
  8
0
  6
CONTINUOUS
 10
5.577440
 20
1.468720
  0
VERTEX
  8
0
  6
CONTINUOUS
 10
5.577440
 20
1.796520
  0
SEQEND
  8
0
  0
SOLID
  8
0
 62
    15
 10
4.693920
 20
1.797400
 11
5.335880
 21
2.173160
 12
4.749800
 22
1.797400
 13
5.391760
 23
2.173160
  0
POLYLINE
  8
0
  6
CONTINUOUS
 66
     1
 40
0.000000
 41
0.000000
  0
VERTEX
  8
0
  6
CONTINUOUS
 10
4.693920
 20
1.797400
  0
VERTEX
  8
0
  6
CONTINUOUS
 10
5.335880
 20
2.173160
  0
VERTEX
  8
0
  6
CONTINUOUS
 10
5.391760
 20
2.173160
  0
VERTEX
  8
0
  6
CONTINUOUS
 10
4.749800
 20
1.797400
  0
VERTEX
  8
0
  6
CONTINUOUS
 10
4.693920
 20
1.797400
  0
SEQEND
  8
0
  0
SOLID
  8
0
 62
    15
 10
4.863760
 20
2.170960
 11
5.505720
 21
2.546720
 12
4.892800
 22
2.181080
 13
5.534760
 23
2.556840
  0
POLYLINE
  8
0
  6
CONTINUOUS
 66
     1
 40
0.000000
 41
0.000000
  0
VERTEX
  8
0
  6
CONTINUOUS
 10
4.863760
 20
2.170960
  0
VERTEX
  8
0
  6
CONTINUOUS
 10
5.505720
 20
2.546720
  0
VERTEX
  8
0
  6
CONTINUOUS
 10
5.534760
 20
2.556840
  0
VERTEX
  8
0
  6
CONTINUOUS
 10
4.892800
 20
2.181080
  0
VERTEX
  8
0
  6
CONTINUOUS
 10
4.863760
 20
2.170960
  0
SEQEND
  8
0
  0
SOLID
  8
0
 62
    15
 10
4.892800
 20
2.292840
 11
5.534760
 21
2.668600
 12
4.979920
 22
2.292840
 13
5.621880
 23
2.668600
  0
POLYLINE
  8
0
  6
CONTINUOUS
 66
     1
 40
0.000000
 41
0.000000
  0
VERTEX
  8
0
  6
CONTINUOUS
 10
4.892800
 20
2.292840
  0
VERTEX
  8
0
  6
CONTINUOUS
 10
5.534760
 20
2.668600
  0
VERTEX
  8
0
  6
CONTINUOUS
 10
5.621880
 20
2.668600
  0
VERTEX
  8
0
  6
CONTINUOUS
 10
4.979920
 20
2.292840
  0
VERTEX
  8
0
  6
CONTINUOUS
 10
4.892800
 20
2.292840
  0
SEQEND
  8
0
  0
SOLID
  8
0
 62
    15
 10
4.980360
 20
2.400200
 11
5.622320
 21
2.775960
 12
5.291000
 22
2.400200
 13
5.933400
 23
2.775960
  0
POLYLINE
  8
0
  6
CONTINUOUS
 66
     1
 40
0.000000
 41
0.000000
  0
VERTEX
  8
0
  6
CONTINUOUS
 10
4.980360
 20
2.400200
  0
VERTEX
  8
0
  6
CONTINUOUS
 10
5.622320
 20
2.775960
  0
VERTEX
  8
0
  6
CONTINUOUS
 10
5.933400
 20
2.775960
  0
VERTEX
  8
0
  6
CONTINUOUS
 10
5.291000
 20
2.400200
  0
VERTEX
  8
0
  6
CONTINUOUS
 10
4.980360
 20
2.400200
  0
SEQEND
  8
0
  0
SOLID
  8
0
 62
    15
 10
5.291000
 20
2.400200
 11
5.933400
 21
2.775960
 12
5.291440
 22
2.397560
 13
5.933840
 23
2.773320
  0
POLYLINE
  8
0
  6
CONTINUOUS
 66
     1
 40
0.000000
 41
0.000000
  0
VERTEX
  8
0
  6
CONTINUOUS
 10
5.291000
 20
2.400200
  0
VERTEX
  8
0
  6
CONTINUOUS
 10
5.933400
 20
2.775960
  0
VERTEX
  8
0
  6
CONTINUOUS
 10
5.933840
 20
2.773320
  0
VERTEX
  8
0
  6
CONTINUOUS
 10
5.291440
 20
2.397560
  0
VERTEX
  8
0
  6
CONTINUOUS
 10
5.291000
 20
2.400200
  0
SEQEND
  8
0
  0
POLYLINE
  8
0
  6
CONTINUOUS
 66
     1
 40
0.000000
 41
0.000000
  0
VERTEX
  8
0
  6
CONTINUOUS
 10
5.291440
 20
2.397560
  0
VERTEX
  8
0
  6
CONTINUOUS
 10
5.291440
 20
2.291520
  0
VERTEX
  8
0
  6
CONTINUOUS
 10
5.378560
 20
2.291520
  0
VERTEX
  8
0
  6
CONTINUOUS
 10
5.378560
 20
2.179760
  0
VERTEX
  8
0
  6
CONTINUOUS
 10
5.407600
 20
2.169640
  0
VERTEX
  8
0
  6
CONTINUOUS
 10
5.434880
 20
2.148960
  0
VERTEX
  8
0
  6
CONTINUOUS
 10
5.459520
 20
2.117280
  0
VERTEX
  8
0
  6
CONTINUOUS
 10
5.481080
 20
2.075040
  0
VERTEX
  8
0
  6
CONTINUOUS
 10
5.499120
 20
2.021800
  0
VERTEX
  8
0
  6
CONTINUOUS
 10
5.512320
 20
1.957560
  0
VERTEX
  8
0
  6
CONTINUOUS
 10
5.519800
 20
1.882320
  0
VERTEX
  8
0
  6
CONTINUOUS
 10
5.521560
 20
1.796520
  0
VERTEX
  8
0
  6
CONTINUOUS
 10
5.577440
 20
1.796520
  0
VERTEX
  8
0
  6
CONTINUOUS
 10
5.577440
 20
1.468720
  0
VERTEX
  8
0
  6
CONTINUOUS
 10
5.324880
 20
1.468720
  0
VERTEX
  8
0
  6
CONTINUOUS
 10
5.324880
 20
0.875160
  0
VERTEX
  8
0
  6
CONTINUOUS
 10
5.324880
 20
0.876920
  0
VERTEX
  8
0
  6
CONTINUOUS
 10
4.947360
 20
0.876920
  0
VERTEX
  8
0
  6
CONTINUOUS
 10
4.946480
 20
0.876480
  0
VERTEX
  8
0
  6
CONTINUOUS
 10
4.946480
 20
1.470040
  0
VERTEX
  8
0
  6
CONTINUOUS
 10
4.693920
 20
1.470040
  0
VERTEX
  8
0
  6
CONTINUOUS
 10
4.693920
 20
1.797400
  0
VERTEX
  8
0
  6
CONTINUOUS
 10
4.749800
 20
1.797400
  0
VERTEX
  8
0
  6
CONTINUOUS
 10
4.751560
 20
1.883640
  0
VERTEX
  8
0
  6
CONTINUOUS
 10
4.759480
 20
1.958880
  0
VERTEX
  8
0
  6
CONTINUOUS
 10
4.772240
 20
2.023120
  0
VERTEX
  8
0
  6
CONTINUOUS
 10
4.790280
 20
2.076360
  0
VERTEX
  8
0
  6
CONTINUOUS
 10
4.811840
 20
2.118600
  0
VERTEX
  8
0
  6
CONTINUOUS
 10
4.836480
 20
2.150280
  0
VERTEX
  8
0
  6
CONTINUOUS
 10
4.863760
 20
2.170960
  0
VERTEX
  8
0
  6
CONTINUOUS
 10
4.892800
 20
2.181080
  0
VERTEX
  8
0
  6
CONTINUOUS
 10
4.892800
 20
2.292840
  0
VERTEX
  8
0
  6
CONTINUOUS
 10
4.979920
 20
2.292840
  0
VERTEX
  8
0
  6
CONTINUOUS
 10
4.979920
 20
2.398880
  0
VERTEX
  8
0
  6
CONTINUOUS
 10
4.980360
 20
2.400200
  0
VERTEX
  8
0
  6
CONTINUOUS
 10
5.291000
 20
2.400200
  0
VERTEX
  8
0
  6
CONTINUOUS
 10
5.291440
 20
2.397560
  0
SEQEND
  8
0
  0
SOLID
  8
0
 62
    15
 10
6.246240
 20
2.398440
 11
6.564800
 21
2.571360
 12
7.494080
 22
2.398440
 13
7.812640
 23
2.571360
  0
POLYLINE
  8
0
  6
CONTINUOUS
 66
     1
 40
0.000000
 41
0.000000
  0
VERTEX
  8
0
  6
CONTINUOUS
 10
6.246240
 20
2.398440
  0
VERTEX
  8
0
  6
CONTINUOUS
 10
6.564800
 20
2.571360
  0
VERTEX
  8
0
  6
CONTINUOUS
 10
7.812640
 20
2.571360
  0
VERTEX
  8
0
  6
CONTINUOUS
 10
7.494080
 20
2.398440
  0
VERTEX
  8
0
  6
CONTINUOUS
 10
6.246240
 20
2.398440
  0
SEQEND
  8
0
  0
SOLID
  8
0
 62
    15
 10
7.494080
 20
2.398440
 11
7.812640
 21
2.571360
 12
7.494080
 22
0.880880
 13
7.812640
 23
1.053800
  0
POLYLINE
  8
0
  6
CONTINUOUS
 66
     1
 40
0.000000
 41
0.000000
  0
VERTEX
  8
0
  6
CONTINUOUS
 10
7.494080
 20
2.398440
  0
VERTEX
  8
0
  6
CONTINUOUS
 10
7.812640
 20
2.571360
  0
VERTEX
  8
0
  6
CONTINUOUS
 10
7.812640
 20
1.053800
  0
VERTEX
  8
0
  6
CONTINUOUS
 10
7.494080
 20
0.880880
  0
VERTEX
  8
0
  6
CONTINUOUS
 10
7.494080
 20
2.398440
  0
SEQEND
  8
0
  0
SOLID
  8
0
 62
    15
 10
7.494080
 20
0.880880
 11
7.812640
 21
1.053800
 12
7.494960
 22
0.876040
 13
7.813520
 23
1.048960
  0
POLYLINE
  8
0
  6
CONTINUOUS
 66
     1
 40
0.000000
 41
0.000000
  0
VERTEX
  8
0
  6
CONTINUOUS
 10
7.494080
 20
0.880880
  0
VERTEX
  8
0
  6
CONTINUOUS
 10
7.812640
 20
1.053800
  0
VERTEX
  8
0
  6
CONTINUOUS
 10
7.813520
 20
1.048960
  0
VERTEX
  8
0
  6
CONTINUOUS
 10
7.494960
 20
0.876040
  0
VERTEX
  8
0
  6
CONTINUOUS
 10
7.494080
 20
0.880880
  0
SEQEND
  8
0
  0
SOLID
  8
0
 62
    15
 10
6.279680
 20
1.470040
 11
6.598240
 21
1.642960
 12
6.532680
 22
1.470040
 13
6.850800
 23
1.642960
  0
POLYLINE
  8
0
  6
CONTINUOUS
 66
     1
 40
0.000000
 41
0.000000
  0
VERTEX
  8
0
  6
CONTINUOUS
 10
6.279680
 20
1.470040
  0
VERTEX
  8
0
  6
CONTINUOUS
 10
6.598240
 20
1.642960
  0
VERTEX
  8
0
  6
CONTINUOUS
 10
6.850800
 20
1.642960
  0
VERTEX
  8
0
  6
CONTINUOUS
 10
6.532680
 20
1.470040
  0
VERTEX
  8
0
  6
CONTINUOUS
 10
6.279680
 20
1.470040
  0
SEQEND
  8
0
  0
POLYLINE
  8
0
  6
CONTINUOUS
 66
     1
 40
0.000000
 41
0.000000
  0
VERTEX
  8
0
  6
CONTINUOUS
 10
7.494960
 20
0.876040
  0
VERTEX
  8
0
  6
CONTINUOUS
 10
6.279680
 20
0.876040
  0
VERTEX
  8
0
  6
CONTINUOUS
 10
6.279680
 20
1.470040
  0
VERTEX
  8
0
  6
CONTINUOUS
 10
6.532680
 20
1.470040
  0
VERTEX
  8
0
  6
CONTINUOUS
 10
6.532680
 20
1.797400
  0
VERTEX
  8
0
  6
CONTINUOUS
 10
6.476360
 20
1.797400
  0
VERTEX
  8
0
  6
CONTINUOUS
 10
6.474600
 20
1.883640
  0
VERTEX
  8
0
  6
CONTINUOUS
 10
6.467120
 20
1.958880
  0
VERTEX
  8
0
  6
CONTINUOUS
 10
6.453920
 20
2.023120
  0
VERTEX
  8
0
  6
CONTINUOUS
 10
6.436320
 20
2.076360
  0
VERTEX
  8
0
  6
CONTINUOUS
 10
6.414320
 20
2.118600
  0
VERTEX
  8
0
  6
CONTINUOUS
 10
6.389680
 20
2.150280
  0
VERTEX
  8
0
  6
CONTINUOUS
 10
6.362400
 20
2.170960
  0
VERTEX
  8
0
  6
CONTINUOUS
 10
6.333360
 20
2.181080
  0
VERTEX
  8
0
  6
CONTINUOUS
 10
6.333360
 20
2.292840
  0
VERTEX
  8
0
  6
CONTINUOUS
 10
6.246240
 20
2.292840
  0
VERTEX
  8
0
  6
CONTINUOUS
 10
6.246240
 20
2.398440
  0
VERTEX
  8
0
  6
CONTINUOUS
 10
7.494080
 20
2.398440
  0
VERTEX
  8
0
  6
CONTINUOUS
 10
7.494080
 20
0.880880
  0
VERTEX
  8
0
  6
CONTINUOUS
 10
7.494960
 20
0.876040
  0
SEQEND
  8
0
  0
TEXT
  8
0
 10
5.661920
 20
0.622600
 40
0.138098
  1
BA  397A & B 1-1/2"
 41
1.000000
  7
SN0
 71
     0
 72
     5
 11
7.157410
 21
0.622600
  0
ENDSEC
  0
EOF
