  0
SECTION
  2
HEADER
  9
$ACADVER
  1
AC1006
  9
$EXTMIN
 10
6.150320
 20
0.373560
  9
$EXTMAX
 10
8.088080
 20
2.185040
  9
$LTSCALE
 40
0.044000
  9
$PDMODE
 70
    35
  9
$PDSIZE
 40
0.035200
  0
ENDSEC
  0
SECTION
  2
TABLES
  0
TABLE
  2
LTYPE
 70
     9
  0
LTYPE
  2
CONTINUOUS
 70
    64
  3
Solid line
 72
    65
 73
     0
 40
0.000000
  0
LTYPE
  2
DASHED
 70
    64
  3
__ __ __ __ __ __ __ __ __ __ __ __ __ __ __
 72
    65
 73
     2
 40
0.000330
 49
0.000220
 49
-0.000110
  0
LTYPE
  2
HIDDEN
 70
    64
  3
 _ _ _ _ _ _ _ _ _ _ _ _ _ _ _ _ _ _ _ _ _ _
 72
    65
 73
     2
 40
0.000165
 49
0.000110
 49
-0.000055
  0
LTYPE
  2
CENTER
 70
    64
  3
____ _ ____ _ ____ _ ____ _ ____ _ ____ _ ____
 72
    65
 73
     4
 40
0.000880
 49
0.000550
 49
-0.000110
 49
0.000110
 49
-0.000110
  0
LTYPE
  2
PHANTOM
 70
    64
  3
_____ _ _ _____ _ _ _____ _ _ _____ _ _ ____
 72
    65
 73
     6
 40
0.001100
 49
0.000550
 49
-0.000110
 49
0.000110
 49
-0.000110
 49
0.000110
 49
-0.000110
  0
LTYPE
  2
DOT
 70
    64
  3
...............................................
 72
    65
 73
     2
 40
0.000110
 49
0.000000
 49
-0.000110
  0
LTYPE
  2
DASHDOT
 70
    64
  3
__ . __ . __ . __ . __ . __ . __ . __ . __ . __
 72
    65
 73
     4
 40
0.000440
 49
0.000220
 49
-0.000110
 49
0.000000
 49
-0.000110
  0
LTYPE
  2
BORDER
 70
    64
  3
__ __ . __ __ . __ __ . __ __ . __ __ . __ __
 72
    65
 73
     6
 40
0.000770
 49
0.000220
 49
-0.000110
 49
0.000220
 49
-0.000110
 49
0.000000
 49
-0.000110
  0
LTYPE
  2
DIVIDE
 70
    64
  3
__ . . __ . . __ . . __ . . __ . . __ . . __
 72
    65
 73
     6
 40
0.000550
 49
0.000220
 49
-0.000110
 49
0.000000
 49
-0.000110
 49
0.000000
 49
-0.000110
  0
LTYPE
  2
DOTDOT
 70
    64
  3
 . .  . .  . .  . .  . .  . . 
 72
    65
 73
     5
 40
0.000242
 49
-0.000110
 49
0.000000
 49
-0.000110
 49
0.000000
 49
-0.000110
  0
ENDTAB
  0
TABLE
  2
STYLE
 70
     2
  0
STYLE
 70
     0
  2
SN0
 40
0.000000
 41
0.000440
 50
0.000000
 71
     0
 42
0.000000
  3
ROMAND
  0
STYLE
 70
    68
  2
SV0
 40
0.000000
 41
0.000440
 50
0.000000
 71
     0
 42
0.000000
  3
ROMAND
  0
ENDTAB
  0
TABLE
  2
LAYER
 70
     3
  0
LAYER
  2
FOREGROUND
 70
    64
 62
     7
  6
CONTINUOUS
  0
LAYER
  2
BACKGROUND
 70
    65
 62
    -7
  6
CONTINUOUS
  0
LAYER
  2
0
 70
    64
 62
     7
  6
CONTINUOUS
  0
ENDTAB
  0
ENDSEC
  0
SECTION
  2
ENTITIES
  0
POLYLINE
  8
FOREGROUND
  6
CONTINUOUS
 66
     1
 40
0.000000
 41
0.000000
  0
VERTEX
  8
FOREGROUND
  6
CONTINUOUS
 10
0.000000
 20
2.558600
  0
VERTEX
  8
FOREGROUND
  6
CONTINUOUS
 10
8.499920
 20
2.558600
  0
VERTEX
  8
FOREGROUND
  6
CONTINUOUS
 10
8.499920
 20
-8.441400
  0
VERTEX
  8
FOREGROUND
  6
CONTINUOUS
 10
0.000000
 20
-8.441400
  0
VERTEX
  8
FOREGROUND
  6
CONTINUOUS
 10
0.000000
 20
2.558600
  0
SEQEND
  8
0
  0
POLYLINE
  8
0
  6
CONTINUOUS
 66
     1
 40
0.014080
 41
0.014080
  0
VERTEX
  8
0
  6
CONTINUOUS
 10
6.314000
 20
2.108480
  0
VERTEX
  8
0
  6
CONTINUOUS
 10
6.314000
 20
1.967240
  0
VERTEX
  8
0
  6
CONTINUOUS
 10
6.342160
 20
1.965040
  0
VERTEX
  8
0
  6
CONTINUOUS
 10
6.366800
 20
1.959320
  0
VERTEX
  8
0
  6
CONTINUOUS
 10
6.387040
 20
1.950520
  0
VERTEX
  8
0
  6
CONTINUOUS
 10
6.410800
 20
1.932040
  0
VERTEX
  8
0
  6
CONTINUOUS
 10
6.421800
 20
1.917520
  0
VERTEX
  8
0
  6
CONTINUOUS
 10
6.429280
 20
1.901240
  0
VERTEX
  8
0
  6
CONTINUOUS
 10
6.433680
 20
1.884520
  0
VERTEX
  8
0
  6
CONTINUOUS
 10
6.434120
 20
1.867360
  0
VERTEX
  8
0
  6
CONTINUOUS
 10
6.429280
 20
1.842280
  0
VERTEX
  8
0
  6
CONTINUOUS
 10
6.416960
 20
1.819840
  0
VERTEX
  8
0
  6
CONTINUOUS
 10
6.397600
 20
1.801360
  0
VERTEX
  8
0
  6
CONTINUOUS
 10
6.381320
 20
1.792560
  0
VERTEX
  8
0
  6
CONTINUOUS
 10
6.362400
 20
1.786840
  0
VERTEX
  8
0
  6
CONTINUOUS
 10
6.340400
 20
1.784640
  0
VERTEX
  8
0
  6
CONTINUOUS
 10
6.340400
 20
1.726120
  0
VERTEX
  8
0
  6
CONTINUOUS
 10
6.417840
 20
1.672440
  0
VERTEX
  8
0
  6
CONTINUOUS
 10
6.446880
 20
1.648680
  0
VERTEX
  8
0
  6
CONTINUOUS
 10
6.480760
 20
1.612160
  0
VERTEX
  8
0
  6
CONTINUOUS
 10
6.538840
 20
1.536920
  0
VERTEX
  8
0
  6
CONTINUOUS
 10
6.565240
 20
1.495560
  0
VERTEX
  8
0
  6
CONTINUOUS
 10
6.577120
 20
1.473560
  0
VERTEX
  8
0
  6
CONTINUOUS
 10
6.595600
 20
1.428680
  0
VERTEX
  8
0
  6
CONTINUOUS
 10
6.604400
 20
1.395240
  0
VERTEX
  8
0
  6
CONTINUOUS
 10
6.607040
 20
1.373680
  0
VERTEX
  8
0
  6
CONTINUOUS
 10
6.606160
 20
1.353000
  0
VERTEX
  8
0
  6
CONTINUOUS
 10
6.602200
 20
1.333200
  0
VERTEX
  8
0
  6
CONTINUOUS
 10
6.594720
 20
1.315160
  0
VERTEX
  8
0
  6
CONTINUOUS
 10
6.582840
 20
1.298880
  0
VERTEX
  8
0
  6
CONTINUOUS
 10
6.567000
 20
1.284800
  0
VERTEX
  8
0
  6
CONTINUOUS
 10
6.545880
 20
1.272920
  0
VERTEX
  8
0
  6
CONTINUOUS
 10
6.519480
 20
1.263680
  0
VERTEX
  8
0
  6
CONTINUOUS
 10
6.504520
 20
1.260160
  0
VERTEX
  8
0
  6
CONTINUOUS
 10
6.504520
 20
1.173040
  0
VERTEX
  8
0
  6
CONTINUOUS
 10
6.158240
 20
1.173040
  0
VERTEX
  8
0
  6
CONTINUOUS
 10
6.158240
 20
2.109360
  0
VERTEX
  8
0
  6
CONTINUOUS
 10
6.313560
 20
2.109360
  0
SEQEND
  8
0
  0
SOLID
  8
0
 62
    15
 10
7.193560
 20
1.369720
 11
7.830240
 21
1.738880
 12
7.211600
 22
1.353880
 13
7.848720
 23
1.723040
  0
POLYLINE
  8
0
  6
CONTINUOUS
 66
     1
 40
0.000000
 41
0.000000
  0
VERTEX
  8
0
  6
CONTINUOUS
 10
7.193560
 20
1.369720
  0
VERTEX
  8
0
  6
CONTINUOUS
 10
7.830240
 20
1.738880
  0
VERTEX
  8
0
  6
CONTINUOUS
 10
7.848720
 20
1.723040
  0
VERTEX
  8
0
  6
CONTINUOUS
 10
7.211600
 20
1.353880
  0
VERTEX
  8
0
  6
CONTINUOUS
 10
7.193560
 20
1.369720
  0
SEQEND
  8
0
  0
SOLID
  8
0
 62
    15
 10
7.079160
 20
1.672880
 11
7.716280
 21
2.042040
 12
7.107320
 22
1.670680
 13
7.744440
 23
2.039840
  0
POLYLINE
  8
0
  6
CONTINUOUS
 66
     1
 40
0.000000
 41
0.000000
  0
VERTEX
  8
0
  6
CONTINUOUS
 10
7.079160
 20
1.672880
  0
VERTEX
  8
0
  6
CONTINUOUS
 10
7.716280
 20
2.042040
  0
VERTEX
  8
0
  6
CONTINUOUS
 10
7.744440
 20
2.039840
  0
VERTEX
  8
0
  6
CONTINUOUS
 10
7.107320
 20
1.670680
  0
VERTEX
  8
0
  6
CONTINUOUS
 10
7.079160
 20
1.672880
  0
SEQEND
  8
0
  0
SOLID
  8
0
 62
    15
 10
7.107320
 20
1.670680
 11
7.744440
 21
2.039840
 12
7.131960
 22
1.664960
 13
7.768640
 23
2.034120
  0
POLYLINE
  8
0
  6
CONTINUOUS
 66
     1
 40
0.000000
 41
0.000000
  0
VERTEX
  8
0
  6
CONTINUOUS
 10
7.107320
 20
1.670680
  0
VERTEX
  8
0
  6
CONTINUOUS
 10
7.744440
 20
2.039840
  0
VERTEX
  8
0
  6
CONTINUOUS
 10
7.768640
 20
2.034120
  0
VERTEX
  8
0
  6
CONTINUOUS
 10
7.131960
 20
1.664960
  0
VERTEX
  8
0
  6
CONTINUOUS
 10
7.107320
 20
1.670680
  0
SEQEND
  8
0
  0
SOLID
  8
0
 62
    15
 10
7.131960
 20
1.664960
 11
7.768640
 21
2.034120
 12
7.152200
 22
1.655720
 13
7.789320
 23
2.025320
  0
POLYLINE
  8
0
  6
CONTINUOUS
 66
     1
 40
0.000000
 41
0.000000
  0
VERTEX
  8
0
  6
CONTINUOUS
 10
7.131960
 20
1.664960
  0
VERTEX
  8
0
  6
CONTINUOUS
 10
7.768640
 20
2.034120
  0
VERTEX
  8
0
  6
CONTINUOUS
 10
7.789320
 20
2.025320
  0
VERTEX
  8
0
  6
CONTINUOUS
 10
7.152200
 20
1.655720
  0
VERTEX
  8
0
  6
CONTINUOUS
 10
7.131960
 20
1.664960
  0
SEQEND
  8
0
  0
SOLID
  8
0
 62
    15
 10
7.152200
 20
1.655720
 11
7.789320
 21
2.025320
 12
7.168920
 22
1.644280
 13
7.806040
 23
2.013440
  0
POLYLINE
  8
0
  6
CONTINUOUS
 66
     1
 40
0.000000
 41
0.000000
  0
VERTEX
  8
0
  6
CONTINUOUS
 10
7.152200
 20
1.655720
  0
VERTEX
  8
0
  6
CONTINUOUS
 10
7.789320
 20
2.025320
  0
VERTEX
  8
0
  6
CONTINUOUS
 10
7.806040
 20
2.013440
  0
VERTEX
  8
0
  6
CONTINUOUS
 10
7.168920
 20
1.644280
  0
VERTEX
  8
0
  6
CONTINUOUS
 10
7.152200
 20
1.655720
  0
SEQEND
  8
0
  0
SOLID
  8
0
 62
    15
 10
7.168920
 20
1.644280
 11
7.806040
 21
2.013440
 12
7.181680
 22
1.630200
 13
7.818800
 23
1.999800
  0
POLYLINE
  8
0
  6
CONTINUOUS
 66
     1
 40
0.000000
 41
0.000000
  0
VERTEX
  8
0
  6
CONTINUOUS
 10
7.168920
 20
1.644280
  0
VERTEX
  8
0
  6
CONTINUOUS
 10
7.806040
 20
2.013440
  0
VERTEX
  8
0
  6
CONTINUOUS
 10
7.818800
 20
1.999800
  0
VERTEX
  8
0
  6
CONTINUOUS
 10
7.181680
 20
1.630200
  0
VERTEX
  8
0
  6
CONTINUOUS
 10
7.168920
 20
1.644280
  0
SEQEND
  8
0
  0
SOLID
  8
0
 62
    15
 10
7.181680
 20
1.630200
 11
7.818800
 21
1.999800
 12
7.191360
 22
1.614800
 13
7.828040
 23
1.984400
  0
POLYLINE
  8
0
  6
CONTINUOUS
 66
     1
 40
0.000000
 41
0.000000
  0
VERTEX
  8
0
  6
CONTINUOUS
 10
7.181680
 20
1.630200
  0
VERTEX
  8
0
  6
CONTINUOUS
 10
7.818800
 20
1.999800
  0
VERTEX
  8
0
  6
CONTINUOUS
 10
7.828040
 20
1.984400
  0
VERTEX
  8
0
  6
CONTINUOUS
 10
7.191360
 20
1.614800
  0
VERTEX
  8
0
  6
CONTINUOUS
 10
7.181680
 20
1.630200
  0
SEQEND
  8
0
  0
SOLID
  8
0
 62
    15
 10
7.191360
 20
1.614800
 11
7.828040
 21
1.984400
 12
7.197080
 22
1.598520
 13
7.834200
 23
1.967680
  0
POLYLINE
  8
0
  6
CONTINUOUS
 66
     1
 40
0.000000
 41
0.000000
  0
VERTEX
  8
0
  6
CONTINUOUS
 10
7.191360
 20
1.614800
  0
VERTEX
  8
0
  6
CONTINUOUS
 10
7.828040
 20
1.984400
  0
VERTEX
  8
0
  6
CONTINUOUS
 10
7.834200
 20
1.967680
  0
VERTEX
  8
0
  6
CONTINUOUS
 10
7.197080
 20
1.598520
  0
VERTEX
  8
0
  6
CONTINUOUS
 10
7.191360
 20
1.614800
  0
SEQEND
  8
0
  0
SOLID
  8
0
 62
    15
 10
7.197080
 20
1.598520
 11
7.834200
 21
1.967680
 12
7.199280
 22
1.581360
 13
7.836400
 23
1.950520
  0
POLYLINE
  8
0
  6
CONTINUOUS
 66
     1
 40
0.000000
 41
0.000000
  0
VERTEX
  8
0
  6
CONTINUOUS
 10
7.197080
 20
1.598520
  0
VERTEX
  8
0
  6
CONTINUOUS
 10
7.834200
 20
1.967680
  0
VERTEX
  8
0
  6
CONTINUOUS
 10
7.836400
 20
1.950520
  0
VERTEX
  8
0
  6
CONTINUOUS
 10
7.199280
 20
1.581360
  0
VERTEX
  8
0
  6
CONTINUOUS
 10
7.197080
 20
1.598520
  0
SEQEND
  8
0
  0
SOLID
  8
0
 62
    15
 10
7.199280
 20
1.581360
 11
7.836400
 21
1.950520
 12
7.198400
 22
1.564640
 13
7.835520
 23
1.933800
  0
POLYLINE
  8
0
  6
CONTINUOUS
 66
     1
 40
0.000000
 41
0.000000
  0
VERTEX
  8
0
  6
CONTINUOUS
 10
7.199280
 20
1.581360
  0
VERTEX
  8
0
  6
CONTINUOUS
 10
7.836400
 20
1.950520
  0
VERTEX
  8
0
  6
CONTINUOUS
 10
7.835520
 20
1.933800
  0
VERTEX
  8
0
  6
CONTINUOUS
 10
7.198400
 20
1.564640
  0
VERTEX
  8
0
  6
CONTINUOUS
 10
7.199280
 20
1.581360
  0
SEQEND
  8
0
  0
SOLID
  8
0
 62
    15
 10
7.198400
 20
1.564640
 11
7.835520
 21
1.933800
 12
7.194000
 22
1.547920
 13
7.831120
 23
1.917080
  0
POLYLINE
  8
0
  6
CONTINUOUS
 66
     1
 40
0.000000
 41
0.000000
  0
VERTEX
  8
0
  6
CONTINUOUS
 10
7.198400
 20
1.564640
  0
VERTEX
  8
0
  6
CONTINUOUS
 10
7.835520
 20
1.933800
  0
VERTEX
  8
0
  6
CONTINUOUS
 10
7.831120
 20
1.917080
  0
VERTEX
  8
0
  6
CONTINUOUS
 10
7.194000
 20
1.547920
  0
VERTEX
  8
0
  6
CONTINUOUS
 10
7.198400
 20
1.564640
  0
SEQEND
  8
0
  0
SOLID
  8
0
 62
    15
 10
7.105560
 20
1.490280
 11
7.742680
 21
1.859440
 12
7.105560
 22
1.431320
 13
7.742680
 23
1.800480
  0
POLYLINE
  8
0
  6
CONTINUOUS
 66
     1
 40
0.000000
 41
0.000000
  0
VERTEX
  8
0
  6
CONTINUOUS
 10
7.105560
 20
1.490280
  0
VERTEX
  8
0
  6
CONTINUOUS
 10
7.742680
 20
1.859440
  0
VERTEX
  8
0
  6
CONTINUOUS
 10
7.742680
 20
1.800480
  0
VERTEX
  8
0
  6
CONTINUOUS
 10
7.105560
 20
1.431320
  0
VERTEX
  8
0
  6
CONTINUOUS
 10
7.105560
 20
1.490280
  0
SEQEND
  8
0
  0
SOLID
  8
0
 62
    15
 10
7.186960
 20
1.532520
 11
7.823640
 21
1.901680
 12
7.176400
 22
1.518880
 13
7.813520
 23
1.888040
  0
POLYLINE
  8
0
  6
CONTINUOUS
 66
     1
 40
0.000000
 41
0.000000
  0
VERTEX
  8
0
  6
CONTINUOUS
 10
7.186960
 20
1.532520
  0
VERTEX
  8
0
  6
CONTINUOUS
 10
7.823640
 20
1.901680
  0
VERTEX
  8
0
  6
CONTINUOUS
 10
7.813520
 20
1.888040
  0
VERTEX
  8
0
  6
CONTINUOUS
 10
7.176400
 20
1.518880
  0
VERTEX
  8
0
  6
CONTINUOUS
 10
7.186960
 20
1.532520
  0
SEQEND
  8
0
  0
SOLID
  8
0
 62
    15
 10
7.176400
 20
1.518880
 11
7.813520
 21
1.888040
 12
7.162760
 22
1.507000
 13
7.799880
 23
1.876160
  0
POLYLINE
  8
0
  6
CONTINUOUS
 66
     1
 40
0.000000
 41
0.000000
  0
VERTEX
  8
0
  6
CONTINUOUS
 10
7.176400
 20
1.518880
  0
VERTEX
  8
0
  6
CONTINUOUS
 10
7.813520
 20
1.888040
  0
VERTEX
  8
0
  6
CONTINUOUS
 10
7.799880
 20
1.876160
  0
VERTEX
  8
0
  6
CONTINUOUS
 10
7.162760
 20
1.507000
  0
VERTEX
  8
0
  6
CONTINUOUS
 10
7.176400
 20
1.518880
  0
SEQEND
  8
0
  0
SOLID
  8
0
 62
    15
 10
7.194000
 20
1.547920
 11
7.831120
 21
1.917080
 12
7.186960
 22
1.532520
 13
7.823640
 23
1.901680
  0
POLYLINE
  8
0
  6
CONTINUOUS
 66
     1
 40
0.000000
 41
0.000000
  0
VERTEX
  8
0
  6
CONTINUOUS
 10
7.194000
 20
1.547920
  0
VERTEX
  8
0
  6
CONTINUOUS
 10
7.831120
 20
1.917080
  0
VERTEX
  8
0
  6
CONTINUOUS
 10
7.823640
 20
1.901680
  0
VERTEX
  8
0
  6
CONTINUOUS
 10
7.186960
 20
1.532520
  0
VERTEX
  8
0
  6
CONTINUOUS
 10
7.194000
 20
1.547920
  0
SEQEND
  8
0
  0
SOLID
  8
0
 62
    15
 10
7.105560
 20
1.431320
 11
7.742680
 21
1.800480
 12
7.142520
 22
1.406240
 13
7.779640
 23
1.775400
  0
POLYLINE
  8
0
  6
CONTINUOUS
 66
     1
 40
0.000000
 41
0.000000
  0
VERTEX
  8
0
  6
CONTINUOUS
 10
7.105560
 20
1.431320
  0
VERTEX
  8
0
  6
CONTINUOUS
 10
7.742680
 20
1.800480
  0
VERTEX
  8
0
  6
CONTINUOUS
 10
7.779640
 20
1.775400
  0
VERTEX
  8
0
  6
CONTINUOUS
 10
7.142520
 20
1.406240
  0
VERTEX
  8
0
  6
CONTINUOUS
 10
7.105560
 20
1.431320
  0
SEQEND
  8
0
  0
SOLID
  8
0
 62
    15
 10
7.142520
 20
1.406240
 11
7.779640
 21
1.775400
 12
7.157480
 22
1.395680
 13
7.794600
 23
1.765280
  0
POLYLINE
  8
0
  6
CONTINUOUS
 66
     1
 40
0.000000
 41
0.000000
  0
VERTEX
  8
0
  6
CONTINUOUS
 10
7.142520
 20
1.406240
  0
VERTEX
  8
0
  6
CONTINUOUS
 10
7.779640
 20
1.775400
  0
VERTEX
  8
0
  6
CONTINUOUS
 10
7.794600
 20
1.765280
  0
VERTEX
  8
0
  6
CONTINUOUS
 10
7.157480
 20
1.395680
  0
VERTEX
  8
0
  6
CONTINUOUS
 10
7.142520
 20
1.406240
  0
SEQEND
  8
0
  0
SOLID
  8
0
 62
    15
 10
7.157480
 20
1.395680
 11
7.794600
 21
1.765280
 12
7.171120
 22
1.386440
 13
7.808240
 23
1.755600
  0
POLYLINE
  8
0
  6
CONTINUOUS
 66
     1
 40
0.000000
 41
0.000000
  0
VERTEX
  8
0
  6
CONTINUOUS
 10
7.157480
 20
1.395680
  0
VERTEX
  8
0
  6
CONTINUOUS
 10
7.794600
 20
1.765280
  0
VERTEX
  8
0
  6
CONTINUOUS
 10
7.808240
 20
1.755600
  0
VERTEX
  8
0
  6
CONTINUOUS
 10
7.171120
 20
1.386440
  0
VERTEX
  8
0
  6
CONTINUOUS
 10
7.157480
 20
1.395680
  0
SEQEND
  8
0
  0
SOLID
  8
0
 62
    15
 10
7.171120
 20
1.386440
 11
7.808240
 21
1.755600
 12
7.193560
 22
1.369720
 13
7.830240
 23
1.738880
  0
POLYLINE
  8
0
  6
CONTINUOUS
 66
     1
 40
0.000000
 41
0.000000
  0
VERTEX
  8
0
  6
CONTINUOUS
 10
7.171120
 20
1.386440
  0
VERTEX
  8
0
  6
CONTINUOUS
 10
7.808240
 20
1.755600
  0
VERTEX
  8
0
  6
CONTINUOUS
 10
7.830240
 20
1.738880
  0
VERTEX
  8
0
  6
CONTINUOUS
 10
7.193560
 20
1.369720
  0
VERTEX
  8
0
  6
CONTINUOUS
 10
7.171120
 20
1.386440
  0
SEQEND
  8
0
  0
SOLID
  8
0
 62
    15
 10
7.079160
 20
1.814120
 11
7.716280
 21
2.183280
 12
7.079160
 22
1.672880
 13
7.716280
 23
2.042040
  0
POLYLINE
  8
0
  6
CONTINUOUS
 66
     1
 40
0.000000
 41
0.000000
  0
VERTEX
  8
0
  6
CONTINUOUS
 10
7.079160
 20
1.814120
  0
VERTEX
  8
0
  6
CONTINUOUS
 10
7.716280
 20
2.183280
  0
VERTEX
  8
0
  6
CONTINUOUS
 10
7.716280
 20
2.042040
  0
VERTEX
  8
0
  6
CONTINUOUS
 10
7.079160
 20
1.672880
  0
VERTEX
  8
0
  6
CONTINUOUS
 10
7.079160
 20
1.814120
  0
SEQEND
  8
0
  0
SOLID
  8
0
 62
    15
 10
7.211600
 20
1.353880
 11
7.848720
 21
1.723040
 12
7.228320
 22
1.337160
 13
7.865440
 23
1.706760
  0
POLYLINE
  8
0
  6
CONTINUOUS
 66
     1
 40
0.000000
 41
0.000000
  0
VERTEX
  8
0
  6
CONTINUOUS
 10
7.211600
 20
1.353880
  0
VERTEX
  8
0
  6
CONTINUOUS
 10
7.848720
 20
1.723040
  0
VERTEX
  8
0
  6
CONTINUOUS
 10
7.865440
 20
1.706760
  0
VERTEX
  8
0
  6
CONTINUOUS
 10
7.228320
 20
1.337160
  0
VERTEX
  8
0
  6
CONTINUOUS
 10
7.211600
 20
1.353880
  0
SEQEND
  8
0
  0
SOLID
  8
0
 62
    15
 10
7.228320
 20
1.337160
 11
7.865440
 21
1.706760
 12
7.245480
 22
1.317800
 13
7.882600
 23
1.686960
  0
POLYLINE
  8
0
  6
CONTINUOUS
 66
     1
 40
0.000000
 41
0.000000
  0
VERTEX
  8
0
  6
CONTINUOUS
 10
7.228320
 20
1.337160
  0
VERTEX
  8
0
  6
CONTINUOUS
 10
7.865440
 20
1.706760
  0
VERTEX
  8
0
  6
CONTINUOUS
 10
7.882600
 20
1.686960
  0
VERTEX
  8
0
  6
CONTINUOUS
 10
7.245480
 20
1.317800
  0
VERTEX
  8
0
  6
CONTINUOUS
 10
7.228320
 20
1.337160
  0
SEQEND
  8
0
  0
SOLID
  8
0
 62
    15
 10
7.245480
 20
1.317800
 11
7.882600
 21
1.686960
 12
7.265280
 22
1.293160
 13
7.902400
 23
1.662320
  0
POLYLINE
  8
0
  6
CONTINUOUS
 66
     1
 40
0.000000
 41
0.000000
  0
VERTEX
  8
0
  6
CONTINUOUS
 10
7.245480
 20
1.317800
  0
VERTEX
  8
0
  6
CONTINUOUS
 10
7.882600
 20
1.686960
  0
VERTEX
  8
0
  6
CONTINUOUS
 10
7.902400
 20
1.662320
  0
VERTEX
  8
0
  6
CONTINUOUS
 10
7.265280
 20
1.293160
  0
VERTEX
  8
0
  6
CONTINUOUS
 10
7.245480
 20
1.317800
  0
SEQEND
  8
0
  0
SOLID
  8
0
 62
    15
 10
7.265280
 20
1.293160
 11
7.902400
 21
1.662320
 12
7.276720
 22
1.278200
 13
7.913840
 23
1.647360
  0
POLYLINE
  8
0
  6
CONTINUOUS
 66
     1
 40
0.000000
 41
0.000000
  0
VERTEX
  8
0
  6
CONTINUOUS
 10
7.265280
 20
1.293160
  0
VERTEX
  8
0
  6
CONTINUOUS
 10
7.902400
 20
1.662320
  0
VERTEX
  8
0
  6
CONTINUOUS
 10
7.913840
 20
1.647360
  0
VERTEX
  8
0
  6
CONTINUOUS
 10
7.276720
 20
1.278200
  0
VERTEX
  8
0
  6
CONTINUOUS
 10
7.265280
 20
1.293160
  0
SEQEND
  8
0
  0
SOLID
  8
0
 62
    15
 10
7.276720
 20
1.278200
 11
7.913840
 21
1.647360
 12
7.289920
 22
1.261040
 13
7.927040
 23
1.630640
  0
POLYLINE
  8
0
  6
CONTINUOUS
 66
     1
 40
0.000000
 41
0.000000
  0
VERTEX
  8
0
  6
CONTINUOUS
 10
7.276720
 20
1.278200
  0
VERTEX
  8
0
  6
CONTINUOUS
 10
7.913840
 20
1.647360
  0
VERTEX
  8
0
  6
CONTINUOUS
 10
7.927040
 20
1.630640
  0
VERTEX
  8
0
  6
CONTINUOUS
 10
7.289920
 20
1.261040
  0
VERTEX
  8
0
  6
CONTINUOUS
 10
7.276720
 20
1.278200
  0
SEQEND
  8
0
  0
SOLID
  8
0
 62
    15
 10
7.289920
 20
1.261040
 11
7.927040
 21
1.630640
 12
7.317200
 22
1.222320
 13
7.954320
 23
1.591480
  0
POLYLINE
  8
0
  6
CONTINUOUS
 66
     1
 40
0.000000
 41
0.000000
  0
VERTEX
  8
0
  6
CONTINUOUS
 10
7.289920
 20
1.261040
  0
VERTEX
  8
0
  6
CONTINUOUS
 10
7.927040
 20
1.630640
  0
VERTEX
  8
0
  6
CONTINUOUS
 10
7.954320
 20
1.591480
  0
VERTEX
  8
0
  6
CONTINUOUS
 10
7.317200
 20
1.222320
  0
VERTEX
  8
0
  6
CONTINUOUS
 10
7.289920
 20
1.261040
  0
SEQEND
  8
0
  0
SOLID
  8
0
 62
    15
 10
7.317200
 20
1.222320
 11
7.954320
 21
1.591480
 12
7.341840
 22
1.179200
 13
7.978960
 23
1.548360
  0
POLYLINE
  8
0
  6
CONTINUOUS
 66
     1
 40
0.000000
 41
0.000000
  0
VERTEX
  8
0
  6
CONTINUOUS
 10
7.317200
 20
1.222320
  0
VERTEX
  8
0
  6
CONTINUOUS
 10
7.954320
 20
1.591480
  0
VERTEX
  8
0
  6
CONTINUOUS
 10
7.978960
 20
1.548360
  0
VERTEX
  8
0
  6
CONTINUOUS
 10
7.341840
 20
1.179200
  0
VERTEX
  8
0
  6
CONTINUOUS
 10
7.317200
 20
1.222320
  0
SEQEND
  8
0
  0
SOLID
  8
0
 62
    15
 10
7.341840
 20
1.179200
 11
7.978960
 21
1.548360
 12
7.360760
 22
1.134320
 13
7.997880
 23
1.503480
  0
POLYLINE
  8
0
  6
CONTINUOUS
 66
     1
 40
0.000000
 41
0.000000
  0
VERTEX
  8
0
  6
CONTINUOUS
 10
7.341840
 20
1.179200
  0
VERTEX
  8
0
  6
CONTINUOUS
 10
7.978960
 20
1.548360
  0
VERTEX
  8
0
  6
CONTINUOUS
 10
7.997880
 20
1.503480
  0
VERTEX
  8
0
  6
CONTINUOUS
 10
7.360760
 20
1.134320
  0
VERTEX
  8
0
  6
CONTINUOUS
 10
7.341840
 20
1.179200
  0
SEQEND
  8
0
  0
SOLID
  8
0
 62
    15
 10
7.360760
 20
1.134320
 11
7.997880
 21
1.503480
 12
7.366920
 22
1.111880
 13
8.004040
 23
1.481040
  0
POLYLINE
  8
0
  6
CONTINUOUS
 66
     1
 40
0.000000
 41
0.000000
  0
VERTEX
  8
0
  6
CONTINUOUS
 10
7.360760
 20
1.134320
  0
VERTEX
  8
0
  6
CONTINUOUS
 10
7.997880
 20
1.503480
  0
VERTEX
  8
0
  6
CONTINUOUS
 10
8.004040
 20
1.481040
  0
VERTEX
  8
0
  6
CONTINUOUS
 10
7.366920
 20
1.111880
  0
VERTEX
  8
0
  6
CONTINUOUS
 10
7.360760
 20
1.134320
  0
SEQEND
  8
0
  0
SOLID
  8
0
 62
    15
 10
7.366920
 20
1.111880
 11
8.004040
 21
1.481040
 12
7.370880
 22
1.089880
 13
8.008000
 23
1.459040
  0
POLYLINE
  8
0
  6
CONTINUOUS
 66
     1
 40
0.000000
 41
0.000000
  0
VERTEX
  8
0
  6
CONTINUOUS
 10
7.366920
 20
1.111880
  0
VERTEX
  8
0
  6
CONTINUOUS
 10
8.004040
 20
1.481040
  0
VERTEX
  8
0
  6
CONTINUOUS
 10
8.008000
 20
1.459040
  0
VERTEX
  8
0
  6
CONTINUOUS
 10
7.370880
 20
1.089880
  0
VERTEX
  8
0
  6
CONTINUOUS
 10
7.366920
 20
1.111880
  0
SEQEND
  8
0
  0
SOLID
  8
0
 62
    15
 10
7.370880
 20
1.089880
 11
8.008000
 21
1.459040
 12
7.372200
 22
1.068760
 13
8.008880
 23
1.437920
  0
POLYLINE
  8
0
  6
CONTINUOUS
 66
     1
 40
0.000000
 41
0.000000
  0
VERTEX
  8
0
  6
CONTINUOUS
 10
7.370880
 20
1.089880
  0
VERTEX
  8
0
  6
CONTINUOUS
 10
8.008000
 20
1.459040
  0
VERTEX
  8
0
  6
CONTINUOUS
 10
8.008880
 20
1.437920
  0
VERTEX
  8
0
  6
CONTINUOUS
 10
7.372200
 20
1.068760
  0
VERTEX
  8
0
  6
CONTINUOUS
 10
7.370880
 20
1.089880
  0
SEQEND
  8
0
  0
SOLID
  8
0
 62
    15
 10
7.372200
 20
1.068760
 11
8.008880
 21
1.437920
 12
7.370000
 22
1.048520
 13
8.006680
 23
1.417680
  0
POLYLINE
  8
0
  6
CONTINUOUS
 66
     1
 40
0.000000
 41
0.000000
  0
VERTEX
  8
0
  6
CONTINUOUS
 10
7.372200
 20
1.068760
  0
VERTEX
  8
0
  6
CONTINUOUS
 10
8.008880
 20
1.437920
  0
VERTEX
  8
0
  6
CONTINUOUS
 10
8.006680
 20
1.417680
  0
VERTEX
  8
0
  6
CONTINUOUS
 10
7.370000
 20
1.048520
  0
VERTEX
  8
0
  6
CONTINUOUS
 10
7.372200
 20
1.068760
  0
SEQEND
  8
0
  0
SOLID
  8
0
 62
    15
 10
7.370000
 20
1.048520
 11
8.006680
 21
1.417680
 12
7.364280
 22
1.029600
 13
8.000960
 23
1.398760
  0
POLYLINE
  8
0
  6
CONTINUOUS
 66
     1
 40
0.000000
 41
0.000000
  0
VERTEX
  8
0
  6
CONTINUOUS
 10
7.370000
 20
1.048520
  0
VERTEX
  8
0
  6
CONTINUOUS
 10
8.006680
 20
1.417680
  0
VERTEX
  8
0
  6
CONTINUOUS
 10
8.000960
 20
1.398760
  0
VERTEX
  8
0
  6
CONTINUOUS
 10
7.364280
 20
1.029600
  0
VERTEX
  8
0
  6
CONTINUOUS
 10
7.370000
 20
1.048520
  0
SEQEND
  8
0
  0
SOLID
  8
0
 62
    15
 10
7.269680
 20
0.965800
 11
7.906800
 21
1.334960
 12
7.269680
 22
0.878680
 13
7.906800
 23
1.247840
  0
POLYLINE
  8
0
  6
CONTINUOUS
 66
     1
 40
0.000000
 41
0.000000
  0
VERTEX
  8
0
  6
CONTINUOUS
 10
7.269680
 20
0.965800
  0
VERTEX
  8
0
  6
CONTINUOUS
 10
7.906800
 20
1.334960
  0
VERTEX
  8
0
  6
CONTINUOUS
 10
7.906800
 20
1.247840
  0
VERTEX
  8
0
  6
CONTINUOUS
 10
7.269680
 20
0.878680
  0
VERTEX
  8
0
  6
CONTINUOUS
 10
7.269680
 20
0.965800
  0
SEQEND
  8
0
  0
SOLID
  8
0
 62
    15
 10
7.354600
 20
1.012440
 11
7.991280
 21
1.381600
 12
7.340520
 22
0.997040
 13
7.977640
 23
1.366200
  0
POLYLINE
  8
0
  6
CONTINUOUS
 66
     1
 40
0.000000
 41
0.000000
  0
VERTEX
  8
0
  6
CONTINUOUS
 10
7.354600
 20
1.012440
  0
VERTEX
  8
0
  6
CONTINUOUS
 10
7.991280
 20
1.381600
  0
VERTEX
  8
0
  6
CONTINUOUS
 10
7.977640
 20
1.366200
  0
VERTEX
  8
0
  6
CONTINUOUS
 10
7.340520
 20
0.997040
  0
VERTEX
  8
0
  6
CONTINUOUS
 10
7.354600
 20
1.012440
  0
SEQEND
  8
0
  0
SOLID
  8
0
 62
    15
 10
7.340520
 20
0.997040
 11
7.977640
 21
1.366200
 12
7.322040
 22
0.983840
 13
7.959160
 23
1.353440
  0
POLYLINE
  8
0
  6
CONTINUOUS
 66
     1
 40
0.000000
 41
0.000000
  0
VERTEX
  8
0
  6
CONTINUOUS
 10
7.340520
 20
0.997040
  0
VERTEX
  8
0
  6
CONTINUOUS
 10
7.977640
 20
1.366200
  0
VERTEX
  8
0
  6
CONTINUOUS
 10
7.959160
 20
1.353440
  0
VERTEX
  8
0
  6
CONTINUOUS
 10
7.322040
 20
0.983840
  0
VERTEX
  8
0
  6
CONTINUOUS
 10
7.340520
 20
0.997040
  0
SEQEND
  8
0
  0
SOLID
  8
0
 62
    15
 10
7.364280
 20
1.029600
 11
8.000960
 21
1.398760
 12
7.354600
 22
1.012440
 13
7.991280
 23
1.381600
  0
POLYLINE
  8
0
  6
CONTINUOUS
 66
     1
 40
0.000000
 41
0.000000
  0
VERTEX
  8
0
  6
CONTINUOUS
 10
7.364280
 20
1.029600
  0
VERTEX
  8
0
  6
CONTINUOUS
 10
8.000960
 20
1.398760
  0
VERTEX
  8
0
  6
CONTINUOUS
 10
7.991280
 20
1.381600
  0
VERTEX
  8
0
  6
CONTINUOUS
 10
7.354600
 20
1.012440
  0
VERTEX
  8
0
  6
CONTINUOUS
 10
7.364280
 20
1.029600
  0
SEQEND
  8
0
  0
SOLID
  8
0
 62
    15
 10
6.922960
 20
1.815000
 11
7.560080
 21
2.184160
 12
7.078720
 22
1.815000
 13
7.715840
 23
2.184160
  0
POLYLINE
  8
0
  6
CONTINUOUS
 66
     1
 40
0.000000
 41
0.000000
  0
VERTEX
  8
0
  6
CONTINUOUS
 10
6.922960
 20
1.815000
  0
VERTEX
  8
0
  6
CONTINUOUS
 10
7.560080
 20
2.184160
  0
VERTEX
  8
0
  6
CONTINUOUS
 10
7.715840
 20
2.184160
  0
VERTEX
  8
0
  6
CONTINUOUS
 10
7.078720
 20
1.815000
  0
VERTEX
  8
0
  6
CONTINUOUS
 10
6.922960
 20
1.815000
  0
SEQEND
  8
0
  0
SOLID
  8
0
 62
    15
 10
7.078720
 20
1.815000
 11
7.715840
 21
2.184160
 12
7.079160
 22
1.814120
 13
7.716280
 23
2.183280
  0
POLYLINE
  8
0
  6
CONTINUOUS
 66
     1
 40
0.000000
 41
0.000000
  0
VERTEX
  8
0
  6
CONTINUOUS
 10
7.078720
 20
1.815000
  0
VERTEX
  8
0
  6
CONTINUOUS
 10
7.715840
 20
2.184160
  0
VERTEX
  8
0
  6
CONTINUOUS
 10
7.716280
 20
2.183280
  0
VERTEX
  8
0
  6
CONTINUOUS
 10
7.079160
 20
1.814120
  0
VERTEX
  8
0
  6
CONTINUOUS
 10
7.078720
 20
1.815000
  0
SEQEND
  8
0
  0
POLYLINE
  8
0
  6
CONTINUOUS
 66
     1
 40
0.000000
 41
0.000000
  0
VERTEX
  8
0
  6
CONTINUOUS
 10
7.079160
 20
1.814120
  0
VERTEX
  8
0
  6
CONTINUOUS
 10
7.079160
 20
1.672880
  0
VERTEX
  8
0
  6
CONTINUOUS
 10
7.107320
 20
1.670680
  0
VERTEX
  8
0
  6
CONTINUOUS
 10
7.131960
 20
1.664960
  0
VERTEX
  8
0
  6
CONTINUOUS
 10
7.152200
 20
1.655720
  0
VERTEX
  8
0
  6
CONTINUOUS
 10
7.168920
 20
1.644280
  0
VERTEX
  8
0
  6
CONTINUOUS
 10
7.181680
 20
1.630200
  0
VERTEX
  8
0
  6
CONTINUOUS
 10
7.191360
 20
1.614800
  0
VERTEX
  8
0
  6
CONTINUOUS
 10
7.197080
 20
1.598520
  0
VERTEX
  8
0
  6
CONTINUOUS
 10
7.199280
 20
1.581360
  0
VERTEX
  8
0
  6
CONTINUOUS
 10
7.198400
 20
1.564640
  0
VERTEX
  8
0
  6
CONTINUOUS
 10
7.194000
 20
1.547920
  0
VERTEX
  8
0
  6
CONTINUOUS
 10
7.186960
 20
1.532520
  0
VERTEX
  8
0
  6
CONTINUOUS
 10
7.176400
 20
1.518880
  0
VERTEX
  8
0
  6
CONTINUOUS
 10
7.162760
 20
1.507000
  0
VERTEX
  8
0
  6
CONTINUOUS
 10
7.146480
 20
1.498200
  0
VERTEX
  8
0
  6
CONTINUOUS
 10
7.127560
 20
1.492480
  0
VERTEX
  8
0
  6
CONTINUOUS
 10
7.105560
 20
1.490280
  0
VERTEX
  8
0
  6
CONTINUOUS
 10
7.105560
 20
1.431320
  0
VERTEX
  8
0
  6
CONTINUOUS
 10
7.142520
 20
1.406240
  0
VERTEX
  8
0
  6
CONTINUOUS
 10
7.157480
 20
1.395680
  0
VERTEX
  8
0
  6
CONTINUOUS
 10
7.171120
 20
1.386440
  0
VERTEX
  8
0
  6
CONTINUOUS
 10
7.193560
 20
1.369720
  0
VERTEX
  8
0
  6
CONTINUOUS
 10
7.211600
 20
1.353880
  0
VERTEX
  8
0
  6
CONTINUOUS
 10
7.228320
 20
1.337160
  0
VERTEX
  8
0
  6
CONTINUOUS
 10
7.245480
 20
1.317800
  0
VERTEX
  8
0
  6
CONTINUOUS
 10
7.265280
 20
1.293160
  0
VERTEX
  8
0
  6
CONTINUOUS
 10
7.276720
 20
1.278200
  0
VERTEX
  8
0
  6
CONTINUOUS
 10
7.289920
 20
1.261040
  0
VERTEX
  8
0
  6
CONTINUOUS
 10
7.317200
 20
1.222320
  0
VERTEX
  8
0
  6
CONTINUOUS
 10
7.341840
 20
1.179200
  0
VERTEX
  8
0
  6
CONTINUOUS
 10
7.360760
 20
1.134320
  0
VERTEX
  8
0
  6
CONTINUOUS
 10
7.366920
 20
1.111880
  0
VERTEX
  8
0
  6
CONTINUOUS
 10
7.370880
 20
1.089880
  0
VERTEX
  8
0
  6
CONTINUOUS
 10
7.372200
 20
1.068760
  0
VERTEX
  8
0
  6
CONTINUOUS
 10
7.370000
 20
1.048520
  0
VERTEX
  8
0
  6
CONTINUOUS
 10
7.364280
 20
1.029600
  0
VERTEX
  8
0
  6
CONTINUOUS
 10
7.354600
 20
1.012440
  0
VERTEX
  8
0
  6
CONTINUOUS
 10
7.340520
 20
0.997040
  0
VERTEX
  8
0
  6
CONTINUOUS
 10
7.322040
 20
0.983840
  0
VERTEX
  8
0
  6
CONTINUOUS
 10
7.298720
 20
0.973280
  0
VERTEX
  8
0
  6
CONTINUOUS
 10
7.269680
 20
0.965800
  0
VERTEX
  8
0
  6
CONTINUOUS
 10
7.269680
 20
0.878680
  0
VERTEX
  8
0
  6
CONTINUOUS
 10
6.922960
 20
0.878680
  0
VERTEX
  8
0
  6
CONTINUOUS
 10
6.922960
 20
1.815000
  0
VERTEX
  8
0
  6
CONTINUOUS
 10
7.078720
 20
1.815000
  0
VERTEX
  8
0
  6
CONTINUOUS
 10
7.079160
 20
1.814120
  0
SEQEND
  8
0
  0
TEXT
  8
0
 10
7.168480
 20
0.608960
 40
0.138111
  1
BA  395
 41
1.000000
  7
SN0
 71
     0
 72
     5
 11
7.758237
 21
0.608960
  0
TEXT
  8
0
 10
6.948040
 20
0.417120
 40
0.138111
  1
7/16" x 15/16"
 41
1.000000
  7
SN0
 71
     0
 72
     5
 11
7.976991
 21
0.417120
  0
ENDSEC
  0
EOF
