  0
SECTION
  2
HEADER
  9
$ACADVER
  1
AC1006
  9
$EXTMIN
 10
3.826680
 20
0.509080
  9
$EXTMAX
 10
7.092800
 20
7.006120
  9
$LTSCALE
 40
0.044000
  9
$PDMODE
 70
    35
  9
$PDSIZE
 40
0.035200
  0
ENDSEC
  0
SECTION
  2
TABLES
  0
TABLE
  2
LTYPE
 70
     9
  0
LTYPE
  2
CONTINUOUS
 70
    64
  3
Solid line
 72
    65
 73
     0
 40
0.000000
  0
LTYPE
  2
DASHED
 70
    64
  3
__ __ __ __ __ __ __ __ __ __ __ __ __ __ __
 72
    65
 73
     2
 40
0.000330
 49
0.000220
 49
-0.000110
  0
LTYPE
  2
HIDDEN
 70
    64
  3
 _ _ _ _ _ _ _ _ _ _ _ _ _ _ _ _ _ _ _ _ _ _
 72
    65
 73
     2
 40
0.000165
 49
0.000110
 49
-0.000055
  0
LTYPE
  2
CENTER
 70
    64
  3
____ _ ____ _ ____ _ ____ _ ____ _ ____ _ ____
 72
    65
 73
     4
 40
0.000880
 49
0.000550
 49
-0.000110
 49
0.000110
 49
-0.000110
  0
LTYPE
  2
PHANTOM
 70
    64
  3
_____ _ _ _____ _ _ _____ _ _ _____ _ _ ____
 72
    65
 73
     6
 40
0.001100
 49
0.000550
 49
-0.000110
 49
0.000110
 49
-0.000110
 49
0.000110
 49
-0.000110
  0
LTYPE
  2
DOT
 70
    64
  3
...............................................
 72
    65
 73
     2
 40
0.000110
 49
0.000000
 49
-0.000110
  0
LTYPE
  2
DASHDOT
 70
    64
  3
__ . __ . __ . __ . __ . __ . __ . __ . __ . __
 72
    65
 73
     4
 40
0.000440
 49
0.000220
 49
-0.000110
 49
0.000000
 49
-0.000110
  0
LTYPE
  2
BORDER
 70
    64
  3
__ __ . __ __ . __ __ . __ __ . __ __ . __ __
 72
    65
 73
     6
 40
0.000770
 49
0.000220
 49
-0.000110
 49
0.000220
 49
-0.000110
 49
0.000000
 49
-0.000110
  0
LTYPE
  2
DIVIDE
 70
    64
  3
__ . . __ . . __ . . __ . . __ . . __ . . __
 72
    65
 73
     6
 40
0.000550
 49
0.000220
 49
-0.000110
 49
0.000000
 49
-0.000110
 49
0.000000
 49
-0.000110
  0
LTYPE
  2
DOTDOT
 70
    64
  3
 . .  . .  . .  . .  . .  . . 
 72
    65
 73
     5
 40
0.000242
 49
-0.000110
 49
0.000000
 49
-0.000110
 49
0.000000
 49
-0.000110
  0
ENDTAB
  0
TABLE
  2
STYLE
 70
     2
  0
STYLE
 70
     0
  2
SN0
 40
0.000000
 41
0.000440
 50
0.000000
 71
     0
 42
0.000000
  3
ROMAND
  0
STYLE
 70
    68
  2
SV0
 40
0.000000
 41
0.000440
 50
0.000000
 71
     0
 42
0.000000
  3
ROMAND
  0
ENDTAB
  0
TABLE
  2
LAYER
 70
     3
  0
LAYER
  2
FOREGROUND
 70
    64
 62
     7
  6
CONTINUOUS
  0
LAYER
  2
BACKGROUND
 70
    65
 62
    -7
  6
CONTINUOUS
  0
LAYER
  2
0
 70
    64
 62
     7
  6
CONTINUOUS
  0
ENDTAB
  0
ENDSEC
  0
SECTION
  2
ENTITIES
  0
POLYLINE
  8
FOREGROUND
  6
CONTINUOUS
 66
     1
 40
0.000000
 41
0.000000
  0
VERTEX
  8
FOREGROUND
  6
CONTINUOUS
 10
0.000000
 20
7.515200
  0
VERTEX
  8
FOREGROUND
  6
CONTINUOUS
 10
8.499920
 20
7.515200
  0
VERTEX
  8
FOREGROUND
  6
CONTINUOUS
 10
8.499920
 20
-3.484800
  0
VERTEX
  8
FOREGROUND
  6
CONTINUOUS
 10
0.000000
 20
-3.484800
  0
VERTEX
  8
FOREGROUND
  6
CONTINUOUS
 10
0.000000
 20
7.515200
  0
SEQEND
  8
0
  0
POLYLINE
  8
0
  6
CONTINUOUS
 66
     1
 40
0.014080
 41
0.014080
  0
VERTEX
  8
0
  6
CONTINUOUS
 10
5.248760
 20
6.997760
  0
VERTEX
  8
0
  6
CONTINUOUS
 10
5.144040
 20
6.998640
  0
VERTEX
  8
0
  6
CONTINUOUS
 10
4.989160
 20
6.993800
  0
VERTEX
  8
0
  6
CONTINUOUS
 10
4.864200
 20
6.986320
  0
VERTEX
  8
0
  6
CONTINUOUS
 10
4.777520
 20
6.979280
  0
VERTEX
  8
0
  6
CONTINUOUS
 10
4.599760
 20
6.959480
  0
VERTEX
  8
0
  6
CONTINUOUS
 10
4.510000
 20
6.947160
  0
VERTEX
  8
0
  6
CONTINUOUS
 10
4.419800
 20
6.932640
  0
VERTEX
  8
0
  6
CONTINUOUS
 10
4.330480
 20
6.916360
  0
VERTEX
  8
0
  6
CONTINUOUS
 10
4.242040
 20
6.898320
  0
VERTEX
  8
0
  6
CONTINUOUS
 10
4.113120
 20
6.867080
  0
VERTEX
  8
0
  6
CONTINUOUS
 10
3.990800
 20
6.831440
  0
VERTEX
  8
0
  6
CONTINUOUS
 10
3.913360
 20
6.805040
  0
VERTEX
  8
0
  6
CONTINUOUS
 10
3.913360
 20
5.990160
  0
VERTEX
  8
0
  6
CONTINUOUS
 10
4.059880
 20
5.799640
  0
VERTEX
  8
0
  6
CONTINUOUS
 10
4.110040
 20
5.423000
  0
VERTEX
  8
0
  6
CONTINUOUS
 10
4.185720
 20
5.351720
  0
VERTEX
  8
0
  6
CONTINUOUS
 10
4.184400
 20
5.268120
  0
VERTEX
  8
0
  6
CONTINUOUS
 10
4.186600
 20
5.233360
  0
VERTEX
  8
0
  6
CONTINUOUS
 10
4.191880
 20
5.202560
  0
VERTEX
  8
0
  6
CONTINUOUS
 10
4.201120
 20
5.174840
  0
VERTEX
  8
0
  6
CONTINUOUS
 10
4.215200
 20
5.148440
  0
VERTEX
  8
0
  6
CONTINUOUS
 10
4.234560
 20
5.123360
  0
VERTEX
  8
0
  6
CONTINUOUS
 10
4.260960
 20
5.098720
  0
VERTEX
  8
0
  6
CONTINUOUS
 10
4.260960
 20
4.315960
  0
VERTEX
  8
0
  6
CONTINUOUS
 10
4.259200
 20
4.316840
  0
VERTEX
  8
0
  6
CONTINUOUS
 10
6.188160
 20
4.316840
  0
VERTEX
  8
0
  6
CONTINUOUS
 10
6.190360
 20
4.319920
  0
VERTEX
  8
0
  6
CONTINUOUS
 10
6.190360
 20
5.102680
  0
VERTEX
  8
0
  6
CONTINUOUS
 10
6.216320
 20
5.127320
  0
VERTEX
  8
0
  6
CONTINUOUS
 10
6.236120
 20
5.152400
  0
VERTEX
  8
0
  6
CONTINUOUS
 10
6.250200
 20
5.178360
  0
VERTEX
  8
0
  6
CONTINUOUS
 10
6.259000
 20
5.206520
  0
VERTEX
  8
0
  6
CONTINUOUS
 10
6.264280
 20
5.237320
  0
VERTEX
  8
0
  6
CONTINUOUS
 10
6.266480
 20
5.271640
  0
VERTEX
  8
0
  6
CONTINUOUS
 10
6.266480
 20
5.332360
  0
VERTEX
  8
0
  6
CONTINUOUS
 10
6.265600
 20
5.355680
  0
VERTEX
  8
0
  6
CONTINUOUS
 10
6.340840
 20
5.426960
  0
VERTEX
  8
0
  6
CONTINUOUS
 10
6.391000
 20
5.803600
  0
VERTEX
  8
0
  6
CONTINUOUS
 10
6.537520
 20
5.994120
  0
VERTEX
  8
0
  6
CONTINUOUS
 10
6.537520
 20
6.809000
  0
VERTEX
  8
0
  6
CONTINUOUS
 10
6.460520
 20
6.835400
  0
VERTEX
  8
0
  6
CONTINUOUS
 10
6.380880
 20
6.859600
  0
VERTEX
  8
0
  6
CONTINUOUS
 10
6.256800
 20
6.891720
  0
VERTEX
  8
0
  6
CONTINUOUS
 10
6.129200
 20
6.919440
  0
VERTEX
  8
0
  6
CONTINUOUS
 10
6.042960
 20
6.935280
  0
VERTEX
  8
0
  6
CONTINUOUS
 10
5.956280
 20
6.949360
  0
VERTEX
  8
0
  6
CONTINUOUS
 10
5.869600
 20
6.961240
  0
VERTEX
  8
0
  6
CONTINUOUS
 10
5.698440
 20
6.980160
  0
VERTEX
  8
0
  6
CONTINUOUS
 10
5.574360
 20
6.989840
  0
VERTEX
  8
0
  6
CONTINUOUS
 10
5.416840
 20
6.996880
  0
VERTEX
  8
0
  6
CONTINUOUS
 10
5.307280
 20
6.998200
  0
VERTEX
  8
0
  6
CONTINUOUS
 10
5.239080
 20
6.997320
  0
VERTEX
  8
0
  6
CONTINUOUS
 10
5.248760
 20
6.997760
  0
SEQEND
  8
0
  0
TEXT
  8
0
 10
5.166040
 20
0.744480
 40
0.138175
  1
BA  389
 41
1.000000
  7
SN0
 71
     0
 72
     5
 11
5.756296
 21
0.744480
  0
TEXT
  8
0
 10
4.843960
 20
0.553080
 40
0.138175
  1
2-11/16" x 2-5/8"
 41
1.000000
  7
SN0
 71
     0
 72
     5
 11
6.076448
 21
0.553080
  0
SOLID
  8
0
 62
    15
 10
6.180680
 20
1.973840
 11
6.821760
 21
2.338600
 12
6.173200
 22
1.908280
 13
6.814280
 23
2.273040
  0
POLYLINE
  8
0
  6
CONTINUOUS
 66
     1
 40
0.000000
 41
0.000000
  0
VERTEX
  8
0
  6
CONTINUOUS
 10
6.180680
 20
1.973840
  0
VERTEX
  8
0
  6
CONTINUOUS
 10
6.821760
 20
2.338600
  0
VERTEX
  8
0
  6
CONTINUOUS
 10
6.814280
 20
2.273040
  0
VERTEX
  8
0
  6
CONTINUOUS
 10
6.173200
 20
1.908280
  0
VERTEX
  8
0
  6
CONTINUOUS
 10
6.180680
 20
1.973840
  0
SEQEND
  8
0
  0
SOLID
  8
0
 62
    15
 10
5.293640
 20
3.699520
 11
5.934280
 21
4.064280
 12
5.447640
 22
3.693800
 13
6.088720
 23
4.059000
  0
POLYLINE
  8
0
  6
CONTINUOUS
 66
     1
 40
0.000000
 41
0.000000
  0
VERTEX
  8
0
  6
CONTINUOUS
 10
5.293640
 20
3.699520
  0
VERTEX
  8
0
  6
CONTINUOUS
 10
5.934280
 20
4.064280
  0
VERTEX
  8
0
  6
CONTINUOUS
 10
6.088720
 20
4.059000
  0
VERTEX
  8
0
  6
CONTINUOUS
 10
5.447640
 20
3.693800
  0
VERTEX
  8
0
  6
CONTINUOUS
 10
5.293640
 20
3.699520
  0
SEQEND
  8
0
  0
SOLID
  8
0
 62
    15
 10
5.447640
 20
3.693800
 11
6.088720
 21
4.059000
 12
5.783360
 22
3.663000
 13
6.424440
 23
4.027760
  0
POLYLINE
  8
0
  6
CONTINUOUS
 66
     1
 40
0.000000
 41
0.000000
  0
VERTEX
  8
0
  6
CONTINUOUS
 10
5.447640
 20
3.693800
  0
VERTEX
  8
0
  6
CONTINUOUS
 10
6.088720
 20
4.059000
  0
VERTEX
  8
0
  6
CONTINUOUS
 10
6.424440
 20
4.027760
  0
VERTEX
  8
0
  6
CONTINUOUS
 10
5.783360
 20
3.663000
  0
VERTEX
  8
0
  6
CONTINUOUS
 10
5.447640
 20
3.693800
  0
SEQEND
  8
0
  0
SOLID
  8
0
 62
    15
 10
5.783360
 20
3.663000
 11
6.424440
 21
4.027760
 12
6.128320
 22
3.603160
 13
6.769400
 23
3.967920
  0
POLYLINE
  8
0
  6
CONTINUOUS
 66
     1
 40
0.000000
 41
0.000000
  0
VERTEX
  8
0
  6
CONTINUOUS
 10
5.783360
 20
3.663000
  0
VERTEX
  8
0
  6
CONTINUOUS
 10
6.424440
 20
4.027760
  0
VERTEX
  8
0
  6
CONTINUOUS
 10
6.769400
 20
3.967920
  0
VERTEX
  8
0
  6
CONTINUOUS
 10
6.128320
 20
3.603160
  0
VERTEX
  8
0
  6
CONTINUOUS
 10
5.783360
 20
3.663000
  0
SEQEND
  8
0
  0
SOLID
  8
0
 62
    15
 10
6.128320
 20
3.603160
 11
6.769400
 21
3.967920
 12
6.294640
 22
3.561360
 13
6.935720
 23
3.926120
  0
POLYLINE
  8
0
  6
CONTINUOUS
 66
     1
 40
0.000000
 41
0.000000
  0
VERTEX
  8
0
  6
CONTINUOUS
 10
6.128320
 20
3.603160
  0
VERTEX
  8
0
  6
CONTINUOUS
 10
6.769400
 20
3.967920
  0
VERTEX
  8
0
  6
CONTINUOUS
 10
6.935720
 20
3.926120
  0
VERTEX
  8
0
  6
CONTINUOUS
 10
6.294640
 20
3.561360
  0
VERTEX
  8
0
  6
CONTINUOUS
 10
6.128320
 20
3.603160
  0
SEQEND
  8
0
  0
SOLID
  8
0
 62
    15
 10
6.294640
 20
3.561360
 11
6.935720
 21
3.926120
 12
6.451280
 22
3.510760
 13
7.092360
 23
3.875520
  0
POLYLINE
  8
0
  6
CONTINUOUS
 66
     1
 40
0.000000
 41
0.000000
  0
VERTEX
  8
0
  6
CONTINUOUS
 10
6.294640
 20
3.561360
  0
VERTEX
  8
0
  6
CONTINUOUS
 10
6.935720
 20
3.926120
  0
VERTEX
  8
0
  6
CONTINUOUS
 10
7.092360
 20
3.875520
  0
VERTEX
  8
0
  6
CONTINUOUS
 10
6.451280
 20
3.510760
  0
VERTEX
  8
0
  6
CONTINUOUS
 10
6.294640
 20
3.561360
  0
SEQEND
  8
0
  0
SOLID
  8
0
 62
    15
 10
6.451280
 20
3.510760
 11
7.092360
 21
3.875520
 12
6.451280
 22
2.695880
 13
7.092360
 23
3.060640
  0
POLYLINE
  8
0
  6
CONTINUOUS
 66
     1
 40
0.000000
 41
0.000000
  0
VERTEX
  8
0
  6
CONTINUOUS
 10
6.451280
 20
3.510760
  0
VERTEX
  8
0
  6
CONTINUOUS
 10
7.092360
 20
3.875520
  0
VERTEX
  8
0
  6
CONTINUOUS
 10
7.092360
 20
3.060640
  0
VERTEX
  8
0
  6
CONTINUOUS
 10
6.451280
 20
2.695880
  0
VERTEX
  8
0
  6
CONTINUOUS
 10
6.451280
 20
3.510760
  0
SEQEND
  8
0
  0
SOLID
  8
0
 62
    15
 10
6.451280
 20
2.695880
 11
7.092360
 21
3.060640
 12
6.305200
 22
2.505360
 13
6.945840
 23
2.870120
  0
POLYLINE
  8
0
  6
CONTINUOUS
 66
     1
 40
0.000000
 41
0.000000
  0
VERTEX
  8
0
  6
CONTINUOUS
 10
6.451280
 20
2.695880
  0
VERTEX
  8
0
  6
CONTINUOUS
 10
7.092360
 20
3.060640
  0
VERTEX
  8
0
  6
CONTINUOUS
 10
6.945840
 20
2.870120
  0
VERTEX
  8
0
  6
CONTINUOUS
 10
6.305200
 20
2.505360
  0
VERTEX
  8
0
  6
CONTINUOUS
 10
6.451280
 20
2.695880
  0
SEQEND
  8
0
  0
SOLID
  8
0
 62
    15
 10
6.305200
 20
2.505360
 11
6.945840
 21
2.870120
 12
6.254600
 22
2.128720
 13
6.895680
 23
2.493480
  0
POLYLINE
  8
0
  6
CONTINUOUS
 66
     1
 40
0.000000
 41
0.000000
  0
VERTEX
  8
0
  6
CONTINUOUS
 10
6.305200
 20
2.505360
  0
VERTEX
  8
0
  6
CONTINUOUS
 10
6.945840
 20
2.870120
  0
VERTEX
  8
0
  6
CONTINUOUS
 10
6.895680
 20
2.493480
  0
VERTEX
  8
0
  6
CONTINUOUS
 10
6.254600
 20
2.128720
  0
VERTEX
  8
0
  6
CONTINUOUS
 10
6.305200
 20
2.505360
  0
SEQEND
  8
0
  0
SOLID
  8
0
 62
    15
 10
6.254600
 20
2.128720
 11
6.895680
 21
2.493480
 12
6.179360
 22
2.057440
 13
6.820440
 23
2.422200
  0
POLYLINE
  8
0
  6
CONTINUOUS
 66
     1
 40
0.000000
 41
0.000000
  0
VERTEX
  8
0
  6
CONTINUOUS
 10
6.254600
 20
2.128720
  0
VERTEX
  8
0
  6
CONTINUOUS
 10
6.895680
 20
2.493480
  0
VERTEX
  8
0
  6
CONTINUOUS
 10
6.820440
 20
2.422200
  0
VERTEX
  8
0
  6
CONTINUOUS
 10
6.179360
 20
2.057440
  0
VERTEX
  8
0
  6
CONTINUOUS
 10
6.254600
 20
2.128720
  0
SEQEND
  8
0
  0
SOLID
  8
0
 62
    15
 10
6.179360
 20
2.057440
 11
6.820440
 21
2.422200
 12
6.180680
 22
1.973840
 13
6.821760
 23
2.338600
  0
POLYLINE
  8
0
  6
CONTINUOUS
 66
     1
 40
0.000000
 41
0.000000
  0
VERTEX
  8
0
  6
CONTINUOUS
 10
6.179360
 20
2.057440
  0
VERTEX
  8
0
  6
CONTINUOUS
 10
6.820440
 20
2.422200
  0
VERTEX
  8
0
  6
CONTINUOUS
 10
6.821760
 20
2.338600
  0
VERTEX
  8
0
  6
CONTINUOUS
 10
6.180680
 20
1.973840
  0
VERTEX
  8
0
  6
CONTINUOUS
 10
6.179360
 20
2.057440
  0
SEQEND
  8
0
  0
SOLID
  8
0
 62
    15
 10
5.153280
 20
3.699080
 11
5.794360
 21
4.064280
 12
5.293640
 22
3.699520
 13
5.934280
 23
4.064280
  0
POLYLINE
  8
0
  6
CONTINUOUS
 66
     1
 40
0.000000
 41
0.000000
  0
VERTEX
  8
0
  6
CONTINUOUS
 10
5.153280
 20
3.699080
  0
VERTEX
  8
0
  6
CONTINUOUS
 10
5.794360
 20
4.064280
  0
VERTEX
  8
0
  6
CONTINUOUS
 10
5.934280
 20
4.064280
  0
VERTEX
  8
0
  6
CONTINUOUS
 10
5.293640
 20
3.699520
  0
VERTEX
  8
0
  6
CONTINUOUS
 10
5.153280
 20
3.699080
  0
SEQEND
  8
0
  0
SOLID
  8
0
 62
    15
 10
6.173200
 20
1.908280
 11
6.814280
 21
2.273040
 12
6.149880
 22
1.854160
 13
6.790960
 23
2.219360
  0
POLYLINE
  8
0
  6
CONTINUOUS
 66
     1
 40
0.000000
 41
0.000000
  0
VERTEX
  8
0
  6
CONTINUOUS
 10
6.173200
 20
1.908280
  0
VERTEX
  8
0
  6
CONTINUOUS
 10
6.814280
 20
2.273040
  0
VERTEX
  8
0
  6
CONTINUOUS
 10
6.790960
 20
2.219360
  0
VERTEX
  8
0
  6
CONTINUOUS
 10
6.149880
 20
1.854160
  0
VERTEX
  8
0
  6
CONTINUOUS
 10
6.173200
 20
1.908280
  0
SEQEND
  8
0
  0
SOLID
  8
0
 62
    15
 10
6.149880
 20
1.854160
 11
6.790960
 21
2.219360
 12
6.104120
 22
1.804440
 13
6.745200
 23
2.169200
  0
POLYLINE
  8
0
  6
CONTINUOUS
 66
     1
 40
0.000000
 41
0.000000
  0
VERTEX
  8
0
  6
CONTINUOUS
 10
6.149880
 20
1.854160
  0
VERTEX
  8
0
  6
CONTINUOUS
 10
6.790960
 20
2.219360
  0
VERTEX
  8
0
  6
CONTINUOUS
 10
6.745200
 20
2.169200
  0
VERTEX
  8
0
  6
CONTINUOUS
 10
6.104120
 20
1.804440
  0
VERTEX
  8
0
  6
CONTINUOUS
 10
6.149880
 20
1.854160
  0
SEQEND
  8
0
  0
SOLID
  8
0
 62
    15
 10
6.104120
 20
1.804440
 11
6.745200
 21
2.169200
 12
6.104120
 22
1.021680
 13
6.745200
 23
1.386440
  0
POLYLINE
  8
0
  6
CONTINUOUS
 66
     1
 40
0.000000
 41
0.000000
  0
VERTEX
  8
0
  6
CONTINUOUS
 10
6.104120
 20
1.804440
  0
VERTEX
  8
0
  6
CONTINUOUS
 10
6.745200
 20
2.169200
  0
VERTEX
  8
0
  6
CONTINUOUS
 10
6.745200
 20
1.386440
  0
VERTEX
  8
0
  6
CONTINUOUS
 10
6.104120
 20
1.021680
  0
VERTEX
  8
0
  6
CONTINUOUS
 10
6.104120
 20
1.804440
  0
SEQEND
  8
0
  0
SOLID
  8
0
 62
    15
 10
6.104120
 20
1.021680
 11
6.745200
 21
1.386440
 12
6.101920
 22
1.018600
 13
6.743000
 23
1.383800
  0
POLYLINE
  8
0
  6
CONTINUOUS
 66
     1
 40
0.000000
 41
0.000000
  0
VERTEX
  8
0
  6
CONTINUOUS
 10
6.104120
 20
1.021680
  0
VERTEX
  8
0
  6
CONTINUOUS
 10
6.745200
 20
1.386440
  0
VERTEX
  8
0
  6
CONTINUOUS
 10
6.743000
 20
1.383800
  0
VERTEX
  8
0
  6
CONTINUOUS
 10
6.101920
 20
1.018600
  0
VERTEX
  8
0
  6
CONTINUOUS
 10
6.104120
 20
1.021680
  0
SEQEND
  8
0
  0
SOLID
  8
0
 62
    15
 10
4.173400
 20
1.018600
 11
4.814040
 21
1.383800
 12
4.174720
 22
1.017720
 13
4.815800
 23
1.382920
  0
POLYLINE
  8
0
  6
CONTINUOUS
 66
     1
 40
0.000000
 41
0.000000
  0
VERTEX
  8
0
  6
CONTINUOUS
 10
4.173400
 20
1.018600
  0
VERTEX
  8
0
  6
CONTINUOUS
 10
4.814040
 20
1.383800
  0
VERTEX
  8
0
  6
CONTINUOUS
 10
4.815800
 20
1.382920
  0
VERTEX
  8
0
  6
CONTINUOUS
 10
4.174720
 20
1.017720
  0
VERTEX
  8
0
  6
CONTINUOUS
 10
4.173400
 20
1.018600
  0
SEQEND
  8
0
  0
SOLID
  8
0
 62
    15
 10
3.827560
 20
3.506800
 11
4.468200
 21
3.871560
 12
3.985520
 22
3.557400
 13
4.626600
 23
3.922600
  0
POLYLINE
  8
0
  6
CONTINUOUS
 66
     1
 40
0.000000
 41
0.000000
  0
VERTEX
  8
0
  6
CONTINUOUS
 10
3.827560
 20
3.506800
  0
VERTEX
  8
0
  6
CONTINUOUS
 10
4.468200
 20
3.871560
  0
VERTEX
  8
0
  6
CONTINUOUS
 10
4.626600
 20
3.922600
  0
VERTEX
  8
0
  6
CONTINUOUS
 10
3.985520
 20
3.557400
  0
VERTEX
  8
0
  6
CONTINUOUS
 10
3.827560
 20
3.506800
  0
SEQEND
  8
0
  0
SOLID
  8
0
 62
    15
 10
3.985520
 20
3.557400
 11
4.626600
 21
3.922600
 12
4.156240
 22
3.600080
 13
4.796880
 23
3.964840
  0
POLYLINE
  8
0
  6
CONTINUOUS
 66
     1
 40
0.000000
 41
0.000000
  0
VERTEX
  8
0
  6
CONTINUOUS
 10
3.985520
 20
3.557400
  0
VERTEX
  8
0
  6
CONTINUOUS
 10
4.626600
 20
3.922600
  0
VERTEX
  8
0
  6
CONTINUOUS
 10
4.796880
 20
3.964840
  0
VERTEX
  8
0
  6
CONTINUOUS
 10
4.156240
 20
3.600080
  0
VERTEX
  8
0
  6
CONTINUOUS
 10
3.985520
 20
3.557400
  0
SEQEND
  8
0
  0
SOLID
  8
0
 62
    15
 10
4.156240
 20
3.600080
 11
4.796880
 21
3.964840
 12
4.513960
 22
3.661240
 13
5.154600
 23
4.026000
  0
POLYLINE
  8
0
  6
CONTINUOUS
 66
     1
 40
0.000000
 41
0.000000
  0
VERTEX
  8
0
  6
CONTINUOUS
 10
4.156240
 20
3.600080
  0
VERTEX
  8
0
  6
CONTINUOUS
 10
4.796880
 20
3.964840
  0
VERTEX
  8
0
  6
CONTINUOUS
 10
5.154600
 20
4.026000
  0
VERTEX
  8
0
  6
CONTINUOUS
 10
4.513960
 20
3.661240
  0
VERTEX
  8
0
  6
CONTINUOUS
 10
4.156240
 20
3.600080
  0
SEQEND
  8
0
  0
SOLID
  8
0
 62
    15
 10
4.513960
 20
3.661240
 11
5.154600
 21
4.026000
 12
4.862000
 22
3.693360
 13
5.503080
 23
4.058120
  0
POLYLINE
  8
0
  6
CONTINUOUS
 66
     1
 40
0.000000
 41
0.000000
  0
VERTEX
  8
0
  6
CONTINUOUS
 10
4.513960
 20
3.661240
  0
VERTEX
  8
0
  6
CONTINUOUS
 10
5.154600
 20
4.026000
  0
VERTEX
  8
0
  6
CONTINUOUS
 10
5.503080
 20
4.058120
  0
VERTEX
  8
0
  6
CONTINUOUS
 10
4.862000
 20
3.693360
  0
VERTEX
  8
0
  6
CONTINUOUS
 10
4.513960
 20
3.661240
  0
SEQEND
  8
0
  0
SOLID
  8
0
 62
    15
 10
4.862000
 20
3.693360
 11
5.503080
 21
4.058120
 12
5.020840
 22
3.699520
 13
5.661480
 23
4.064280
  0
POLYLINE
  8
0
  6
CONTINUOUS
 66
     1
 40
0.000000
 41
0.000000
  0
VERTEX
  8
0
  6
CONTINUOUS
 10
4.862000
 20
3.693360
  0
VERTEX
  8
0
  6
CONTINUOUS
 10
5.503080
 20
4.058120
  0
VERTEX
  8
0
  6
CONTINUOUS
 10
5.661480
 20
4.064280
  0
VERTEX
  8
0
  6
CONTINUOUS
 10
5.020840
 20
3.699520
  0
VERTEX
  8
0
  6
CONTINUOUS
 10
4.862000
 20
3.693360
  0
SEQEND
  8
0
  0
SOLID
  8
0
 62
    15
 10
5.020840
 20
3.699520
 11
5.661480
 21
4.064280
 12
5.162520
 22
3.699520
 13
5.803600
 23
4.064280
  0
POLYLINE
  8
0
  6
CONTINUOUS
 66
     1
 40
0.000000
 41
0.000000
  0
VERTEX
  8
0
  6
CONTINUOUS
 10
5.020840
 20
3.699520
  0
VERTEX
  8
0
  6
CONTINUOUS
 10
5.661480
 20
4.064280
  0
VERTEX
  8
0
  6
CONTINUOUS
 10
5.803600
 20
4.064280
  0
VERTEX
  8
0
  6
CONTINUOUS
 10
5.162520
 20
3.699520
  0
VERTEX
  8
0
  6
CONTINUOUS
 10
5.020840
 20
3.699520
  0
SEQEND
  8
0
  0
POLYLINE
  8
0
  6
CONTINUOUS
 66
     1
 40
0.000000
 41
0.000000
  0
VERTEX
  8
0
  6
CONTINUOUS
 10
5.153280
 20
3.699080
  0
VERTEX
  8
0
  6
CONTINUOUS
 10
5.293640
 20
3.699520
  0
VERTEX
  8
0
  6
CONTINUOUS
 10
5.447640
 20
3.693800
  0
VERTEX
  8
0
  6
CONTINUOUS
 10
5.783360
 20
3.663000
  0
VERTEX
  8
0
  6
CONTINUOUS
 10
6.128320
 20
3.603160
  0
VERTEX
  8
0
  6
CONTINUOUS
 10
6.294640
 20
3.561360
  0
VERTEX
  8
0
  6
CONTINUOUS
 10
6.451280
 20
3.510760
  0
VERTEX
  8
0
  6
CONTINUOUS
 10
6.451280
 20
2.695880
  0
VERTEX
  8
0
  6
CONTINUOUS
 10
6.305200
 20
2.505360
  0
VERTEX
  8
0
  6
CONTINUOUS
 10
6.254600
 20
2.128720
  0
VERTEX
  8
0
  6
CONTINUOUS
 10
6.179360
 20
2.057440
  0
VERTEX
  8
0
  6
CONTINUOUS
 10
6.180680
 20
1.973840
  0
VERTEX
  8
0
  6
CONTINUOUS
 10
6.173200
 20
1.908280
  0
VERTEX
  8
0
  6
CONTINUOUS
 10
6.149880
 20
1.854160
  0
VERTEX
  8
0
  6
CONTINUOUS
 10
6.104120
 20
1.804440
  0
VERTEX
  8
0
  6
CONTINUOUS
 10
6.104120
 20
1.021680
  0
VERTEX
  8
0
  6
CONTINUOUS
 10
6.101920
 20
1.018600
  0
VERTEX
  8
0
  6
CONTINUOUS
 10
4.173400
 20
1.018600
  0
VERTEX
  8
0
  6
CONTINUOUS
 10
4.174720
 20
1.017720
  0
VERTEX
  8
0
  6
CONTINUOUS
 10
4.174720
 20
1.800480
  0
VERTEX
  8
0
  6
CONTINUOUS
 10
4.128960
 20
1.850640
  0
VERTEX
  8
0
  6
CONTINUOUS
 10
4.105640
 20
1.904320
  0
VERTEX
  8
0
  6
CONTINUOUS
 10
4.098160
 20
1.969880
  0
VERTEX
  8
0
  6
CONTINUOUS
 10
4.099480
 20
2.053480
  0
VERTEX
  8
0
  6
CONTINUOUS
 10
4.024240
 20
2.124760
  0
VERTEX
  8
0
  6
CONTINUOUS
 10
3.974080
 20
2.501400
  0
VERTEX
  8
0
  6
CONTINUOUS
 10
3.827560
 20
2.691920
  0
VERTEX
  8
0
  6
CONTINUOUS
 10
3.827560
 20
3.506800
  0
VERTEX
  8
0
  6
CONTINUOUS
 10
3.985520
 20
3.557400
  0
VERTEX
  8
0
  6
CONTINUOUS
 10
4.156240
 20
3.600080
  0
VERTEX
  8
0
  6
CONTINUOUS
 10
4.513960
 20
3.661240
  0
VERTEX
  8
0
  6
CONTINUOUS
 10
4.862000
 20
3.693360
  0
VERTEX
  8
0
  6
CONTINUOUS
 10
5.020840
 20
3.699520
  0
VERTEX
  8
0
  6
CONTINUOUS
 10
5.162520
 20
3.699520
  0
VERTEX
  8
0
  6
CONTINUOUS
 10
5.153280
 20
3.699080
  0
SEQEND
  8
0
  0
ENDSEC
  0
EOF
