  0
SECTION
  2
HEADER
  9
$ACADVER
  1
AC1006
  9
$EXTMIN
 10
4.763000
 20
0.583440
  9
$EXTMAX
 10
7.528400
 20
4.479200
  9
$LTSCALE
 40
0.044000
  9
$PDMODE
 70
    35
  9
$PDSIZE
 40
0.035200
  0
ENDSEC
  0
SECTION
  2
TABLES
  0
TABLE
  2
LTYPE
 70
     9
  0
LTYPE
  2
CONTINUOUS
 70
    64
  3
Solid line
 72
    65
 73
     0
 40
0.000000
  0
LTYPE
  2
DASHED
 70
    64
  3
__ __ __ __ __ __ __ __ __ __ __ __ __ __ __
 72
    65
 73
     2
 40
0.000330
 49
0.000220
 49
-0.000110
  0
LTYPE
  2
HIDDEN
 70
    64
  3
 _ _ _ _ _ _ _ _ _ _ _ _ _ _ _ _ _ _ _ _ _ _
 72
    65
 73
     2
 40
0.000165
 49
0.000110
 49
-0.000055
  0
LTYPE
  2
CENTER
 70
    64
  3
____ _ ____ _ ____ _ ____ _ ____ _ ____ _ ____
 72
    65
 73
     4
 40
0.000880
 49
0.000550
 49
-0.000110
 49
0.000110
 49
-0.000110
  0
LTYPE
  2
PHANTOM
 70
    64
  3
_____ _ _ _____ _ _ _____ _ _ _____ _ _ ____
 72
    65
 73
     6
 40
0.001100
 49
0.000550
 49
-0.000110
 49
0.000110
 49
-0.000110
 49
0.000110
 49
-0.000110
  0
LTYPE
  2
DOT
 70
    64
  3
...............................................
 72
    65
 73
     2
 40
0.000110
 49
0.000000
 49
-0.000110
  0
LTYPE
  2
DASHDOT
 70
    64
  3
__ . __ . __ . __ . __ . __ . __ . __ . __ . __
 72
    65
 73
     4
 40
0.000440
 49
0.000220
 49
-0.000110
 49
0.000000
 49
-0.000110
  0
LTYPE
  2
BORDER
 70
    64
  3
__ __ . __ __ . __ __ . __ __ . __ __ . __ __
 72
    65
 73
     6
 40
0.000770
 49
0.000220
 49
-0.000110
 49
0.000220
 49
-0.000110
 49
0.000000
 49
-0.000110
  0
LTYPE
  2
DIVIDE
 70
    64
  3
__ . . __ . . __ . . __ . . __ . . __ . . __
 72
    65
 73
     6
 40
0.000550
 49
0.000220
 49
-0.000110
 49
0.000000
 49
-0.000110
 49
0.000000
 49
-0.000110
  0
LTYPE
  2
DOTDOT
 70
    64
  3
 . .  . .  . .  . .  . .  . . 
 72
    65
 73
     5
 40
0.000242
 49
-0.000110
 49
0.000000
 49
-0.000110
 49
0.000000
 49
-0.000110
  0
ENDTAB
  0
TABLE
  2
STYLE
 70
     2
  0
STYLE
 70
     0
  2
SN0
 40
0.000000
 41
0.000440
 50
0.000000
 71
     0
 42
0.000000
  3
ROMAND
  0
STYLE
 70
    68
  2
SV0
 40
0.000000
 41
0.000440
 50
0.000000
 71
     0
 42
0.000000
  3
ROMAND
  0
ENDTAB
  0
TABLE
  2
LAYER
 70
     3
  0
LAYER
  2
FOREGROUND
 70
    64
 62
     7
  6
CONTINUOUS
  0
LAYER
  2
BACKGROUND
 70
    65
 62
    -7
  6
CONTINUOUS
  0
LAYER
  2
0
 70
    64
 62
     7
  6
CONTINUOUS
  0
ENDTAB
  0
ENDSEC
  0
SECTION
  2
ENTITIES
  0
POLYLINE
  8
FOREGROUND
  6
CONTINUOUS
 66
     1
 40
0.000000
 41
0.000000
  0
VERTEX
  8
FOREGROUND
  6
CONTINUOUS
 10
0.000000
 20
5.062640
  0
VERTEX
  8
FOREGROUND
  6
CONTINUOUS
 10
8.499920
 20
5.062640
  0
VERTEX
  8
FOREGROUND
  6
CONTINUOUS
 10
8.499920
 20
-5.937360
  0
VERTEX
  8
FOREGROUND
  6
CONTINUOUS
 10
0.000000
 20
-5.937360
  0
VERTEX
  8
FOREGROUND
  6
CONTINUOUS
 10
0.000000
 20
5.062640
  0
SEQEND
  8
0
  0
POLYLINE
  8
FOREGROUND
  6
CONTINUOUS
 66
     1
 40
0.000000
 41
0.000000
  0
VERTEX
  8
FOREGROUND
  6
CONTINUOUS
 10
0.000000
 20
5.062640
  0
VERTEX
  8
FOREGROUND
  6
CONTINUOUS
 10
8.499920
 20
5.062640
  0
VERTEX
  8
FOREGROUND
  6
CONTINUOUS
 10
8.499920
 20
-5.937360
  0
VERTEX
  8
FOREGROUND
  6
CONTINUOUS
 10
0.000000
 20
-5.937360
  0
VERTEX
  8
FOREGROUND
  6
CONTINUOUS
 10
0.000000
 20
5.062640
  0
SEQEND
  8
0
  0
POLYLINE
  8
0
  6
CONTINUOUS
 66
     1
 40
0.014080
 41
0.014080
  0
VERTEX
  8
0
  6
CONTINUOUS
 10
5.658400
 20
4.090240
  0
VERTEX
  8
0
  6
CONTINUOUS
 10
5.662360
 20
4.102120
  0
VERTEX
  8
0
  6
CONTINUOUS
 10
5.668080
 20
4.113120
  0
VERTEX
  8
0
  6
CONTINUOUS
 10
5.675560
 20
4.122800
  0
VERTEX
  8
0
  6
CONTINUOUS
 10
5.694480
 20
4.137760
  0
VERTEX
  8
0
  6
CONTINUOUS
 10
5.705040
 20
4.142600
  0
VERTEX
  8
0
  6
CONTINUOUS
 10
5.716920
 20
4.145680
  0
VERTEX
  8
0
  6
CONTINUOUS
 10
5.736720
 20
4.146120
  0
VERTEX
  8
0
  6
CONTINUOUS
 10
5.757840
 20
4.140400
  0
VERTEX
  8
0
  6
CONTINUOUS
 10
5.776320
 20
4.128960
  0
VERTEX
  8
0
  6
CONTINUOUS
 10
5.790840
 20
4.112680
  0
VERTEX
  8
0
  6
CONTINUOUS
 10
5.800520
 20
4.093320
  0
VERTEX
  8
0
  6
CONTINUOUS
 10
5.803600
 20
4.079240
  0
VERTEX
  8
0
  6
CONTINUOUS
 10
5.804040
 20
4.071760
  0
VERTEX
  8
0
  6
CONTINUOUS
 10
5.868720
 20
4.069560
  0
VERTEX
  8
0
  6
CONTINUOUS
 10
5.872680
 20
4.081440
  0
VERTEX
  8
0
  6
CONTINUOUS
 10
5.878400
 20
4.092440
  0
VERTEX
  8
0
  6
CONTINUOUS
 10
5.885880
 20
4.102120
  0
VERTEX
  8
0
  6
CONTINUOUS
 10
5.904800
 20
4.117080
  0
VERTEX
  8
0
  6
CONTINUOUS
 10
5.915360
 20
4.121920
  0
VERTEX
  8
0
  6
CONTINUOUS
 10
5.927240
 20
4.125000
  0
VERTEX
  8
0
  6
CONTINUOUS
 10
5.947040
 20
4.125440
  0
VERTEX
  8
0
  6
CONTINUOUS
 10
5.968160
 20
4.119720
  0
VERTEX
  8
0
  6
CONTINUOUS
 10
5.986640
 20
4.108280
  0
VERTEX
  8
0
  6
CONTINUOUS
 10
6.001160
 20
4.092000
  0
VERTEX
  8
0
  6
CONTINUOUS
 10
6.010840
 20
4.072200
  0
VERTEX
  8
0
  6
CONTINUOUS
 10
6.013920
 20
4.058120
  0
VERTEX
  8
0
  6
CONTINUOUS
 10
6.014360
 20
4.050640
  0
VERTEX
  8
0
  6
CONTINUOUS
 10
6.079040
 20
4.046680
  0
VERTEX
  8
0
  6
CONTINUOUS
 10
6.083000
 20
4.060760
  0
VERTEX
  8
0
  6
CONTINUOUS
 10
6.088720
 20
4.071760
  0
VERTEX
  8
0
  6
CONTINUOUS
 10
6.105000
 20
4.089360
  0
VERTEX
  8
0
  6
CONTINUOUS
 10
6.125680
 20
4.101240
  0
VERTEX
  8
0
  6
CONTINUOUS
 10
6.137560
 20
4.104320
  0
VERTEX
  8
0
  6
CONTINUOUS
 10
6.157360
 20
4.104760
  0
VERTEX
  8
0
  6
CONTINUOUS
 10
6.178480
 20
4.099040
  0
VERTEX
  8
0
  6
CONTINUOUS
 10
6.196960
 20
4.087600
  0
VERTEX
  8
0
  6
CONTINUOUS
 10
6.211920
 20
4.071320
  0
VERTEX
  8
0
  6
CONTINUOUS
 10
6.221600
 20
4.051520
  0
VERTEX
  8
0
  6
CONTINUOUS
 10
6.224680
 20
4.037440
  0
VERTEX
  8
0
  6
CONTINUOUS
 10
6.225120
 20
4.027760
  0
VERTEX
  8
0
  6
CONTINUOUS
 10
6.289360
 20
4.027760
  0
VERTEX
  8
0
  6
CONTINUOUS
 10
6.289360
 20
4.071760
  0
VERTEX
  8
0
  6
CONTINUOUS
 10
6.452160
 20
4.044480
  0
VERTEX
  8
0
  6
CONTINUOUS
 10
6.452160
 20
3.921720
  0
VERTEX
  8
0
  6
CONTINUOUS
 10
6.495720
 20
3.920400
  0
VERTEX
  8
0
  6
CONTINUOUS
 10
6.551600
 20
3.913800
  0
VERTEX
  8
0
  6
CONTINUOUS
 10
6.582840
 20
3.906320
  0
VERTEX
  8
0
  6
CONTINUOUS
 10
6.610120
 20
3.896640
  0
VERTEX
  8
0
  6
CONTINUOUS
 10
6.643560
 20
3.878160
  0
VERTEX
  8
0
  6
CONTINUOUS
 10
6.669080
 20
3.855720
  0
VERTEX
  8
0
  6
CONTINUOUS
 10
6.682280
 20
3.838560
  0
VERTEX
  8
0
  6
CONTINUOUS
 10
6.696800
 20
3.809520
  0
VERTEX
  8
0
  6
CONTINUOUS
 10
6.703400
 20
3.788840
  0
VERTEX
  8
0
  6
CONTINUOUS
 10
6.710880
 20
3.743960
  0
VERTEX
  8
0
  6
CONTINUOUS
 10
6.712640
 20
3.695120
  0
VERTEX
  8
0
  6
CONTINUOUS
 10
6.712200
 20
3.669600
  0
VERTEX
  8
0
  6
CONTINUOUS
 10
5.029200
 20
3.669600
  0
VERTEX
  8
0
  6
CONTINUOUS
 10
5.029200
 20
3.811280
  0
VERTEX
  8
0
  6
CONTINUOUS
 10
5.002360
 20
3.819200
  0
VERTEX
  8
0
  6
CONTINUOUS
 10
4.975960
 20
3.829320
  0
VERTEX
  8
0
  6
CONTINUOUS
 10
4.951320
 20
3.841200
  0
VERTEX
  8
0
  6
CONTINUOUS
 10
4.927120
 20
3.855720
  0
VERTEX
  8
0
  6
CONTINUOUS
 10
4.904680
 20
3.871560
  0
VERTEX
  8
0
  6
CONTINUOUS
 10
4.883120
 20
3.889600
  0
VERTEX
  8
0
  6
CONTINUOUS
 10
4.863320
 20
3.908960
  0
VERTEX
  8
0
  6
CONTINUOUS
 10
4.845280
 20
3.930080
  0
VERTEX
  8
0
  6
CONTINUOUS
 10
4.829000
 20
3.952520
  0
VERTEX
  8
0
  6
CONTINUOUS
 10
4.814040
 20
3.976280
  0
VERTEX
  8
0
  6
CONTINUOUS
 10
4.801280
 20
4.001360
  0
VERTEX
  8
0
  6
CONTINUOUS
 10
4.790720
 20
4.026880
  0
VERTEX
  8
0
  6
CONTINUOUS
 10
4.778840
 20
4.067360
  0
VERTEX
  8
0
  6
CONTINUOUS
 10
4.772240
 20
4.109600
  0
VERTEX
  8
0
  6
CONTINUOUS
 10
4.770920
 20
4.138200
  0
VERTEX
  8
0
  6
CONTINUOUS
 10
4.772680
 20
4.171640
  0
VERTEX
  8
0
  6
CONTINUOUS
 10
4.777960
 20
4.204640
  0
VERTEX
  8
0
  6
CONTINUOUS
 10
4.786320
 20
4.236320
  0
VERTEX
  8
0
  6
CONTINUOUS
 10
4.797320
 20
4.266680
  0
VERTEX
  8
0
  6
CONTINUOUS
 10
4.819760
 20
4.309800
  0
VERTEX
  8
0
  6
CONTINUOUS
 10
4.837800
 20
4.336640
  0
VERTEX
  8
0
  6
CONTINUOUS
 10
4.869480
 20
4.372720
  0
VERTEX
  8
0
  6
CONTINUOUS
 10
4.893240
 20
4.394720
  0
VERTEX
  8
0
  6
CONTINUOUS
 10
4.932400
 20
4.422880
  0
VERTEX
  8
0
  6
CONTINUOUS
 10
4.960560
 20
4.438280
  0
VERTEX
  8
0
  6
CONTINUOUS
 10
5.005880
 20
4.456320
  0
VERTEX
  8
0
  6
CONTINUOUS
 10
5.037560
 20
4.464680
  0
VERTEX
  8
0
  6
CONTINUOUS
 10
5.070560
 20
4.469960
  0
VERTEX
  8
0
  6
CONTINUOUS
 10
5.104000
 20
4.471720
  0
VERTEX
  8
0
  6
CONTINUOUS
 10
5.134360
 20
4.470400
  0
VERTEX
  8
0
  6
CONTINUOUS
 10
5.178360
 20
4.463360
  0
VERTEX
  8
0
  6
CONTINUOUS
 10
5.220600
 20
4.450600
  0
VERTEX
  8
0
  6
CONTINUOUS
 10
5.260200
 20
4.432560
  0
VERTEX
  8
0
  6
CONTINUOUS
 10
5.297600
 20
4.409680
  0
VERTEX
  8
0
  6
CONTINUOUS
 10
5.320480
 20
4.392080
  0
VERTEX
  8
0
  6
CONTINUOUS
 10
5.342040
 20
4.372720
  0
VERTEX
  8
0
  6
CONTINUOUS
 10
5.361400
 20
4.351600
  0
VERTEX
  8
0
  6
CONTINUOUS
 10
5.387360
 20
4.316840
  0
VERTEX
  8
0
  6
CONTINUOUS
 10
5.402320
 20
4.292200
  0
VERTEX
  8
0
  6
CONTINUOUS
 10
5.419920
 20
4.252600
  0
VERTEX
  8
0
  6
CONTINUOUS
 10
5.432680
 20
4.211240
  0
VERTEX
  8
0
  6
CONTINUOUS
 10
5.435320
 20
4.196720
  0
VERTEX
  8
0
  6
CONTINUOUS
 10
5.554120
 20
4.196720
  0
VERTEX
  8
0
  6
CONTINUOUS
 10
5.554120
 20
4.086280
  0
VERTEX
  8
0
  6
CONTINUOUS
 10
5.656200
 20
4.086280
  0
VERTEX
  8
0
  6
CONTINUOUS
 10
5.658400
 20
4.090240
  0
SEQEND
  8
0
  0
SOLID
  8
0
 62
    15
 10
6.326760
 20
1.675080
 11
6.977960
 21
1.304160
 12
6.325440
 22
1.631520
 13
6.976640
 23
1.260600
  0
POLYLINE
  8
0
  6
CONTINUOUS
 66
     1
 40
0.000000
 41
0.000000
  0
VERTEX
  8
0
  6
CONTINUOUS
 10
6.326760
 20
1.675080
  0
VERTEX
  8
0
  6
CONTINUOUS
 10
6.977960
 20
1.304160
  0
VERTEX
  8
0
  6
CONTINUOUS
 10
6.976640
 20
1.260600
  0
VERTEX
  8
0
  6
CONTINUOUS
 10
6.325440
 20
1.631520
  0
VERTEX
  8
0
  6
CONTINUOUS
 10
6.326760
 20
1.675080
  0
SEQEND
  8
0
  0
SOLID
  8
0
 62
    15
 10
6.536200
 20
2.442880
 11
7.187400
 21
2.071960
 12
6.547640
 22
2.421760
 13
7.198840
 23
2.051280
  0
POLYLINE
  8
0
  6
CONTINUOUS
 66
     1
 40
0.000000
 41
0.000000
  0
VERTEX
  8
0
  6
CONTINUOUS
 10
6.536200
 20
2.442880
  0
VERTEX
  8
0
  6
CONTINUOUS
 10
7.187400
 20
2.071960
  0
VERTEX
  8
0
  6
CONTINUOUS
 10
7.198840
 20
2.051280
  0
VERTEX
  8
0
  6
CONTINUOUS
 10
6.547640
 20
2.421760
  0
VERTEX
  8
0
  6
CONTINUOUS
 10
6.536200
 20
2.442880
  0
SEQEND
  8
0
  0
SOLID
  8
0
 62
    15
 10
6.547640
 20
2.421760
 11
7.198840
 21
2.051280
 12
6.551600
 22
2.398000
 13
7.203240
 23
2.027080
  0
POLYLINE
  8
0
  6
CONTINUOUS
 66
     1
 40
0.000000
 41
0.000000
  0
VERTEX
  8
0
  6
CONTINUOUS
 10
6.547640
 20
2.421760
  0
VERTEX
  8
0
  6
CONTINUOUS
 10
7.198840
 20
2.051280
  0
VERTEX
  8
0
  6
CONTINUOUS
 10
7.203240
 20
2.027080
  0
VERTEX
  8
0
  6
CONTINUOUS
 10
6.551600
 20
2.398000
  0
VERTEX
  8
0
  6
CONTINUOUS
 10
6.547640
 20
2.421760
  0
SEQEND
  8
0
  0
SOLID
  8
0
 62
    15
 10
6.551600
 20
2.398000
 11
7.203240
 21
2.027080
 12
6.545440
 22
2.369400
 13
7.197080
 23
1.998920
  0
POLYLINE
  8
0
  6
CONTINUOUS
 66
     1
 40
0.000000
 41
0.000000
  0
VERTEX
  8
0
  6
CONTINUOUS
 10
6.551600
 20
2.398000
  0
VERTEX
  8
0
  6
CONTINUOUS
 10
7.203240
 20
2.027080
  0
VERTEX
  8
0
  6
CONTINUOUS
 10
7.197080
 20
1.998920
  0
VERTEX
  8
0
  6
CONTINUOUS
 10
6.545440
 20
2.369400
  0
VERTEX
  8
0
  6
CONTINUOUS
 10
6.551600
 20
2.398000
  0
SEQEND
  8
0
  0
SOLID
  8
0
 62
    15
 10
6.545440
 20
2.369400
 11
7.197080
 21
1.998920
 12
6.529160
 22
2.345640
 13
7.180360
 23
1.974720
  0
POLYLINE
  8
0
  6
CONTINUOUS
 66
     1
 40
0.000000
 41
0.000000
  0
VERTEX
  8
0
  6
CONTINUOUS
 10
6.545440
 20
2.369400
  0
VERTEX
  8
0
  6
CONTINUOUS
 10
7.197080
 20
1.998920
  0
VERTEX
  8
0
  6
CONTINUOUS
 10
7.180360
 20
1.974720
  0
VERTEX
  8
0
  6
CONTINUOUS
 10
6.529160
 20
2.345640
  0
VERTEX
  8
0
  6
CONTINUOUS
 10
6.545440
 20
2.369400
  0
SEQEND
  8
0
  0
SOLID
  8
0
 62
    15
 10
6.529160
 20
2.345640
 11
7.180360
 21
1.974720
 12
6.504960
 22
2.328920
 13
7.156600
 23
1.958440
  0
POLYLINE
  8
0
  6
CONTINUOUS
 66
     1
 40
0.000000
 41
0.000000
  0
VERTEX
  8
0
  6
CONTINUOUS
 10
6.529160
 20
2.345640
  0
VERTEX
  8
0
  6
CONTINUOUS
 10
7.180360
 20
1.974720
  0
VERTEX
  8
0
  6
CONTINUOUS
 10
7.156600
 20
1.958440
  0
VERTEX
  8
0
  6
CONTINUOUS
 10
6.504960
 20
2.328920
  0
VERTEX
  8
0
  6
CONTINUOUS
 10
6.529160
 20
2.345640
  0
SEQEND
  8
0
  0
SOLID
  8
0
 62
    15
 10
6.504960
 20
2.328920
 11
7.156600
 21
1.958440
 12
6.476360
 22
2.322760
 13
7.128000
 23
1.952280
  0
POLYLINE
  8
0
  6
CONTINUOUS
 66
     1
 40
0.000000
 41
0.000000
  0
VERTEX
  8
0
  6
CONTINUOUS
 10
6.504960
 20
2.328920
  0
VERTEX
  8
0
  6
CONTINUOUS
 10
7.156600
 20
1.958440
  0
VERTEX
  8
0
  6
CONTINUOUS
 10
7.128000
 20
1.952280
  0
VERTEX
  8
0
  6
CONTINUOUS
 10
6.476360
 20
2.322760
  0
VERTEX
  8
0
  6
CONTINUOUS
 10
6.504960
 20
2.328920
  0
SEQEND
  8
0
  0
SOLID
  8
0
 62
    15
 10
6.476360
 20
2.322760
 11
7.128000
 21
1.952280
 12
6.474600
 22
2.258520
 13
7.126240
 23
1.887600
  0
POLYLINE
  8
0
  6
CONTINUOUS
 66
     1
 40
0.000000
 41
0.000000
  0
VERTEX
  8
0
  6
CONTINUOUS
 10
6.476360
 20
2.322760
  0
VERTEX
  8
0
  6
CONTINUOUS
 10
7.128000
 20
1.952280
  0
VERTEX
  8
0
  6
CONTINUOUS
 10
7.126240
 20
1.887600
  0
VERTEX
  8
0
  6
CONTINUOUS
 10
6.474600
 20
2.258520
  0
VERTEX
  8
0
  6
CONTINUOUS
 10
6.476360
 20
2.322760
  0
SEQEND
  8
0
  0
SOLID
  8
0
 62
    15
 10
6.497480
 20
2.248400
 11
7.149120
 21
1.877480
 12
6.515080
 22
2.232120
 13
7.166720
 23
1.861640
  0
POLYLINE
  8
0
  6
CONTINUOUS
 66
     1
 40
0.000000
 41
0.000000
  0
VERTEX
  8
0
  6
CONTINUOUS
 10
6.497480
 20
2.248400
  0
VERTEX
  8
0
  6
CONTINUOUS
 10
7.149120
 20
1.877480
  0
VERTEX
  8
0
  6
CONTINUOUS
 10
7.166720
 20
1.861640
  0
VERTEX
  8
0
  6
CONTINUOUS
 10
6.515080
 20
2.232120
  0
VERTEX
  8
0
  6
CONTINUOUS
 10
6.497480
 20
2.248400
  0
SEQEND
  8
0
  0
SOLID
  8
0
 62
    15
 10
6.515080
 20
2.232120
 11
7.166720
 21
1.861640
 12
6.526520
 22
2.211440
 13
7.178160
 23
1.840520
  0
POLYLINE
  8
0
  6
CONTINUOUS
 66
     1
 40
0.000000
 41
0.000000
  0
VERTEX
  8
0
  6
CONTINUOUS
 10
6.515080
 20
2.232120
  0
VERTEX
  8
0
  6
CONTINUOUS
 10
7.166720
 20
1.861640
  0
VERTEX
  8
0
  6
CONTINUOUS
 10
7.178160
 20
1.840520
  0
VERTEX
  8
0
  6
CONTINUOUS
 10
6.526520
 20
2.211440
  0
VERTEX
  8
0
  6
CONTINUOUS
 10
6.515080
 20
2.232120
  0
SEQEND
  8
0
  0
SOLID
  8
0
 62
    15
 10
6.526520
 20
2.211440
 11
7.178160
 21
1.840520
 12
6.530920
 22
2.187680
 13
7.182120
 23
1.816760
  0
POLYLINE
  8
0
  6
CONTINUOUS
 66
     1
 40
0.000000
 41
0.000000
  0
VERTEX
  8
0
  6
CONTINUOUS
 10
6.526520
 20
2.211440
  0
VERTEX
  8
0
  6
CONTINUOUS
 10
7.178160
 20
1.840520
  0
VERTEX
  8
0
  6
CONTINUOUS
 10
7.182120
 20
1.816760
  0
VERTEX
  8
0
  6
CONTINUOUS
 10
6.530920
 20
2.187680
  0
VERTEX
  8
0
  6
CONTINUOUS
 10
6.526520
 20
2.211440
  0
SEQEND
  8
0
  0
SOLID
  8
0
 62
    15
 10
6.530920
 20
2.187680
 11
7.182120
 21
1.816760
 12
6.524760
 22
2.159080
 13
7.176400
 23
1.788160
  0
POLYLINE
  8
0
  6
CONTINUOUS
 66
     1
 40
0.000000
 41
0.000000
  0
VERTEX
  8
0
  6
CONTINUOUS
 10
6.530920
 20
2.187680
  0
VERTEX
  8
0
  6
CONTINUOUS
 10
7.182120
 20
1.816760
  0
VERTEX
  8
0
  6
CONTINUOUS
 10
7.176400
 20
1.788160
  0
VERTEX
  8
0
  6
CONTINUOUS
 10
6.524760
 20
2.159080
  0
VERTEX
  8
0
  6
CONTINUOUS
 10
6.530920
 20
2.187680
  0
SEQEND
  8
0
  0
SOLID
  8
0
 62
    15
 10
6.524760
 20
2.159080
 11
7.176400
 21
1.788160
 12
6.508040
 22
2.135320
 13
7.159680
 23
1.764400
  0
POLYLINE
  8
0
  6
CONTINUOUS
 66
     1
 40
0.000000
 41
0.000000
  0
VERTEX
  8
0
  6
CONTINUOUS
 10
6.524760
 20
2.159080
  0
VERTEX
  8
0
  6
CONTINUOUS
 10
7.176400
 20
1.788160
  0
VERTEX
  8
0
  6
CONTINUOUS
 10
7.159680
 20
1.764400
  0
VERTEX
  8
0
  6
CONTINUOUS
 10
6.508040
 20
2.135320
  0
VERTEX
  8
0
  6
CONTINUOUS
 10
6.524760
 20
2.159080
  0
SEQEND
  8
0
  0
SOLID
  8
0
 62
    15
 10
6.508040
 20
2.135320
 11
7.159680
 21
1.764400
 12
6.484280
 22
2.118600
 13
7.135920
 23
1.747680
  0
POLYLINE
  8
0
  6
CONTINUOUS
 66
     1
 40
0.000000
 41
0.000000
  0
VERTEX
  8
0
  6
CONTINUOUS
 10
6.508040
 20
2.135320
  0
VERTEX
  8
0
  6
CONTINUOUS
 10
7.159680
 20
1.764400
  0
VERTEX
  8
0
  6
CONTINUOUS
 10
7.135920
 20
1.747680
  0
VERTEX
  8
0
  6
CONTINUOUS
 10
6.484280
 20
2.118600
  0
VERTEX
  8
0
  6
CONTINUOUS
 10
6.508040
 20
2.135320
  0
SEQEND
  8
0
  0
SOLID
  8
0
 62
    15
 10
6.484280
 20
2.118600
 11
7.135920
 21
1.747680
 12
6.455680
 22
2.112440
 13
7.107320
 23
1.741520
  0
POLYLINE
  8
0
  6
CONTINUOUS
 66
     1
 40
0.000000
 41
0.000000
  0
VERTEX
  8
0
  6
CONTINUOUS
 10
6.484280
 20
2.118600
  0
VERTEX
  8
0
  6
CONTINUOUS
 10
7.135920
 20
1.747680
  0
VERTEX
  8
0
  6
CONTINUOUS
 10
7.107320
 20
1.741520
  0
VERTEX
  8
0
  6
CONTINUOUS
 10
6.455680
 20
2.112440
  0
VERTEX
  8
0
  6
CONTINUOUS
 10
6.484280
 20
2.118600
  0
SEQEND
  8
0
  0
SOLID
  8
0
 62
    15
 10
6.455680
 20
2.112440
 11
7.107320
 21
1.741520
 12
6.451720
 22
2.047760
 13
7.103360
 23
1.677280
  0
POLYLINE
  8
0
  6
CONTINUOUS
 66
     1
 40
0.000000
 41
0.000000
  0
VERTEX
  8
0
  6
CONTINUOUS
 10
6.455680
 20
2.112440
  0
VERTEX
  8
0
  6
CONTINUOUS
 10
7.107320
 20
1.741520
  0
VERTEX
  8
0
  6
CONTINUOUS
 10
7.103360
 20
1.677280
  0
VERTEX
  8
0
  6
CONTINUOUS
 10
6.451720
 20
2.047760
  0
VERTEX
  8
0
  6
CONTINUOUS
 10
6.455680
 20
2.112440
  0
SEQEND
  8
0
  0
SOLID
  8
0
 62
    15
 10
6.476360
 20
2.038080
 11
7.128000
 21
1.667160
 12
6.494400
 22
2.021800
 13
7.146040
 23
1.650880
  0
POLYLINE
  8
0
  6
CONTINUOUS
 66
     1
 40
0.000000
 41
0.000000
  0
VERTEX
  8
0
  6
CONTINUOUS
 10
6.476360
 20
2.038080
  0
VERTEX
  8
0
  6
CONTINUOUS
 10
7.128000
 20
1.667160
  0
VERTEX
  8
0
  6
CONTINUOUS
 10
7.146040
 20
1.650880
  0
VERTEX
  8
0
  6
CONTINUOUS
 10
6.494400
 20
2.021800
  0
VERTEX
  8
0
  6
CONTINUOUS
 10
6.476360
 20
2.038080
  0
SEQEND
  8
0
  0
SOLID
  8
0
 62
    15
 10
6.494400
 20
2.021800
 11
7.146040
 21
1.650880
 12
6.505840
 22
2.001120
 13
7.157480
 23
1.630200
  0
POLYLINE
  8
0
  6
CONTINUOUS
 66
     1
 40
0.000000
 41
0.000000
  0
VERTEX
  8
0
  6
CONTINUOUS
 10
6.494400
 20
2.021800
  0
VERTEX
  8
0
  6
CONTINUOUS
 10
7.146040
 20
1.650880
  0
VERTEX
  8
0
  6
CONTINUOUS
 10
7.157480
 20
1.630200
  0
VERTEX
  8
0
  6
CONTINUOUS
 10
6.505840
 20
2.001120
  0
VERTEX
  8
0
  6
CONTINUOUS
 10
6.494400
 20
2.021800
  0
SEQEND
  8
0
  0
SOLID
  8
0
 62
    15
 10
6.505840
 20
2.001120
 11
7.157480
 21
1.630200
 12
6.509800
 22
1.976920
 13
7.161440
 23
1.606440
  0
POLYLINE
  8
0
  6
CONTINUOUS
 66
     1
 40
0.000000
 41
0.000000
  0
VERTEX
  8
0
  6
CONTINUOUS
 10
6.505840
 20
2.001120
  0
VERTEX
  8
0
  6
CONTINUOUS
 10
7.157480
 20
1.630200
  0
VERTEX
  8
0
  6
CONTINUOUS
 10
7.161440
 20
1.606440
  0
VERTEX
  8
0
  6
CONTINUOUS
 10
6.509800
 20
1.976920
  0
VERTEX
  8
0
  6
CONTINUOUS
 10
6.505840
 20
2.001120
  0
SEQEND
  8
0
  0
SOLID
  8
0
 62
    15
 10
6.509800
 20
1.976920
 11
7.161440
 21
1.606440
 12
6.503640
 22
1.948760
 13
7.155280
 23
1.577840
  0
POLYLINE
  8
0
  6
CONTINUOUS
 66
     1
 40
0.000000
 41
0.000000
  0
VERTEX
  8
0
  6
CONTINUOUS
 10
6.509800
 20
1.976920
  0
VERTEX
  8
0
  6
CONTINUOUS
 10
7.161440
 20
1.606440
  0
VERTEX
  8
0
  6
CONTINUOUS
 10
7.155280
 20
1.577840
  0
VERTEX
  8
0
  6
CONTINUOUS
 10
6.503640
 20
1.948760
  0
VERTEX
  8
0
  6
CONTINUOUS
 10
6.509800
 20
1.976920
  0
SEQEND
  8
0
  0
SOLID
  8
0
 62
    15
 10
6.503640
 20
1.948760
 11
7.155280
 21
1.577840
 12
6.487360
 22
1.924560
 13
7.139000
 23
1.554080
  0
POLYLINE
  8
0
  6
CONTINUOUS
 66
     1
 40
0.000000
 41
0.000000
  0
VERTEX
  8
0
  6
CONTINUOUS
 10
6.503640
 20
1.948760
  0
VERTEX
  8
0
  6
CONTINUOUS
 10
7.155280
 20
1.577840
  0
VERTEX
  8
0
  6
CONTINUOUS
 10
7.139000
 20
1.554080
  0
VERTEX
  8
0
  6
CONTINUOUS
 10
6.487360
 20
1.924560
  0
VERTEX
  8
0
  6
CONTINUOUS
 10
6.503640
 20
1.948760
  0
SEQEND
  8
0
  0
SOLID
  8
0
 62
    15
 10
6.487360
 20
1.924560
 11
7.139000
 21
1.554080
 12
6.463600
 22
1.908280
 13
7.114800
 23
1.537360
  0
POLYLINE
  8
0
  6
CONTINUOUS
 66
     1
 40
0.000000
 41
0.000000
  0
VERTEX
  8
0
  6
CONTINUOUS
 10
6.487360
 20
1.924560
  0
VERTEX
  8
0
  6
CONTINUOUS
 10
7.139000
 20
1.554080
  0
VERTEX
  8
0
  6
CONTINUOUS
 10
7.114800
 20
1.537360
  0
VERTEX
  8
0
  6
CONTINUOUS
 10
6.463600
 20
1.908280
  0
VERTEX
  8
0
  6
CONTINUOUS
 10
6.487360
 20
1.924560
  0
SEQEND
  8
0
  0
SOLID
  8
0
 62
    15
 10
6.463600
 20
1.908280
 11
7.114800
 21
1.537360
 12
6.435000
 22
1.902120
 13
7.086640
 23
1.531200
  0
POLYLINE
  8
0
  6
CONTINUOUS
 66
     1
 40
0.000000
 41
0.000000
  0
VERTEX
  8
0
  6
CONTINUOUS
 10
6.463600
 20
1.908280
  0
VERTEX
  8
0
  6
CONTINUOUS
 10
7.114800
 20
1.537360
  0
VERTEX
  8
0
  6
CONTINUOUS
 10
7.086640
 20
1.531200
  0
VERTEX
  8
0
  6
CONTINUOUS
 10
6.435000
 20
1.902120
  0
VERTEX
  8
0
  6
CONTINUOUS
 10
6.463600
 20
1.908280
  0
SEQEND
  8
0
  0
SOLID
  8
0
 62
    15
 10
6.435000
 20
1.902120
 11
7.086640
 21
1.531200
 12
6.432800
 22
1.902120
 13
7.084440
 23
1.531200
  0
POLYLINE
  8
0
  6
CONTINUOUS
 66
     1
 40
0.000000
 41
0.000000
  0
VERTEX
  8
0
  6
CONTINUOUS
 10
6.435000
 20
1.902120
  0
VERTEX
  8
0
  6
CONTINUOUS
 10
7.086640
 20
1.531200
  0
VERTEX
  8
0
  6
CONTINUOUS
 10
7.084440
 20
1.531200
  0
VERTEX
  8
0
  6
CONTINUOUS
 10
6.432800
 20
1.902120
  0
VERTEX
  8
0
  6
CONTINUOUS
 10
6.435000
 20
1.902120
  0
SEQEND
  8
0
  0
SOLID
  8
0
 62
    15
 10
6.432800
 20
1.902120
 11
7.084440
 21
1.531200
 12
6.432800
 22
1.837440
 13
7.084440
 23
1.466520
  0
POLYLINE
  8
0
  6
CONTINUOUS
 66
     1
 40
0.000000
 41
0.000000
  0
VERTEX
  8
0
  6
CONTINUOUS
 10
6.432800
 20
1.902120
  0
VERTEX
  8
0
  6
CONTINUOUS
 10
7.084440
 20
1.531200
  0
VERTEX
  8
0
  6
CONTINUOUS
 10
7.084440
 20
1.466520
  0
VERTEX
  8
0
  6
CONTINUOUS
 10
6.432800
 20
1.837440
  0
VERTEX
  8
0
  6
CONTINUOUS
 10
6.432800
 20
1.902120
  0
SEQEND
  8
0
  0
SOLID
  8
0
 62
    15
 10
6.476800
 20
1.837440
 11
7.128000
 21
1.466520
 12
6.449520
 22
1.675080
 13
7.101160
 23
1.304160
  0
POLYLINE
  8
0
  6
CONTINUOUS
 66
     1
 40
0.000000
 41
0.000000
  0
VERTEX
  8
0
  6
CONTINUOUS
 10
6.476800
 20
1.837440
  0
VERTEX
  8
0
  6
CONTINUOUS
 10
7.128000
 20
1.466520
  0
VERTEX
  8
0
  6
CONTINUOUS
 10
7.101160
 20
1.304160
  0
VERTEX
  8
0
  6
CONTINUOUS
 10
6.449520
 20
1.675080
  0
VERTEX
  8
0
  6
CONTINUOUS
 10
6.476800
 20
1.837440
  0
SEQEND
  8
0
  0
SOLID
  8
0
 62
    15
 10
6.449520
 20
1.675080
 11
7.101160
 21
1.304160
 12
6.326760
 22
1.675080
 13
6.977960
 23
1.304160
  0
POLYLINE
  8
0
  6
CONTINUOUS
 66
     1
 40
0.000000
 41
0.000000
  0
VERTEX
  8
0
  6
CONTINUOUS
 10
6.449520
 20
1.675080
  0
VERTEX
  8
0
  6
CONTINUOUS
 10
7.101160
 20
1.304160
  0
VERTEX
  8
0
  6
CONTINUOUS
 10
6.977960
 20
1.304160
  0
VERTEX
  8
0
  6
CONTINUOUS
 10
6.326760
 20
1.675080
  0
VERTEX
  8
0
  6
CONTINUOUS
 10
6.449520
 20
1.675080
  0
SEQEND
  8
0
  0
SOLID
  8
0
 62
    15
 10
6.491320
 20
2.573120
 11
7.142520
 21
2.202200
 12
6.491320
 22
2.471040
 13
7.142520
 23
2.100120
  0
POLYLINE
  8
0
  6
CONTINUOUS
 66
     1
 40
0.000000
 41
0.000000
  0
VERTEX
  8
0
  6
CONTINUOUS
 10
6.491320
 20
2.573120
  0
VERTEX
  8
0
  6
CONTINUOUS
 10
7.142520
 20
2.202200
  0
VERTEX
  8
0
  6
CONTINUOUS
 10
7.142520
 20
2.100120
  0
VERTEX
  8
0
  6
CONTINUOUS
 10
6.491320
 20
2.471040
  0
VERTEX
  8
0
  6
CONTINUOUS
 10
6.491320
 20
2.573120
  0
SEQEND
  8
0
  0
SOLID
  8
0
 62
    15
 10
6.325440
 20
1.631520
 11
6.976640
 21
1.260600
 12
6.321480
 22
1.593240
 13
6.973120
 23
1.222320
  0
POLYLINE
  8
0
  6
CONTINUOUS
 66
     1
 40
0.000000
 41
0.000000
  0
VERTEX
  8
0
  6
CONTINUOUS
 10
6.325440
 20
1.631520
  0
VERTEX
  8
0
  6
CONTINUOUS
 10
6.976640
 20
1.260600
  0
VERTEX
  8
0
  6
CONTINUOUS
 10
6.973120
 20
1.222320
  0
VERTEX
  8
0
  6
CONTINUOUS
 10
6.321480
 20
1.593240
  0
VERTEX
  8
0
  6
CONTINUOUS
 10
6.325440
 20
1.631520
  0
SEQEND
  8
0
  0
SOLID
  8
0
 62
    15
 10
6.321480
 20
1.593240
 11
6.973120
 21
1.222320
 12
6.315320
 22
1.559360
 13
6.966520
 23
1.188440
  0
POLYLINE
  8
0
  6
CONTINUOUS
 66
     1
 40
0.000000
 41
0.000000
  0
VERTEX
  8
0
  6
CONTINUOUS
 10
6.321480
 20
1.593240
  0
VERTEX
  8
0
  6
CONTINUOUS
 10
6.973120
 20
1.222320
  0
VERTEX
  8
0
  6
CONTINUOUS
 10
6.966520
 20
1.188440
  0
VERTEX
  8
0
  6
CONTINUOUS
 10
6.315320
 20
1.559360
  0
VERTEX
  8
0
  6
CONTINUOUS
 10
6.321480
 20
1.593240
  0
SEQEND
  8
0
  0
SOLID
  8
0
 62
    15
 10
6.315320
 20
1.559360
 11
6.966520
 21
1.188440
 12
6.306520
 22
1.529880
 13
6.958160
 23
1.159400
  0
POLYLINE
  8
0
  6
CONTINUOUS
 66
     1
 40
0.000000
 41
0.000000
  0
VERTEX
  8
0
  6
CONTINUOUS
 10
6.315320
 20
1.559360
  0
VERTEX
  8
0
  6
CONTINUOUS
 10
6.966520
 20
1.188440
  0
VERTEX
  8
0
  6
CONTINUOUS
 10
6.958160
 20
1.159400
  0
VERTEX
  8
0
  6
CONTINUOUS
 10
6.306520
 20
1.529880
  0
VERTEX
  8
0
  6
CONTINUOUS
 10
6.315320
 20
1.559360
  0
SEQEND
  8
0
  0
SOLID
  8
0
 62
    15
 10
6.306520
 20
1.529880
 11
6.958160
 21
1.159400
 12
6.295960
 22
1.504800
 13
6.947600
 23
1.133880
  0
POLYLINE
  8
0
  6
CONTINUOUS
 66
     1
 40
0.000000
 41
0.000000
  0
VERTEX
  8
0
  6
CONTINUOUS
 10
6.306520
 20
1.529880
  0
VERTEX
  8
0
  6
CONTINUOUS
 10
6.958160
 20
1.159400
  0
VERTEX
  8
0
  6
CONTINUOUS
 10
6.947600
 20
1.133880
  0
VERTEX
  8
0
  6
CONTINUOUS
 10
6.295960
 20
1.504800
  0
VERTEX
  8
0
  6
CONTINUOUS
 10
6.306520
 20
1.529880
  0
SEQEND
  8
0
  0
SOLID
  8
0
 62
    15
 10
6.295960
 20
1.504800
 11
6.947600
 21
1.133880
 12
6.283200
 22
1.483680
 13
6.934840
 23
1.112760
  0
POLYLINE
  8
0
  6
CONTINUOUS
 66
     1
 40
0.000000
 41
0.000000
  0
VERTEX
  8
0
  6
CONTINUOUS
 10
6.295960
 20
1.504800
  0
VERTEX
  8
0
  6
CONTINUOUS
 10
6.947600
 20
1.133880
  0
VERTEX
  8
0
  6
CONTINUOUS
 10
6.934840
 20
1.112760
  0
VERTEX
  8
0
  6
CONTINUOUS
 10
6.283200
 20
1.483680
  0
VERTEX
  8
0
  6
CONTINUOUS
 10
6.295960
 20
1.504800
  0
SEQEND
  8
0
  0
SOLID
  8
0
 62
    15
 10
6.283200
 20
1.483680
 11
6.934840
 21
1.112760
 12
6.268680
 22
1.465640
 13
6.919880
 23
1.094720
  0
POLYLINE
  8
0
  6
CONTINUOUS
 66
     1
 40
0.000000
 41
0.000000
  0
VERTEX
  8
0
  6
CONTINUOUS
 10
6.283200
 20
1.483680
  0
VERTEX
  8
0
  6
CONTINUOUS
 10
6.934840
 20
1.112760
  0
VERTEX
  8
0
  6
CONTINUOUS
 10
6.919880
 20
1.094720
  0
VERTEX
  8
0
  6
CONTINUOUS
 10
6.268680
 20
1.465640
  0
VERTEX
  8
0
  6
CONTINUOUS
 10
6.283200
 20
1.483680
  0
SEQEND
  8
0
  0
SOLID
  8
0
 62
    15
 10
6.268680
 20
1.465640
 11
6.919880
 21
1.094720
 12
6.251960
 22
1.451120
 13
6.903600
 23
1.080200
  0
POLYLINE
  8
0
  6
CONTINUOUS
 66
     1
 40
0.000000
 41
0.000000
  0
VERTEX
  8
0
  6
CONTINUOUS
 10
6.268680
 20
1.465640
  0
VERTEX
  8
0
  6
CONTINUOUS
 10
6.919880
 20
1.094720
  0
VERTEX
  8
0
  6
CONTINUOUS
 10
6.903600
 20
1.080200
  0
VERTEX
  8
0
  6
CONTINUOUS
 10
6.251960
 20
1.451120
  0
VERTEX
  8
0
  6
CONTINUOUS
 10
6.268680
 20
1.465640
  0
SEQEND
  8
0
  0
SOLID
  8
0
 62
    15
 10
6.251960
 20
1.451120
 11
6.903600
 21
1.080200
 12
6.214560
 22
1.430440
 13
6.866200
 23
1.059520
  0
POLYLINE
  8
0
  6
CONTINUOUS
 66
     1
 40
0.000000
 41
0.000000
  0
VERTEX
  8
0
  6
CONTINUOUS
 10
6.251960
 20
1.451120
  0
VERTEX
  8
0
  6
CONTINUOUS
 10
6.903600
 20
1.080200
  0
VERTEX
  8
0
  6
CONTINUOUS
 10
6.866200
 20
1.059520
  0
VERTEX
  8
0
  6
CONTINUOUS
 10
6.214560
 20
1.430440
  0
VERTEX
  8
0
  6
CONTINUOUS
 10
6.251960
 20
1.451120
  0
SEQEND
  8
0
  0
SOLID
  8
0
 62
    15
 10
6.214560
 20
1.430440
 11
6.866200
 21
1.059520
 12
6.171880
 22
1.419000
 13
6.823520
 23
1.048080
  0
POLYLINE
  8
0
  6
CONTINUOUS
 66
     1
 40
0.000000
 41
0.000000
  0
VERTEX
  8
0
  6
CONTINUOUS
 10
6.214560
 20
1.430440
  0
VERTEX
  8
0
  6
CONTINUOUS
 10
6.866200
 20
1.059520
  0
VERTEX
  8
0
  6
CONTINUOUS
 10
6.823520
 20
1.048080
  0
VERTEX
  8
0
  6
CONTINUOUS
 10
6.171880
 20
1.419000
  0
VERTEX
  8
0
  6
CONTINUOUS
 10
6.214560
 20
1.430440
  0
SEQEND
  8
0
  0
SOLID
  8
0
 62
    15
 10
6.171880
 20
1.419000
 11
6.823520
 21
1.048080
 12
6.124800
 22
1.414600
 13
6.776440
 23
1.043680
  0
POLYLINE
  8
0
  6
CONTINUOUS
 66
     1
 40
0.000000
 41
0.000000
  0
VERTEX
  8
0
  6
CONTINUOUS
 10
6.171880
 20
1.419000
  0
VERTEX
  8
0
  6
CONTINUOUS
 10
6.823520
 20
1.048080
  0
VERTEX
  8
0
  6
CONTINUOUS
 10
6.776440
 20
1.043680
  0
VERTEX
  8
0
  6
CONTINUOUS
 10
6.124800
 20
1.414600
  0
VERTEX
  8
0
  6
CONTINUOUS
 10
6.171880
 20
1.419000
  0
SEQEND
  8
0
  0
SOLID
  8
0
 62
    15
 10
6.124800
 20
1.414600
 11
6.776440
 21
1.043680
 12
6.074640
 22
1.414600
 13
6.726280
 23
1.043680
  0
POLYLINE
  8
0
  6
CONTINUOUS
 66
     1
 40
0.000000
 41
0.000000
  0
VERTEX
  8
0
  6
CONTINUOUS
 10
6.124800
 20
1.414600
  0
VERTEX
  8
0
  6
CONTINUOUS
 10
6.776440
 20
1.043680
  0
VERTEX
  8
0
  6
CONTINUOUS
 10
6.726280
 20
1.043680
  0
VERTEX
  8
0
  6
CONTINUOUS
 10
6.074640
 20
1.414600
  0
VERTEX
  8
0
  6
CONTINUOUS
 10
6.124800
 20
1.414600
  0
SEQEND
  8
0
  0
SOLID
  8
0
 62
    15
 10
6.728480
 20
3.298680
 11
7.380120
 21
2.927760
 12
6.777760
 22
3.257760
 13
7.429400
 23
2.886840
  0
POLYLINE
  8
0
  6
CONTINUOUS
 66
     1
 40
0.000000
 41
0.000000
  0
VERTEX
  8
0
  6
CONTINUOUS
 10
6.728480
 20
3.298680
  0
VERTEX
  8
0
  6
CONTINUOUS
 10
7.380120
 20
2.927760
  0
VERTEX
  8
0
  6
CONTINUOUS
 10
7.429400
 20
2.886840
  0
VERTEX
  8
0
  6
CONTINUOUS
 10
6.777760
 20
3.257760
  0
VERTEX
  8
0
  6
CONTINUOUS
 10
6.728480
 20
3.298680
  0
SEQEND
  8
0
  0
SOLID
  8
0
 62
    15
 10
6.777760
 20
3.257760
 11
7.429400
 21
2.886840
 12
6.819120
 22
3.208040
 13
7.470320
 23
2.837120
  0
POLYLINE
  8
0
  6
CONTINUOUS
 66
     1
 40
0.000000
 41
0.000000
  0
VERTEX
  8
0
  6
CONTINUOUS
 10
6.777760
 20
3.257760
  0
VERTEX
  8
0
  6
CONTINUOUS
 10
7.429400
 20
2.886840
  0
VERTEX
  8
0
  6
CONTINUOUS
 10
7.470320
 20
2.837120
  0
VERTEX
  8
0
  6
CONTINUOUS
 10
6.819120
 20
3.208040
  0
VERTEX
  8
0
  6
CONTINUOUS
 10
6.777760
 20
3.257760
  0
SEQEND
  8
0
  0
SOLID
  8
0
 62
    15
 10
6.819120
 20
3.208040
 11
7.470320
 21
2.837120
 12
6.849920
 22
3.151280
 13
7.501560
 23
2.780800
  0
POLYLINE
  8
0
  6
CONTINUOUS
 66
     1
 40
0.000000
 41
0.000000
  0
VERTEX
  8
0
  6
CONTINUOUS
 10
6.819120
 20
3.208040
  0
VERTEX
  8
0
  6
CONTINUOUS
 10
7.470320
 20
2.837120
  0
VERTEX
  8
0
  6
CONTINUOUS
 10
7.501560
 20
2.780800
  0
VERTEX
  8
0
  6
CONTINUOUS
 10
6.849920
 20
3.151280
  0
VERTEX
  8
0
  6
CONTINUOUS
 10
6.819120
 20
3.208040
  0
SEQEND
  8
0
  0
SOLID
  8
0
 62
    15
 10
6.849920
 20
3.151280
 11
7.501560
 21
2.780800
 12
6.869720
 22
3.089240
 13
7.521360
 23
2.718320
  0
POLYLINE
  8
0
  6
CONTINUOUS
 66
     1
 40
0.000000
 41
0.000000
  0
VERTEX
  8
0
  6
CONTINUOUS
 10
6.849920
 20
3.151280
  0
VERTEX
  8
0
  6
CONTINUOUS
 10
7.501560
 20
2.780800
  0
VERTEX
  8
0
  6
CONTINUOUS
 10
7.521360
 20
2.718320
  0
VERTEX
  8
0
  6
CONTINUOUS
 10
6.869720
 20
3.089240
  0
VERTEX
  8
0
  6
CONTINUOUS
 10
6.849920
 20
3.151280
  0
SEQEND
  8
0
  0
SOLID
  8
0
 62
    15
 10
6.869720
 20
3.089240
 11
7.521360
 21
2.718320
 12
6.876760
 22
3.022800
 13
7.527960
 23
2.652320
  0
POLYLINE
  8
0
  6
CONTINUOUS
 66
     1
 40
0.000000
 41
0.000000
  0
VERTEX
  8
0
  6
CONTINUOUS
 10
6.869720
 20
3.089240
  0
VERTEX
  8
0
  6
CONTINUOUS
 10
7.521360
 20
2.718320
  0
VERTEX
  8
0
  6
CONTINUOUS
 10
7.527960
 20
2.652320
  0
VERTEX
  8
0
  6
CONTINUOUS
 10
6.876760
 20
3.022800
  0
VERTEX
  8
0
  6
CONTINUOUS
 10
6.869720
 20
3.089240
  0
SEQEND
  8
0
  0
SOLID
  8
0
 62
    15
 10
6.876760
 20
3.022800
 11
7.527960
 21
2.652320
 12
6.871040
 22
2.962960
 13
7.522680
 23
2.592480
  0
POLYLINE
  8
0
  6
CONTINUOUS
 66
     1
 40
0.000000
 41
0.000000
  0
VERTEX
  8
0
  6
CONTINUOUS
 10
6.876760
 20
3.022800
  0
VERTEX
  8
0
  6
CONTINUOUS
 10
7.527960
 20
2.652320
  0
VERTEX
  8
0
  6
CONTINUOUS
 10
7.522680
 20
2.592480
  0
VERTEX
  8
0
  6
CONTINUOUS
 10
6.871040
 20
2.962960
  0
VERTEX
  8
0
  6
CONTINUOUS
 10
6.876760
 20
3.022800
  0
SEQEND
  8
0
  0
SOLID
  8
0
 62
    15
 10
6.871040
 20
2.962960
 11
7.522680
 21
2.592480
 12
6.855200
 22
2.906200
 13
7.506840
 23
2.535720
  0
POLYLINE
  8
0
  6
CONTINUOUS
 66
     1
 40
0.000000
 41
0.000000
  0
VERTEX
  8
0
  6
CONTINUOUS
 10
6.871040
 20
2.962960
  0
VERTEX
  8
0
  6
CONTINUOUS
 10
7.522680
 20
2.592480
  0
VERTEX
  8
0
  6
CONTINUOUS
 10
7.506840
 20
2.535720
  0
VERTEX
  8
0
  6
CONTINUOUS
 10
6.855200
 20
2.906200
  0
VERTEX
  8
0
  6
CONTINUOUS
 10
6.871040
 20
2.962960
  0
SEQEND
  8
0
  0
SOLID
  8
0
 62
    15
 10
6.855200
 20
2.906200
 11
7.506840
 21
2.535720
 12
6.830120
 22
2.853840
 13
7.481760
 23
2.482920
  0
POLYLINE
  8
0
  6
CONTINUOUS
 66
     1
 40
0.000000
 41
0.000000
  0
VERTEX
  8
0
  6
CONTINUOUS
 10
6.855200
 20
2.906200
  0
VERTEX
  8
0
  6
CONTINUOUS
 10
7.506840
 20
2.535720
  0
VERTEX
  8
0
  6
CONTINUOUS
 10
7.481760
 20
2.482920
  0
VERTEX
  8
0
  6
CONTINUOUS
 10
6.830120
 20
2.853840
  0
VERTEX
  8
0
  6
CONTINUOUS
 10
6.855200
 20
2.906200
  0
SEQEND
  8
0
  0
SOLID
  8
0
 62
    15
 10
6.830120
 20
2.853840
 11
7.481760
 21
2.482920
 12
6.797120
 22
2.806320
 13
7.448320
 23
2.435840
  0
POLYLINE
  8
0
  6
CONTINUOUS
 66
     1
 40
0.000000
 41
0.000000
  0
VERTEX
  8
0
  6
CONTINUOUS
 10
6.830120
 20
2.853840
  0
VERTEX
  8
0
  6
CONTINUOUS
 10
7.481760
 20
2.482920
  0
VERTEX
  8
0
  6
CONTINUOUS
 10
7.448320
 20
2.435840
  0
VERTEX
  8
0
  6
CONTINUOUS
 10
6.797120
 20
2.806320
  0
VERTEX
  8
0
  6
CONTINUOUS
 10
6.830120
 20
2.853840
  0
SEQEND
  8
0
  0
SOLID
  8
0
 62
    15
 10
6.797120
 20
2.806320
 11
7.448320
 21
2.435840
 12
6.756200
 22
2.765400
 13
7.407840
 23
2.394920
  0
POLYLINE
  8
0
  6
CONTINUOUS
 66
     1
 40
0.000000
 41
0.000000
  0
VERTEX
  8
0
  6
CONTINUOUS
 10
6.797120
 20
2.806320
  0
VERTEX
  8
0
  6
CONTINUOUS
 10
7.448320
 20
2.435840
  0
VERTEX
  8
0
  6
CONTINUOUS
 10
7.407840
 20
2.394920
  0
VERTEX
  8
0
  6
CONTINUOUS
 10
6.756200
 20
2.765400
  0
VERTEX
  8
0
  6
CONTINUOUS
 10
6.797120
 20
2.806320
  0
SEQEND
  8
0
  0
SOLID
  8
0
 62
    15
 10
6.756200
 20
2.765400
 11
7.407840
 21
2.394920
 12
6.709560
 22
2.731960
 13
7.361200
 23
2.361040
  0
POLYLINE
  8
0
  6
CONTINUOUS
 66
     1
 40
0.000000
 41
0.000000
  0
VERTEX
  8
0
  6
CONTINUOUS
 10
6.756200
 20
2.765400
  0
VERTEX
  8
0
  6
CONTINUOUS
 10
7.407840
 20
2.394920
  0
VERTEX
  8
0
  6
CONTINUOUS
 10
7.361200
 20
2.361040
  0
VERTEX
  8
0
  6
CONTINUOUS
 10
6.709560
 20
2.731960
  0
VERTEX
  8
0
  6
CONTINUOUS
 10
6.756200
 20
2.765400
  0
SEQEND
  8
0
  0
SOLID
  8
0
 62
    15
 10
6.709560
 20
2.731960
 11
7.361200
 21
2.361040
 12
6.657640
 22
2.706880
 13
7.309280
 23
2.336400
  0
POLYLINE
  8
0
  6
CONTINUOUS
 66
     1
 40
0.000000
 41
0.000000
  0
VERTEX
  8
0
  6
CONTINUOUS
 10
6.709560
 20
2.731960
  0
VERTEX
  8
0
  6
CONTINUOUS
 10
7.361200
 20
2.361040
  0
VERTEX
  8
0
  6
CONTINUOUS
 10
7.309280
 20
2.336400
  0
VERTEX
  8
0
  6
CONTINUOUS
 10
6.657640
 20
2.706880
  0
VERTEX
  8
0
  6
CONTINUOUS
 10
6.709560
 20
2.731960
  0
SEQEND
  8
0
  0
SOLID
  8
0
 62
    15
 10
6.657640
 20
2.706880
 11
7.309280
 21
2.336400
 12
6.601760
 22
2.691480
 13
7.252960
 23
2.321000
  0
POLYLINE
  8
0
  6
CONTINUOUS
 66
     1
 40
0.000000
 41
0.000000
  0
VERTEX
  8
0
  6
CONTINUOUS
 10
6.657640
 20
2.706880
  0
VERTEX
  8
0
  6
CONTINUOUS
 10
7.309280
 20
2.336400
  0
VERTEX
  8
0
  6
CONTINUOUS
 10
7.252960
 20
2.321000
  0
VERTEX
  8
0
  6
CONTINUOUS
 10
6.601760
 20
2.691480
  0
VERTEX
  8
0
  6
CONTINUOUS
 10
6.657640
 20
2.706880
  0
SEQEND
  8
0
  0
SOLID
  8
0
 62
    15
 10
6.601760
 20
2.691480
 11
7.252960
 21
2.321000
 12
6.601760
 22
2.573120
 13
7.252960
 23
2.202200
  0
POLYLINE
  8
0
  6
CONTINUOUS
 66
     1
 40
0.000000
 41
0.000000
  0
VERTEX
  8
0
  6
CONTINUOUS
 10
6.601760
 20
2.691480
  0
VERTEX
  8
0
  6
CONTINUOUS
 10
7.252960
 20
2.321000
  0
VERTEX
  8
0
  6
CONTINUOUS
 10
7.252960
 20
2.202200
  0
VERTEX
  8
0
  6
CONTINUOUS
 10
6.601760
 20
2.573120
  0
VERTEX
  8
0
  6
CONTINUOUS
 10
6.601760
 20
2.691480
  0
SEQEND
  8
0
  0
SOLID
  8
0
 62
    15
 10
6.601760
 20
2.573120
 11
7.252960
 21
2.202200
 12
6.491320
 22
2.573120
 13
7.142520
 23
2.202200
  0
POLYLINE
  8
0
  6
CONTINUOUS
 66
     1
 40
0.000000
 41
0.000000
  0
VERTEX
  8
0
  6
CONTINUOUS
 10
6.601760
 20
2.573120
  0
VERTEX
  8
0
  6
CONTINUOUS
 10
7.252960
 20
2.202200
  0
VERTEX
  8
0
  6
CONTINUOUS
 10
7.142520
 20
2.202200
  0
VERTEX
  8
0
  6
CONTINUOUS
 10
6.491320
 20
2.573120
  0
VERTEX
  8
0
  6
CONTINUOUS
 10
6.601760
 20
2.573120
  0
SEQEND
  8
0
  0
SOLID
  8
0
 62
    15
 10
6.518160
 20
2.458720
 11
7.169800
 21
2.088240
 12
6.536200
 22
2.442880
 13
7.187400
 23
2.071960
  0
POLYLINE
  8
0
  6
CONTINUOUS
 66
     1
 40
0.000000
 41
0.000000
  0
VERTEX
  8
0
  6
CONTINUOUS
 10
6.518160
 20
2.458720
  0
VERTEX
  8
0
  6
CONTINUOUS
 10
7.169800
 20
2.088240
  0
VERTEX
  8
0
  6
CONTINUOUS
 10
7.187400
 20
2.071960
  0
VERTEX
  8
0
  6
CONTINUOUS
 10
6.536200
 20
2.442880
  0
VERTEX
  8
0
  6
CONTINUOUS
 10
6.518160
 20
2.458720
  0
SEQEND
  8
0
  0
POLYLINE
  8
0
  6
CONTINUOUS
 66
     1
 40
0.000000
 41
0.000000
  0
VERTEX
  8
0
  6
CONTINUOUS
 10
6.495280
 20
2.468840
  0
VERTEX
  8
0
  6
CONTINUOUS
 10
6.518160
 20
2.458720
  0
VERTEX
  8
0
  6
CONTINUOUS
 10
6.536200
 20
2.442880
  0
VERTEX
  8
0
  6
CONTINUOUS
 10
6.547640
 20
2.421760
  0
VERTEX
  8
0
  6
CONTINUOUS
 10
6.551600
 20
2.398000
  0
VERTEX
  8
0
  6
CONTINUOUS
 10
6.545440
 20
2.369400
  0
VERTEX
  8
0
  6
CONTINUOUS
 10
6.529160
 20
2.345640
  0
VERTEX
  8
0
  6
CONTINUOUS
 10
6.504960
 20
2.328920
  0
VERTEX
  8
0
  6
CONTINUOUS
 10
6.476360
 20
2.322760
  0
VERTEX
  8
0
  6
CONTINUOUS
 10
6.474600
 20
2.258520
  0
VERTEX
  8
0
  6
CONTINUOUS
 10
6.497480
 20
2.248400
  0
VERTEX
  8
0
  6
CONTINUOUS
 10
6.515080
 20
2.232120
  0
VERTEX
  8
0
  6
CONTINUOUS
 10
6.526520
 20
2.211440
  0
VERTEX
  8
0
  6
CONTINUOUS
 10
6.530920
 20
2.187680
  0
VERTEX
  8
0
  6
CONTINUOUS
 10
6.524760
 20
2.159080
  0
VERTEX
  8
0
  6
CONTINUOUS
 10
6.508040
 20
2.135320
  0
VERTEX
  8
0
  6
CONTINUOUS
 10
6.484280
 20
2.118600
  0
VERTEX
  8
0
  6
CONTINUOUS
 10
6.455680
 20
2.112440
  0
VERTEX
  8
0
  6
CONTINUOUS
 10
6.451720
 20
2.047760
  0
VERTEX
  8
0
  6
CONTINUOUS
 10
6.453920
 20
2.047760
  0
VERTEX
  8
0
  6
CONTINUOUS
 10
6.476360
 20
2.038080
  0
VERTEX
  8
0
  6
CONTINUOUS
 10
6.494400
 20
2.021800
  0
VERTEX
  8
0
  6
CONTINUOUS
 10
6.505840
 20
2.001120
  0
VERTEX
  8
0
  6
CONTINUOUS
 10
6.509800
 20
1.976920
  0
VERTEX
  8
0
  6
CONTINUOUS
 10
6.503640
 20
1.948760
  0
VERTEX
  8
0
  6
CONTINUOUS
 10
6.487360
 20
1.924560
  0
VERTEX
  8
0
  6
CONTINUOUS
 10
6.463600
 20
1.908280
  0
VERTEX
  8
0
  6
CONTINUOUS
 10
6.432800
 20
1.902120
  0
VERTEX
  8
0
  6
CONTINUOUS
 10
6.432800
 20
1.837440
  0
VERTEX
  8
0
  6
CONTINUOUS
 10
6.476800
 20
1.837440
  0
VERTEX
  8
0
  6
CONTINUOUS
 10
6.449520
 20
1.675080
  0
VERTEX
  8
0
  6
CONTINUOUS
 10
6.326760
 20
1.675080
  0
VERTEX
  8
0
  6
CONTINUOUS
 10
6.325440
 20
1.631520
  0
VERTEX
  8
0
  6
CONTINUOUS
 10
6.321480
 20
1.593240
  0
VERTEX
  8
0
  6
CONTINUOUS
 10
6.315320
 20
1.559360
  0
VERTEX
  8
0
  6
CONTINUOUS
 10
6.306520
 20
1.529880
  0
VERTEX
  8
0
  6
CONTINUOUS
 10
6.295960
 20
1.504800
  0
VERTEX
  8
0
  6
CONTINUOUS
 10
6.283200
 20
1.483680
  0
VERTEX
  8
0
  6
CONTINUOUS
 10
6.268680
 20
1.465640
  0
VERTEX
  8
0
  6
CONTINUOUS
 10
6.251960
 20
1.451120
  0
VERTEX
  8
0
  6
CONTINUOUS
 10
6.214560
 20
1.430440
  0
VERTEX
  8
0
  6
CONTINUOUS
 10
6.171880
 20
1.419000
  0
VERTEX
  8
0
  6
CONTINUOUS
 10
6.124800
 20
1.414600
  0
VERTEX
  8
0
  6
CONTINUOUS
 10
6.074640
 20
1.414600
  0
VERTEX
  8
0
  6
CONTINUOUS
 10
6.074640
 20
3.098040
  0
VERTEX
  8
0
  6
CONTINUOUS
 10
6.216320
 20
3.098040
  0
VERTEX
  8
0
  6
CONTINUOUS
 10
6.233920
 20
3.150840
  0
VERTEX
  8
0
  6
CONTINUOUS
 10
6.260760
 20
3.199680
  0
VERTEX
  8
0
  6
CONTINUOUS
 10
6.294640
 20
3.243680
  0
VERTEX
  8
0
  6
CONTINUOUS
 10
6.335120
 20
3.281960
  0
VERTEX
  8
0
  6
CONTINUOUS
 10
6.381320
 20
3.312760
  0
VERTEX
  8
0
  6
CONTINUOUS
 10
6.431920
 20
3.336520
  0
VERTEX
  8
0
  6
CONTINUOUS
 10
6.486480
 20
3.351040
  0
VERTEX
  8
0
  6
CONTINUOUS
 10
6.543240
 20
3.356320
  0
VERTEX
  8
0
  6
CONTINUOUS
 10
6.609680
 20
3.349280
  0
VERTEX
  8
0
  6
CONTINUOUS
 10
6.671720
 20
3.329480
  0
VERTEX
  8
0
  6
CONTINUOUS
 10
6.728480
 20
3.298680
  0
VERTEX
  8
0
  6
CONTINUOUS
 10
6.777760
 20
3.257760
  0
VERTEX
  8
0
  6
CONTINUOUS
 10
6.819120
 20
3.208040
  0
VERTEX
  8
0
  6
CONTINUOUS
 10
6.849920
 20
3.151280
  0
VERTEX
  8
0
  6
CONTINUOUS
 10
6.869720
 20
3.089240
  0
VERTEX
  8
0
  6
CONTINUOUS
 10
6.876760
 20
3.022800
  0
VERTEX
  8
0
  6
CONTINUOUS
 10
6.871040
 20
2.962960
  0
VERTEX
  8
0
  6
CONTINUOUS
 10
6.855200
 20
2.906200
  0
VERTEX
  8
0
  6
CONTINUOUS
 10
6.830120
 20
2.853840
  0
VERTEX
  8
0
  6
CONTINUOUS
 10
6.797120
 20
2.806320
  0
VERTEX
  8
0
  6
CONTINUOUS
 10
6.756200
 20
2.765400
  0
VERTEX
  8
0
  6
CONTINUOUS
 10
6.709560
 20
2.731960
  0
VERTEX
  8
0
  6
CONTINUOUS
 10
6.657640
 20
2.706880
  0
VERTEX
  8
0
  6
CONTINUOUS
 10
6.601760
 20
2.691480
  0
VERTEX
  8
0
  6
CONTINUOUS
 10
6.601760
 20
2.573120
  0
VERTEX
  8
0
  6
CONTINUOUS
 10
6.491320
 20
2.573120
  0
VERTEX
  8
0
  6
CONTINUOUS
 10
6.491320
 20
2.471040
  0
VERTEX
  8
0
  6
CONTINUOUS
 10
6.495280
 20
2.468840
  0
SEQEND
  8
0
  0
TEXT
  8
0
 10
6.507160
 20
0.818840
 40
0.138029
  1
BA  387
 41
1.000000
  7
SN0
 71
     0
 72
     5
 11
7.096783
 21
0.818840
  0
TEXT
  8
0
 10
6.402440
 20
0.627440
 40
0.138029
  1
13/16" x 2"
 41
1.000000
  7
SN0
 71
     0
 72
     5
 11
7.200876
 21
0.627440
  0
ENDSEC
  0
EOF
