  0
SECTION
  2
HEADER
  9
$ACADVER
  1
AC1006
  9
$EXTMIN
 10
4.814480
 20
0.510840
  9
$EXTMAX
 10
7.530160
 20
4.366120
  9
$LTSCALE
 40
0.044000
  9
$PDMODE
 70
    35
  9
$PDSIZE
 40
0.035200
  0
ENDSEC
  0
SECTION
  2
TABLES
  0
TABLE
  2
LTYPE
 70
     9
  0
LTYPE
  2
CONTINUOUS
 70
    64
  3
Solid line
 72
    65
 73
     0
 40
0.000000
  0
LTYPE
  2
DASHED
 70
    64
  3
__ __ __ __ __ __ __ __ __ __ __ __ __ __ __
 72
    65
 73
     2
 40
0.000330
 49
0.000220
 49
-0.000110
  0
LTYPE
  2
HIDDEN
 70
    64
  3
 _ _ _ _ _ _ _ _ _ _ _ _ _ _ _ _ _ _ _ _ _ _
 72
    65
 73
     2
 40
0.000165
 49
0.000110
 49
-0.000055
  0
LTYPE
  2
CENTER
 70
    64
  3
____ _ ____ _ ____ _ ____ _ ____ _ ____ _ ____
 72
    65
 73
     4
 40
0.000880
 49
0.000550
 49
-0.000110
 49
0.000110
 49
-0.000110
  0
LTYPE
  2
PHANTOM
 70
    64
  3
_____ _ _ _____ _ _ _____ _ _ _____ _ _ ____
 72
    65
 73
     6
 40
0.001100
 49
0.000550
 49
-0.000110
 49
0.000110
 49
-0.000110
 49
0.000110
 49
-0.000110
  0
LTYPE
  2
DOT
 70
    64
  3
...............................................
 72
    65
 73
     2
 40
0.000110
 49
0.000000
 49
-0.000110
  0
LTYPE
  2
DASHDOT
 70
    64
  3
__ . __ . __ . __ . __ . __ . __ . __ . __ . __
 72
    65
 73
     4
 40
0.000440
 49
0.000220
 49
-0.000110
 49
0.000000
 49
-0.000110
  0
LTYPE
  2
BORDER
 70
    64
  3
__ __ . __ __ . __ __ . __ __ . __ __ . __ __
 72
    65
 73
     6
 40
0.000770
 49
0.000220
 49
-0.000110
 49
0.000220
 49
-0.000110
 49
0.000000
 49
-0.000110
  0
LTYPE
  2
DIVIDE
 70
    64
  3
__ . . __ . . __ . . __ . . __ . . __ . . __
 72
    65
 73
     6
 40
0.000550
 49
0.000220
 49
-0.000110
 49
0.000000
 49
-0.000110
 49
0.000000
 49
-0.000110
  0
LTYPE
  2
DOTDOT
 70
    64
  3
 . .  . .  . .  . .  . .  . . 
 72
    65
 73
     5
 40
0.000242
 49
-0.000110
 49
0.000000
 49
-0.000110
 49
0.000000
 49
-0.000110
  0
ENDTAB
  0
TABLE
  2
STYLE
 70
     2
  0
STYLE
 70
     0
  2
SN0
 40
0.000000
 41
0.000440
 50
0.000000
 71
     0
 42
0.000000
  3
ROMAND
  0
STYLE
 70
    68
  2
SV0
 40
0.000000
 41
0.000440
 50
0.000000
 71
     0
 42
0.000000
  3
ROMAND
  0
ENDTAB
  0
TABLE
  2
LAYER
 70
     3
  0
LAYER
  2
FOREGROUND
 70
    64
 62
     7
  6
CONTINUOUS
  0
LAYER
  2
BACKGROUND
 70
    65
 62
    -7
  6
CONTINUOUS
  0
LAYER
  2
0
 70
    64
 62
     7
  6
CONTINUOUS
  0
ENDTAB
  0
ENDSEC
  0
SECTION
  2
ENTITIES
  0
POLYLINE
  8
FOREGROUND
  6
CONTINUOUS
 66
     1
 40
0.000000
 41
0.000000
  0
VERTEX
  8
FOREGROUND
  6
CONTINUOUS
 10
0.000000
 20
4.876960
  0
VERTEX
  8
FOREGROUND
  6
CONTINUOUS
 10
8.499920
 20
4.876960
  0
VERTEX
  8
FOREGROUND
  6
CONTINUOUS
 10
8.499920
 20
-6.123040
  0
VERTEX
  8
FOREGROUND
  6
CONTINUOUS
 10
0.000000
 20
-6.123040
  0
VERTEX
  8
FOREGROUND
  6
CONTINUOUS
 10
0.000000
 20
4.876960
  0
SEQEND
  8
0
  0
POLYLINE
  8
0
  6
CONTINUOUS
 66
     1
 40
0.014080
 41
0.014080
  0
VERTEX
  8
0
  6
CONTINUOUS
 10
4.821960
 20
3.582480
  0
VERTEX
  8
0
  6
CONTINUOUS
 10
4.821960
 20
3.573680
  0
VERTEX
  8
0
  6
CONTINUOUS
 10
7.017120
 20
3.573680
  0
VERTEX
  8
0
  6
CONTINUOUS
 10
7.016240
 20
3.607120
  0
VERTEX
  8
0
  6
CONTINUOUS
 10
7.013160
 20
3.639680
  0
VERTEX
  8
0
  6
CONTINUOUS
 10
7.002160
 20
3.701280
  0
VERTEX
  8
0
  6
CONTINUOUS
 10
6.993800
 20
3.730760
  0
VERTEX
  8
0
  6
CONTINUOUS
 10
6.984120
 20
3.758480
  0
VERTEX
  8
0
  6
CONTINUOUS
 10
6.960360
 20
3.810840
  0
VERTEX
  8
0
  6
CONTINUOUS
 10
6.930880
 20
3.857920
  0
VERTEX
  8
0
  6
CONTINUOUS
 10
6.897000
 20
3.898840
  0
VERTEX
  8
0
  6
CONTINUOUS
 10
6.858720
 20
3.933600
  0
VERTEX
  8
0
  6
CONTINUOUS
 10
6.816920
 20
3.961760
  0
VERTEX
  8
0
  6
CONTINUOUS
 10
6.794920
 20
3.973200
  0
VERTEX
  8
0
  6
CONTINUOUS
 10
6.772480
 20
3.982880
  0
VERTEX
  8
0
  6
CONTINUOUS
 10
6.749160
 20
3.990800
  0
VERTEX
  8
0
  6
CONTINUOUS
 10
6.725840
 20
3.996520
  0
VERTEX
  8
0
  6
CONTINUOUS
 10
6.701640
 20
4.000480
  0
VERTEX
  8
0
  6
CONTINUOUS
 10
6.677440
 20
4.002240
  0
VERTEX
  8
0
  6
CONTINUOUS
 10
6.653240
 20
4.001800
  0
VERTEX
  8
0
  6
CONTINUOUS
 10
6.628600
 20
3.999600
  0
VERTEX
  8
0
  6
CONTINUOUS
 10
6.603520
 20
3.995200
  0
VERTEX
  8
0
  6
CONTINUOUS
 10
6.578880
 20
3.988160
  0
VERTEX
  8
0
  6
CONTINUOUS
 10
6.554680
 20
3.978920
  0
VERTEX
  8
0
  6
CONTINUOUS
 10
6.530040
 20
3.967480
  0
VERTEX
  8
0
  6
CONTINUOUS
 10
6.505840
 20
3.953840
  0
VERTEX
  8
0
  6
CONTINUOUS
 10
6.470200
 20
3.928320
  0
VERTEX
  8
0
  6
CONTINUOUS
 10
6.435880
 20
3.897520
  0
VERTEX
  8
0
  6
CONTINUOUS
 10
6.303880
 20
4.045360
  0
VERTEX
  8
0
  6
CONTINUOUS
 10
6.250640
 20
4.015000
  0
VERTEX
  8
0
  6
CONTINUOUS
 10
6.196960
 20
3.990800
  0
VERTEX
  8
0
  6
CONTINUOUS
 10
6.160440
 20
3.978480
  0
VERTEX
  8
0
  6
CONTINUOUS
 10
6.124360
 20
3.971000
  0
VERTEX
  8
0
  6
CONTINUOUS
 10
6.088720
 20
3.967920
  0
VERTEX
  8
0
  6
CONTINUOUS
 10
6.053080
 20
3.970560
  0
VERTEX
  8
0
  6
CONTINUOUS
 10
6.017880
 20
3.979800
  0
VERTEX
  8
0
  6
CONTINUOUS
 10
5.983560
 20
3.995640
  0
VERTEX
  8
0
  6
CONTINUOUS
 10
5.950120
 20
4.018960
  0
VERTEX
  8
0
  6
CONTINUOUS
 10
5.917560
 20
4.051080
  0
VERTEX
  8
0
  6
CONTINUOUS
 10
5.886320
 20
4.091560
  0
VERTEX
  8
0
  6
CONTINUOUS
 10
5.856840
 20
4.142160
  0
VERTEX
  8
0
  6
CONTINUOUS
 10
5.828240
 20
4.202880
  0
VERTEX
  8
0
  6
CONTINUOUS
 10
5.801840
 20
4.274600
  0
VERTEX
  8
0
  6
CONTINUOUS
 10
5.777200
 20
4.358200
  0
VERTEX
  8
0
  6
CONTINUOUS
 10
5.250520
 20
4.358200
  0
VERTEX
  8
0
  6
CONTINUOUS
 10
5.250520
 20
4.201120
  0
VERTEX
  8
0
  6
CONTINUOUS
 10
5.220600
 20
4.198480
  0
VERTEX
  8
0
  6
CONTINUOUS
 10
5.180120
 20
4.190560
  0
VERTEX
  8
0
  6
CONTINUOUS
 10
5.148880
 20
4.181760
  0
VERTEX
  8
0
  6
CONTINUOUS
 10
5.114560
 20
4.169000
  0
VERTEX
  8
0
  6
CONTINUOUS
 10
5.060880
 20
4.140840
  0
VERTEX
  8
0
  6
CONTINUOUS
 10
5.024360
 20
4.115760
  0
VERTEX
  8
0
  6
CONTINUOUS
 10
4.988280
 20
4.084080
  0
VERTEX
  8
0
  6
CONTINUOUS
 10
4.953960
 20
4.045800
  0
VERTEX
  8
0
  6
CONTINUOUS
 10
4.937240
 20
4.023800
  0
VERTEX
  8
0
  6
CONTINUOUS
 10
4.906440
 20
3.973640
  0
VERTEX
  8
0
  6
CONTINUOUS
 10
4.885320
 20
3.930520
  0
VERTEX
  8
0
  6
CONTINUOUS
 10
4.866840
 20
3.882560
  0
VERTEX
  8
0
  6
CONTINUOUS
 10
4.851000
 20
3.829320
  0
VERTEX
  8
0
  6
CONTINUOUS
 10
4.838240
 20
3.769920
  0
VERTEX
  8
0
  6
CONTINUOUS
 10
4.829000
 20
3.704800
  0
VERTEX
  8
0
  6
CONTINUOUS
 10
4.824600
 20
3.658160
  0
VERTEX
  8
0
  6
CONTINUOUS
 10
4.821960
 20
3.582480
  0
SEQEND
  8
0
  0
SOLID
  8
0
 62
    15
 10
6.424880
 20
2.011680
 11
7.167160
 21
2.009040
 12
6.409040
 22
1.977360
 13
7.151320
 23
1.974280
  0
POLYLINE
  8
0
  6
CONTINUOUS
 66
     1
 40
0.000000
 41
0.000000
  0
VERTEX
  8
0
  6
CONTINUOUS
 10
6.424880
 20
2.011680
  0
VERTEX
  8
0
  6
CONTINUOUS
 10
7.167160
 20
2.009040
  0
VERTEX
  8
0
  6
CONTINUOUS
 10
7.151320
 20
1.974280
  0
VERTEX
  8
0
  6
CONTINUOUS
 10
6.409040
 20
1.977360
  0
VERTEX
  8
0
  6
CONTINUOUS
 10
6.424880
 20
2.011680
  0
SEQEND
  8
0
  0
SOLID
  8
0
 62
    15
 10
6.011720
 20
3.173280
 11
6.754000
 21
3.170640
 12
6.111160
 22
3.168880
 13
6.853440
 23
3.165800
  0
POLYLINE
  8
0
  6
CONTINUOUS
 66
     1
 40
0.000000
 41
0.000000
  0
VERTEX
  8
0
  6
CONTINUOUS
 10
6.011720
 20
3.173280
  0
VERTEX
  8
0
  6
CONTINUOUS
 10
6.754000
 20
3.170640
  0
VERTEX
  8
0
  6
CONTINUOUS
 10
6.853440
 20
3.165800
  0
VERTEX
  8
0
  6
CONTINUOUS
 10
6.111160
 20
3.168880
  0
VERTEX
  8
0
  6
CONTINUOUS
 10
6.011720
 20
3.173280
  0
SEQEND
  8
0
  0
SOLID
  8
0
 62
    15
 10
6.199160
 20
3.157000
 11
6.941880
 21
3.154360
 12
6.277040
 22
3.139400
 13
7.019320
 23
3.136320
  0
POLYLINE
  8
0
  6
CONTINUOUS
 66
     1
 40
0.000000
 41
0.000000
  0
VERTEX
  8
0
  6
CONTINUOUS
 10
6.199160
 20
3.157000
  0
VERTEX
  8
0
  6
CONTINUOUS
 10
6.941880
 20
3.154360
  0
VERTEX
  8
0
  6
CONTINUOUS
 10
7.019320
 20
3.136320
  0
VERTEX
  8
0
  6
CONTINUOUS
 10
6.277040
 20
3.139400
  0
VERTEX
  8
0
  6
CONTINUOUS
 10
6.199160
 20
3.157000
  0
SEQEND
  8
0
  0
SOLID
  8
0
 62
    15
 10
6.277040
 20
3.139400
 11
7.019320
 21
3.136320
 12
6.344800
 22
3.116520
 13
7.087080
 23
3.113440
  0
POLYLINE
  8
0
  6
CONTINUOUS
 66
     1
 40
0.000000
 41
0.000000
  0
VERTEX
  8
0
  6
CONTINUOUS
 10
6.277040
 20
3.139400
  0
VERTEX
  8
0
  6
CONTINUOUS
 10
7.019320
 20
3.136320
  0
VERTEX
  8
0
  6
CONTINUOUS
 10
7.087080
 20
3.113440
  0
VERTEX
  8
0
  6
CONTINUOUS
 10
6.344800
 20
3.116520
  0
VERTEX
  8
0
  6
CONTINUOUS
 10
6.277040
 20
3.139400
  0
SEQEND
  8
0
  0
SOLID
  8
0
 62
    15
 10
6.344800
 20
3.116520
 11
7.087080
 21
3.113440
 12
6.403320
 22
3.088800
 13
7.145600
 23
3.086160
  0
POLYLINE
  8
0
  6
CONTINUOUS
 66
     1
 40
0.000000
 41
0.000000
  0
VERTEX
  8
0
  6
CONTINUOUS
 10
6.344800
 20
3.116520
  0
VERTEX
  8
0
  6
CONTINUOUS
 10
7.087080
 20
3.113440
  0
VERTEX
  8
0
  6
CONTINUOUS
 10
7.145600
 20
3.086160
  0
VERTEX
  8
0
  6
CONTINUOUS
 10
6.403320
 20
3.088800
  0
VERTEX
  8
0
  6
CONTINUOUS
 10
6.344800
 20
3.116520
  0
SEQEND
  8
0
  0
SOLID
  8
0
 62
    15
 10
6.403320
 20
3.088800
 11
7.145600
 21
3.086160
 12
6.453040
 22
3.058000
 13
7.195320
 23
3.054920
  0
POLYLINE
  8
0
  6
CONTINUOUS
 66
     1
 40
0.000000
 41
0.000000
  0
VERTEX
  8
0
  6
CONTINUOUS
 10
6.403320
 20
3.088800
  0
VERTEX
  8
0
  6
CONTINUOUS
 10
7.145600
 20
3.086160
  0
VERTEX
  8
0
  6
CONTINUOUS
 10
7.195320
 20
3.054920
  0
VERTEX
  8
0
  6
CONTINUOUS
 10
6.453040
 20
3.058000
  0
VERTEX
  8
0
  6
CONTINUOUS
 10
6.403320
 20
3.088800
  0
SEQEND
  8
0
  0
SOLID
  8
0
 62
    15
 10
6.453040
 20
3.058000
 11
7.195320
 21
3.054920
 12
6.495280
 22
3.024560
 13
7.237560
 23
3.021480
  0
POLYLINE
  8
0
  6
CONTINUOUS
 66
     1
 40
0.000000
 41
0.000000
  0
VERTEX
  8
0
  6
CONTINUOUS
 10
6.453040
 20
3.058000
  0
VERTEX
  8
0
  6
CONTINUOUS
 10
7.195320
 20
3.054920
  0
VERTEX
  8
0
  6
CONTINUOUS
 10
7.237560
 20
3.021480
  0
VERTEX
  8
0
  6
CONTINUOUS
 10
6.495280
 20
3.024560
  0
VERTEX
  8
0
  6
CONTINUOUS
 10
6.453040
 20
3.058000
  0
SEQEND
  8
0
  0
SOLID
  8
0
 62
    15
 10
6.495280
 20
3.024560
 11
7.237560
 21
3.021480
 12
6.530040
 22
2.988920
 13
7.272320
 23
2.985840
  0
POLYLINE
  8
0
  6
CONTINUOUS
 66
     1
 40
0.000000
 41
0.000000
  0
VERTEX
  8
0
  6
CONTINUOUS
 10
6.495280
 20
3.024560
  0
VERTEX
  8
0
  6
CONTINUOUS
 10
7.237560
 20
3.021480
  0
VERTEX
  8
0
  6
CONTINUOUS
 10
7.272320
 20
2.985840
  0
VERTEX
  8
0
  6
CONTINUOUS
 10
6.530040
 20
2.988920
  0
VERTEX
  8
0
  6
CONTINUOUS
 10
6.495280
 20
3.024560
  0
SEQEND
  8
0
  0
SOLID
  8
0
 62
    15
 10
6.530040
 20
2.988920
 11
7.272320
 21
2.985840
 12
6.558640
 22
2.952840
 13
7.300920
 23
2.949760
  0
POLYLINE
  8
0
  6
CONTINUOUS
 66
     1
 40
0.000000
 41
0.000000
  0
VERTEX
  8
0
  6
CONTINUOUS
 10
6.530040
 20
2.988920
  0
VERTEX
  8
0
  6
CONTINUOUS
 10
7.272320
 20
2.985840
  0
VERTEX
  8
0
  6
CONTINUOUS
 10
7.300920
 20
2.949760
  0
VERTEX
  8
0
  6
CONTINUOUS
 10
6.558640
 20
2.952840
  0
VERTEX
  8
0
  6
CONTINUOUS
 10
6.530040
 20
2.988920
  0
SEQEND
  8
0
  0
SOLID
  8
0
 62
    15
 10
6.558640
 20
2.952840
 11
7.300920
 21
2.949760
 12
6.581080
 22
2.916320
 13
7.323360
 23
2.913240
  0
POLYLINE
  8
0
  6
CONTINUOUS
 66
     1
 40
0.000000
 41
0.000000
  0
VERTEX
  8
0
  6
CONTINUOUS
 10
6.558640
 20
2.952840
  0
VERTEX
  8
0
  6
CONTINUOUS
 10
7.300920
 20
2.949760
  0
VERTEX
  8
0
  6
CONTINUOUS
 10
7.323360
 20
2.913240
  0
VERTEX
  8
0
  6
CONTINUOUS
 10
6.581080
 20
2.916320
  0
VERTEX
  8
0
  6
CONTINUOUS
 10
6.558640
 20
2.952840
  0
SEQEND
  8
0
  0
SOLID
  8
0
 62
    15
 10
6.581080
 20
2.916320
 11
7.323360
 21
2.913240
 12
6.598240
 22
2.880680
 13
7.340520
 23
2.877600
  0
POLYLINE
  8
0
  6
CONTINUOUS
 66
     1
 40
0.000000
 41
0.000000
  0
VERTEX
  8
0
  6
CONTINUOUS
 10
6.581080
 20
2.916320
  0
VERTEX
  8
0
  6
CONTINUOUS
 10
7.323360
 20
2.913240
  0
VERTEX
  8
0
  6
CONTINUOUS
 10
7.340520
 20
2.877600
  0
VERTEX
  8
0
  6
CONTINUOUS
 10
6.598240
 20
2.880680
  0
VERTEX
  8
0
  6
CONTINUOUS
 10
6.581080
 20
2.916320
  0
SEQEND
  8
0
  0
SOLID
  8
0
 62
    15
 10
6.598240
 20
2.880680
 11
7.340520
 21
2.877600
 12
6.611000
 22
2.846800
 13
7.353280
 23
2.843720
  0
POLYLINE
  8
0
  6
CONTINUOUS
 66
     1
 40
0.000000
 41
0.000000
  0
VERTEX
  8
0
  6
CONTINUOUS
 10
6.598240
 20
2.880680
  0
VERTEX
  8
0
  6
CONTINUOUS
 10
7.340520
 20
2.877600
  0
VERTEX
  8
0
  6
CONTINUOUS
 10
7.353280
 20
2.843720
  0
VERTEX
  8
0
  6
CONTINUOUS
 10
6.611000
 20
2.846800
  0
VERTEX
  8
0
  6
CONTINUOUS
 10
6.598240
 20
2.880680
  0
SEQEND
  8
0
  0
SOLID
  8
0
 62
    15
 10
6.611000
 20
2.846800
 11
7.353280
 21
2.843720
 12
6.620240
 22
2.815560
 13
7.362520
 23
2.812480
  0
POLYLINE
  8
0
  6
CONTINUOUS
 66
     1
 40
0.000000
 41
0.000000
  0
VERTEX
  8
0
  6
CONTINUOUS
 10
6.611000
 20
2.846800
  0
VERTEX
  8
0
  6
CONTINUOUS
 10
7.353280
 20
2.843720
  0
VERTEX
  8
0
  6
CONTINUOUS
 10
7.362520
 20
2.812480
  0
VERTEX
  8
0
  6
CONTINUOUS
 10
6.620240
 20
2.815560
  0
VERTEX
  8
0
  6
CONTINUOUS
 10
6.611000
 20
2.846800
  0
SEQEND
  8
0
  0
SOLID
  8
0
 62
    15
 10
6.620240
 20
2.815560
 11
7.362520
 21
2.812480
 12
6.625960
 22
2.787400
 13
7.368240
 23
2.784320
  0
POLYLINE
  8
0
  6
CONTINUOUS
 66
     1
 40
0.000000
 41
0.000000
  0
VERTEX
  8
0
  6
CONTINUOUS
 10
6.620240
 20
2.815560
  0
VERTEX
  8
0
  6
CONTINUOUS
 10
7.362520
 20
2.812480
  0
VERTEX
  8
0
  6
CONTINUOUS
 10
7.368240
 20
2.784320
  0
VERTEX
  8
0
  6
CONTINUOUS
 10
6.625960
 20
2.787400
  0
VERTEX
  8
0
  6
CONTINUOUS
 10
6.620240
 20
2.815560
  0
SEQEND
  8
0
  0
SOLID
  8
0
 62
    15
 10
6.625960
 20
2.787400
 11
7.368240
 21
2.784320
 12
6.629040
 22
2.763640
 13
7.371320
 23
2.760560
  0
POLYLINE
  8
0
  6
CONTINUOUS
 66
     1
 40
0.000000
 41
0.000000
  0
VERTEX
  8
0
  6
CONTINUOUS
 10
6.625960
 20
2.787400
  0
VERTEX
  8
0
  6
CONTINUOUS
 10
7.368240
 20
2.784320
  0
VERTEX
  8
0
  6
CONTINUOUS
 10
7.371320
 20
2.760560
  0
VERTEX
  8
0
  6
CONTINUOUS
 10
6.629040
 20
2.763640
  0
VERTEX
  8
0
  6
CONTINUOUS
 10
6.625960
 20
2.787400
  0
SEQEND
  8
0
  0
SOLID
  8
0
 62
    15
 10
6.629040
 20
2.763640
 11
7.371320
 21
2.760560
 12
6.630800
 22
2.745160
 13
7.373080
 23
2.742080
  0
POLYLINE
  8
0
  6
CONTINUOUS
 66
     1
 40
0.000000
 41
0.000000
  0
VERTEX
  8
0
  6
CONTINUOUS
 10
6.629040
 20
2.763640
  0
VERTEX
  8
0
  6
CONTINUOUS
 10
7.371320
 20
2.760560
  0
VERTEX
  8
0
  6
CONTINUOUS
 10
7.373080
 20
2.742080
  0
VERTEX
  8
0
  6
CONTINUOUS
 10
6.630800
 20
2.745160
  0
VERTEX
  8
0
  6
CONTINUOUS
 10
6.629040
 20
2.763640
  0
SEQEND
  8
0
  0
SOLID
  8
0
 62
    15
 10
6.787880
 20
2.745160
 11
7.530160
 21
2.742080
 12
6.787880
 22
2.218040
 13
7.530160
 23
2.215400
  0
POLYLINE
  8
0
  6
CONTINUOUS
 66
     1
 40
0.000000
 41
0.000000
  0
VERTEX
  8
0
  6
CONTINUOUS
 10
6.787880
 20
2.745160
  0
VERTEX
  8
0
  6
CONTINUOUS
 10
7.530160
 20
2.742080
  0
VERTEX
  8
0
  6
CONTINUOUS
 10
7.530160
 20
2.215400
  0
VERTEX
  8
0
  6
CONTINUOUS
 10
6.787880
 20
2.218040
  0
VERTEX
  8
0
  6
CONTINUOUS
 10
6.787880
 20
2.745160
  0
SEQEND
  8
0
  0
SOLID
  8
0
 62
    15
 10
6.787880
 20
2.218040
 11
7.530160
 21
2.215400
 12
6.704280
 22
2.193400
 13
7.446560
 23
2.190760
  0
POLYLINE
  8
0
  6
CONTINUOUS
 66
     1
 40
0.000000
 41
0.000000
  0
VERTEX
  8
0
  6
CONTINUOUS
 10
6.787880
 20
2.218040
  0
VERTEX
  8
0
  6
CONTINUOUS
 10
7.530160
 20
2.215400
  0
VERTEX
  8
0
  6
CONTINUOUS
 10
7.446560
 20
2.190760
  0
VERTEX
  8
0
  6
CONTINUOUS
 10
6.704280
 20
2.193400
  0
VERTEX
  8
0
  6
CONTINUOUS
 10
6.787880
 20
2.218040
  0
SEQEND
  8
0
  0
SOLID
  8
0
 62
    15
 10
6.704280
 20
2.193400
 11
7.446560
 21
2.190760
 12
6.632560
 22
2.167000
 13
7.374840
 23
2.163920
  0
POLYLINE
  8
0
  6
CONTINUOUS
 66
     1
 40
0.000000
 41
0.000000
  0
VERTEX
  8
0
  6
CONTINUOUS
 10
6.704280
 20
2.193400
  0
VERTEX
  8
0
  6
CONTINUOUS
 10
7.446560
 20
2.190760
  0
VERTEX
  8
0
  6
CONTINUOUS
 10
7.374840
 20
2.163920
  0
VERTEX
  8
0
  6
CONTINUOUS
 10
6.632560
 20
2.167000
  0
VERTEX
  8
0
  6
CONTINUOUS
 10
6.704280
 20
2.193400
  0
SEQEND
  8
0
  0
SOLID
  8
0
 62
    15
 10
6.632560
 20
2.167000
 11
7.374840
 21
2.163920
 12
6.571840
 22
2.138840
 13
7.314120
 23
2.135760
  0
POLYLINE
  8
0
  6
CONTINUOUS
 66
     1
 40
0.000000
 41
0.000000
  0
VERTEX
  8
0
  6
CONTINUOUS
 10
6.632560
 20
2.167000
  0
VERTEX
  8
0
  6
CONTINUOUS
 10
7.374840
 20
2.163920
  0
VERTEX
  8
0
  6
CONTINUOUS
 10
7.314120
 20
2.135760
  0
VERTEX
  8
0
  6
CONTINUOUS
 10
6.571840
 20
2.138840
  0
VERTEX
  8
0
  6
CONTINUOUS
 10
6.632560
 20
2.167000
  0
SEQEND
  8
0
  0
SOLID
  8
0
 62
    15
 10
6.571840
 20
2.138840
 11
7.314120
 21
2.135760
 12
6.521240
 22
2.108920
 13
7.263520
 23
2.105840
  0
POLYLINE
  8
0
  6
CONTINUOUS
 66
     1
 40
0.000000
 41
0.000000
  0
VERTEX
  8
0
  6
CONTINUOUS
 10
6.571840
 20
2.138840
  0
VERTEX
  8
0
  6
CONTINUOUS
 10
7.314120
 20
2.135760
  0
VERTEX
  8
0
  6
CONTINUOUS
 10
7.263520
 20
2.105840
  0
VERTEX
  8
0
  6
CONTINUOUS
 10
6.521240
 20
2.108920
  0
VERTEX
  8
0
  6
CONTINUOUS
 10
6.571840
 20
2.138840
  0
SEQEND
  8
0
  0
SOLID
  8
0
 62
    15
 10
6.521240
 20
2.108920
 11
7.263520
 21
2.105840
 12
6.480320
 22
2.077680
 13
7.222600
 23
2.074600
  0
POLYLINE
  8
0
  6
CONTINUOUS
 66
     1
 40
0.000000
 41
0.000000
  0
VERTEX
  8
0
  6
CONTINUOUS
 10
6.521240
 20
2.108920
  0
VERTEX
  8
0
  6
CONTINUOUS
 10
7.263520
 20
2.105840
  0
VERTEX
  8
0
  6
CONTINUOUS
 10
7.222600
 20
2.074600
  0
VERTEX
  8
0
  6
CONTINUOUS
 10
6.480320
 20
2.077680
  0
VERTEX
  8
0
  6
CONTINUOUS
 10
6.521240
 20
2.108920
  0
SEQEND
  8
0
  0
SOLID
  8
0
 62
    15
 10
6.480320
 20
2.077680
 11
7.222600
 21
2.074600
 12
6.448640
 22
2.045120
 13
7.190920
 23
2.042480
  0
POLYLINE
  8
0
  6
CONTINUOUS
 66
     1
 40
0.000000
 41
0.000000
  0
VERTEX
  8
0
  6
CONTINUOUS
 10
6.480320
 20
2.077680
  0
VERTEX
  8
0
  6
CONTINUOUS
 10
7.222600
 20
2.074600
  0
VERTEX
  8
0
  6
CONTINUOUS
 10
7.190920
 20
2.042480
  0
VERTEX
  8
0
  6
CONTINUOUS
 10
6.448640
 20
2.045120
  0
VERTEX
  8
0
  6
CONTINUOUS
 10
6.480320
 20
2.077680
  0
SEQEND
  8
0
  0
SOLID
  8
0
 62
    15
 10
6.448640
 20
2.045120
 11
7.190920
 21
2.042480
 12
6.424880
 22
2.011680
 13
7.167160
 23
2.009040
  0
POLYLINE
  8
0
  6
CONTINUOUS
 66
     1
 40
0.000000
 41
0.000000
  0
VERTEX
  8
0
  6
CONTINUOUS
 10
6.448640
 20
2.045120
  0
VERTEX
  8
0
  6
CONTINUOUS
 10
7.190920
 20
2.042480
  0
VERTEX
  8
0
  6
CONTINUOUS
 10
7.167160
 20
2.009040
  0
VERTEX
  8
0
  6
CONTINUOUS
 10
6.424880
 20
2.011680
  0
VERTEX
  8
0
  6
CONTINUOUS
 10
6.448640
 20
2.045120
  0
SEQEND
  8
0
  0
SOLID
  8
0
 62
    15
 10
6.111160
 20
3.168880
 11
6.853440
 21
3.165800
 12
6.199160
 22
3.157000
 13
6.941880
 23
3.154360
  0
POLYLINE
  8
0
  6
CONTINUOUS
 66
     1
 40
0.000000
 41
0.000000
  0
VERTEX
  8
0
  6
CONTINUOUS
 10
6.111160
 20
3.168880
  0
VERTEX
  8
0
  6
CONTINUOUS
 10
6.853440
 20
3.165800
  0
VERTEX
  8
0
  6
CONTINUOUS
 10
6.941880
 20
3.154360
  0
VERTEX
  8
0
  6
CONTINUOUS
 10
6.199160
 20
3.157000
  0
VERTEX
  8
0
  6
CONTINUOUS
 10
6.111160
 20
3.168880
  0
SEQEND
  8
0
  0
SOLID
  8
0
 62
    15
 10
6.409040
 20
1.977360
 11
7.151320
 21
1.974280
 12
6.400240
 22
1.942600
 13
7.142520
 23
1.939520
  0
POLYLINE
  8
0
  6
CONTINUOUS
 66
     1
 40
0.000000
 41
0.000000
  0
VERTEX
  8
0
  6
CONTINUOUS
 10
6.409040
 20
1.977360
  0
VERTEX
  8
0
  6
CONTINUOUS
 10
7.151320
 20
1.974280
  0
VERTEX
  8
0
  6
CONTINUOUS
 10
7.142520
 20
1.939520
  0
VERTEX
  8
0
  6
CONTINUOUS
 10
6.400240
 20
1.942600
  0
VERTEX
  8
0
  6
CONTINUOUS
 10
6.409040
 20
1.977360
  0
SEQEND
  8
0
  0
SOLID
  8
0
 62
    15
 10
6.400240
 20
1.942600
 11
7.142520
 21
1.939520
 12
6.397600
 22
1.906960
 13
7.139880
 23
1.903880
  0
POLYLINE
  8
0
  6
CONTINUOUS
 66
     1
 40
0.000000
 41
0.000000
  0
VERTEX
  8
0
  6
CONTINUOUS
 10
6.400240
 20
1.942600
  0
VERTEX
  8
0
  6
CONTINUOUS
 10
7.142520
 20
1.939520
  0
VERTEX
  8
0
  6
CONTINUOUS
 10
7.139880
 20
1.903880
  0
VERTEX
  8
0
  6
CONTINUOUS
 10
6.397600
 20
1.906960
  0
VERTEX
  8
0
  6
CONTINUOUS
 10
6.400240
 20
1.942600
  0
SEQEND
  8
0
  0
SOLID
  8
0
 62
    15
 10
6.397600
 20
1.906960
 11
7.139880
 21
1.903880
 12
6.400240
 22
1.870880
 13
7.142520
 23
1.867800
  0
POLYLINE
  8
0
  6
CONTINUOUS
 66
     1
 40
0.000000
 41
0.000000
  0
VERTEX
  8
0
  6
CONTINUOUS
 10
6.397600
 20
1.906960
  0
VERTEX
  8
0
  6
CONTINUOUS
 10
7.139880
 20
1.903880
  0
VERTEX
  8
0
  6
CONTINUOUS
 10
7.142520
 20
1.867800
  0
VERTEX
  8
0
  6
CONTINUOUS
 10
6.400240
 20
1.870880
  0
VERTEX
  8
0
  6
CONTINUOUS
 10
6.397600
 20
1.906960
  0
SEQEND
  8
0
  0
SOLID
  8
0
 62
    15
 10
6.400240
 20
1.870880
 11
7.142520
 21
1.867800
 12
6.408160
 22
1.834800
 13
7.150440
 23
1.831720
  0
POLYLINE
  8
0
  6
CONTINUOUS
 66
     1
 40
0.000000
 41
0.000000
  0
VERTEX
  8
0
  6
CONTINUOUS
 10
6.400240
 20
1.870880
  0
VERTEX
  8
0
  6
CONTINUOUS
 10
7.142520
 20
1.867800
  0
VERTEX
  8
0
  6
CONTINUOUS
 10
7.150440
 20
1.831720
  0
VERTEX
  8
0
  6
CONTINUOUS
 10
6.408160
 20
1.834800
  0
VERTEX
  8
0
  6
CONTINUOUS
 10
6.400240
 20
1.870880
  0
SEQEND
  8
0
  0
SOLID
  8
0
 62
    15
 10
6.408160
 20
1.834800
 11
7.150440
 21
1.831720
 12
6.435880
 22
1.762640
 13
7.178160
 23
1.759560
  0
POLYLINE
  8
0
  6
CONTINUOUS
 66
     1
 40
0.000000
 41
0.000000
  0
VERTEX
  8
0
  6
CONTINUOUS
 10
6.408160
 20
1.834800
  0
VERTEX
  8
0
  6
CONTINUOUS
 10
7.150440
 20
1.831720
  0
VERTEX
  8
0
  6
CONTINUOUS
 10
7.178160
 20
1.759560
  0
VERTEX
  8
0
  6
CONTINUOUS
 10
6.435880
 20
1.762640
  0
VERTEX
  8
0
  6
CONTINUOUS
 10
6.408160
 20
1.834800
  0
SEQEND
  8
0
  0
SOLID
  8
0
 62
    15
 10
6.435880
 20
1.762640
 11
7.178160
 21
1.759560
 12
6.475040
 22
1.691360
 13
7.217320
 23
1.688280
  0
POLYLINE
  8
0
  6
CONTINUOUS
 66
     1
 40
0.000000
 41
0.000000
  0
VERTEX
  8
0
  6
CONTINUOUS
 10
6.435880
 20
1.762640
  0
VERTEX
  8
0
  6
CONTINUOUS
 10
7.178160
 20
1.759560
  0
VERTEX
  8
0
  6
CONTINUOUS
 10
7.217320
 20
1.688280
  0
VERTEX
  8
0
  6
CONTINUOUS
 10
6.475040
 20
1.691360
  0
VERTEX
  8
0
  6
CONTINUOUS
 10
6.435880
 20
1.762640
  0
SEQEND
  8
0
  0
SOLID
  8
0
 62
    15
 10
6.475040
 20
1.691360
 11
7.217320
 21
1.688280
 12
6.326760
 22
1.559800
 13
7.069040
 23
1.556720
  0
POLYLINE
  8
0
  6
CONTINUOUS
 66
     1
 40
0.000000
 41
0.000000
  0
VERTEX
  8
0
  6
CONTINUOUS
 10
6.475040
 20
1.691360
  0
VERTEX
  8
0
  6
CONTINUOUS
 10
7.217320
 20
1.688280
  0
VERTEX
  8
0
  6
CONTINUOUS
 10
7.069040
 20
1.556720
  0
VERTEX
  8
0
  6
CONTINUOUS
 10
6.326760
 20
1.559800
  0
VERTEX
  8
0
  6
CONTINUOUS
 10
6.475040
 20
1.691360
  0
SEQEND
  8
0
  0
SOLID
  8
0
 62
    15
 10
6.326760
 20
1.559800
 11
7.069040
 21
1.556720
 12
6.366800
 22
1.513600
 13
7.109080
 23
1.510520
  0
POLYLINE
  8
0
  6
CONTINUOUS
 66
     1
 40
0.000000
 41
0.000000
  0
VERTEX
  8
0
  6
CONTINUOUS
 10
6.326760
 20
1.559800
  0
VERTEX
  8
0
  6
CONTINUOUS
 10
7.069040
 20
1.556720
  0
VERTEX
  8
0
  6
CONTINUOUS
 10
7.109080
 20
1.510520
  0
VERTEX
  8
0
  6
CONTINUOUS
 10
6.366800
 20
1.513600
  0
VERTEX
  8
0
  6
CONTINUOUS
 10
6.326760
 20
1.559800
  0
SEQEND
  8
0
  0
SOLID
  8
0
 62
    15
 10
6.366800
 20
1.513600
 11
7.109080
 21
1.510520
 12
6.397160
 22
1.465640
 13
7.139440
 23
1.462560
  0
POLYLINE
  8
0
  6
CONTINUOUS
 66
     1
 40
0.000000
 41
0.000000
  0
VERTEX
  8
0
  6
CONTINUOUS
 10
6.366800
 20
1.513600
  0
VERTEX
  8
0
  6
CONTINUOUS
 10
7.109080
 20
1.510520
  0
VERTEX
  8
0
  6
CONTINUOUS
 10
7.139440
 20
1.462560
  0
VERTEX
  8
0
  6
CONTINUOUS
 10
6.397160
 20
1.465640
  0
VERTEX
  8
0
  6
CONTINUOUS
 10
6.366800
 20
1.513600
  0
SEQEND
  8
0
  0
SOLID
  8
0
 62
    15
 10
6.397160
 20
1.465640
 11
7.139440
 21
1.462560
 12
6.417840
 22
1.416360
 13
7.160120
 23
1.413280
  0
POLYLINE
  8
0
  6
CONTINUOUS
 66
     1
 40
0.000000
 41
0.000000
  0
VERTEX
  8
0
  6
CONTINUOUS
 10
6.397160
 20
1.465640
  0
VERTEX
  8
0
  6
CONTINUOUS
 10
7.139440
 20
1.462560
  0
VERTEX
  8
0
  6
CONTINUOUS
 10
7.160120
 20
1.413280
  0
VERTEX
  8
0
  6
CONTINUOUS
 10
6.417840
 20
1.416360
  0
VERTEX
  8
0
  6
CONTINUOUS
 10
6.397160
 20
1.465640
  0
SEQEND
  8
0
  0
SOLID
  8
0
 62
    15
 10
6.417840
 20
1.416360
 11
7.160120
 21
1.413280
 12
6.428840
 22
1.367080
 13
7.171120
 23
1.364000
  0
POLYLINE
  8
0
  6
CONTINUOUS
 66
     1
 40
0.000000
 41
0.000000
  0
VERTEX
  8
0
  6
CONTINUOUS
 10
6.417840
 20
1.416360
  0
VERTEX
  8
0
  6
CONTINUOUS
 10
7.160120
 20
1.413280
  0
VERTEX
  8
0
  6
CONTINUOUS
 10
7.171120
 20
1.364000
  0
VERTEX
  8
0
  6
CONTINUOUS
 10
6.428840
 20
1.367080
  0
VERTEX
  8
0
  6
CONTINUOUS
 10
6.417840
 20
1.416360
  0
SEQEND
  8
0
  0
SOLID
  8
0
 62
    15
 10
6.428840
 20
1.367080
 11
7.171120
 21
1.364000
 12
6.431480
 22
1.317800
 13
7.173760
 23
1.314720
  0
POLYLINE
  8
0
  6
CONTINUOUS
 66
     1
 40
0.000000
 41
0.000000
  0
VERTEX
  8
0
  6
CONTINUOUS
 10
6.428840
 20
1.367080
  0
VERTEX
  8
0
  6
CONTINUOUS
 10
7.171120
 20
1.364000
  0
VERTEX
  8
0
  6
CONTINUOUS
 10
7.173760
 20
1.314720
  0
VERTEX
  8
0
  6
CONTINUOUS
 10
6.431480
 20
1.317800
  0
VERTEX
  8
0
  6
CONTINUOUS
 10
6.428840
 20
1.367080
  0
SEQEND
  8
0
  0
SOLID
  8
0
 62
    15
 10
6.431480
 20
1.317800
 11
7.173760
 21
1.314720
 12
6.426200
 22
1.269400
 13
7.168480
 23
1.266760
  0
POLYLINE
  8
0
  6
CONTINUOUS
 66
     1
 40
0.000000
 41
0.000000
  0
VERTEX
  8
0
  6
CONTINUOUS
 10
6.431480
 20
1.317800
  0
VERTEX
  8
0
  6
CONTINUOUS
 10
7.173760
 20
1.314720
  0
VERTEX
  8
0
  6
CONTINUOUS
 10
7.168480
 20
1.266760
  0
VERTEX
  8
0
  6
CONTINUOUS
 10
6.426200
 20
1.269400
  0
VERTEX
  8
0
  6
CONTINUOUS
 10
6.431480
 20
1.317800
  0
SEQEND
  8
0
  0
SOLID
  8
0
 62
    15
 10
6.426200
 20
1.269400
 11
7.168480
 21
1.266760
 12
6.412560
 22
1.222760
 13
7.154840
 23
1.220120
  0
POLYLINE
  8
0
  6
CONTINUOUS
 66
     1
 40
0.000000
 41
0.000000
  0
VERTEX
  8
0
  6
CONTINUOUS
 10
6.426200
 20
1.269400
  0
VERTEX
  8
0
  6
CONTINUOUS
 10
7.168480
 20
1.266760
  0
VERTEX
  8
0
  6
CONTINUOUS
 10
7.154840
 20
1.220120
  0
VERTEX
  8
0
  6
CONTINUOUS
 10
6.412560
 20
1.222760
  0
VERTEX
  8
0
  6
CONTINUOUS
 10
6.426200
 20
1.269400
  0
SEQEND
  8
0
  0
SOLID
  8
0
 62
    15
 10
6.412560
 20
1.222760
 11
7.154840
 21
1.220120
 12
6.391440
 22
1.178320
 13
7.133720
 23
1.175240
  0
POLYLINE
  8
0
  6
CONTINUOUS
 66
     1
 40
0.000000
 41
0.000000
  0
VERTEX
  8
0
  6
CONTINUOUS
 10
6.412560
 20
1.222760
  0
VERTEX
  8
0
  6
CONTINUOUS
 10
7.154840
 20
1.220120
  0
VERTEX
  8
0
  6
CONTINUOUS
 10
7.133720
 20
1.175240
  0
VERTEX
  8
0
  6
CONTINUOUS
 10
6.391440
 20
1.178320
  0
VERTEX
  8
0
  6
CONTINUOUS
 10
6.412560
 20
1.222760
  0
SEQEND
  8
0
  0
SOLID
  8
0
 62
    15
 10
6.391440
 20
1.178320
 11
7.133720
 21
1.175240
 12
6.363280
 22
1.136520
 13
7.105560
 23
1.133880
  0
POLYLINE
  8
0
  6
CONTINUOUS
 66
     1
 40
0.000000
 41
0.000000
  0
VERTEX
  8
0
  6
CONTINUOUS
 10
6.391440
 20
1.178320
  0
VERTEX
  8
0
  6
CONTINUOUS
 10
7.133720
 20
1.175240
  0
VERTEX
  8
0
  6
CONTINUOUS
 10
7.105560
 20
1.133880
  0
VERTEX
  8
0
  6
CONTINUOUS
 10
6.363280
 20
1.136520
  0
VERTEX
  8
0
  6
CONTINUOUS
 10
6.391440
 20
1.178320
  0
SEQEND
  8
0
  0
SOLID
  8
0
 62
    15
 10
6.363280
 20
1.136520
 11
7.105560
 21
1.133880
 12
6.328520
 22
1.098240
 13
7.070800
 23
1.095600
  0
POLYLINE
  8
0
  6
CONTINUOUS
 66
     1
 40
0.000000
 41
0.000000
  0
VERTEX
  8
0
  6
CONTINUOUS
 10
6.363280
 20
1.136520
  0
VERTEX
  8
0
  6
CONTINUOUS
 10
7.105560
 20
1.133880
  0
VERTEX
  8
0
  6
CONTINUOUS
 10
7.070800
 20
1.095600
  0
VERTEX
  8
0
  6
CONTINUOUS
 10
6.328520
 20
1.098240
  0
VERTEX
  8
0
  6
CONTINUOUS
 10
6.363280
 20
1.136520
  0
SEQEND
  8
0
  0
SOLID
  8
0
 62
    15
 10
6.328520
 20
1.098240
 11
7.070800
 21
1.095600
 12
6.287160
 22
1.064360
 13
7.029440
 23
1.061280
  0
POLYLINE
  8
0
  6
CONTINUOUS
 66
     1
 40
0.000000
 41
0.000000
  0
VERTEX
  8
0
  6
CONTINUOUS
 10
6.328520
 20
1.098240
  0
VERTEX
  8
0
  6
CONTINUOUS
 10
7.070800
 20
1.095600
  0
VERTEX
  8
0
  6
CONTINUOUS
 10
7.029440
 20
1.061280
  0
VERTEX
  8
0
  6
CONTINUOUS
 10
6.287160
 20
1.064360
  0
VERTEX
  8
0
  6
CONTINUOUS
 10
6.328520
 20
1.098240
  0
SEQEND
  8
0
  0
SOLID
  8
0
 62
    15
 10
6.287160
 20
1.064360
 11
7.029440
 21
1.061280
 12
6.240520
 22
1.034880
 13
6.982800
 23
1.032240
  0
POLYLINE
  8
0
  6
CONTINUOUS
 66
     1
 40
0.000000
 41
0.000000
  0
VERTEX
  8
0
  6
CONTINUOUS
 10
6.287160
 20
1.064360
  0
VERTEX
  8
0
  6
CONTINUOUS
 10
7.029440
 20
1.061280
  0
VERTEX
  8
0
  6
CONTINUOUS
 10
6.982800
 20
1.032240
  0
VERTEX
  8
0
  6
CONTINUOUS
 10
6.240520
 20
1.034880
  0
VERTEX
  8
0
  6
CONTINUOUS
 10
6.287160
 20
1.064360
  0
SEQEND
  8
0
  0
SOLID
  8
0
 62
    15
 10
6.240520
 20
1.034880
 11
6.982800
 21
1.032240
 12
6.188160
 22
1.011120
 13
6.930440
 23
1.008040
  0
POLYLINE
  8
0
  6
CONTINUOUS
 66
     1
 40
0.000000
 41
0.000000
  0
VERTEX
  8
0
  6
CONTINUOUS
 10
6.240520
 20
1.034880
  0
VERTEX
  8
0
  6
CONTINUOUS
 10
6.982800
 20
1.032240
  0
VERTEX
  8
0
  6
CONTINUOUS
 10
6.930440
 20
1.008040
  0
VERTEX
  8
0
  6
CONTINUOUS
 10
6.188160
 20
1.011120
  0
VERTEX
  8
0
  6
CONTINUOUS
 10
6.240520
 20
1.034880
  0
SEQEND
  8
0
  0
SOLID
  8
0
 62
    15
 10
6.188160
 20
1.011120
 11
6.930440
 21
1.008040
 12
6.130960
 22
0.993080
 13
6.873240
 23
0.990000
  0
POLYLINE
  8
0
  6
CONTINUOUS
 66
     1
 40
0.000000
 41
0.000000
  0
VERTEX
  8
0
  6
CONTINUOUS
 10
6.188160
 20
1.011120
  0
VERTEX
  8
0
  6
CONTINUOUS
 10
6.930440
 20
1.008040
  0
VERTEX
  8
0
  6
CONTINUOUS
 10
6.873240
 20
0.990000
  0
VERTEX
  8
0
  6
CONTINUOUS
 10
6.130960
 20
0.993080
  0
VERTEX
  8
0
  6
CONTINUOUS
 10
6.188160
 20
1.011120
  0
SEQEND
  8
0
  0
SOLID
  8
0
 62
    15
 10
6.068920
 20
0.982080
 11
6.811200
 21
0.979000
 12
6.002920
 22
0.978120
 13
6.745200
 23
0.975040
  0
POLYLINE
  8
0
  6
CONTINUOUS
 66
     1
 40
0.000000
 41
0.000000
  0
VERTEX
  8
0
  6
CONTINUOUS
 10
6.068920
 20
0.982080
  0
VERTEX
  8
0
  6
CONTINUOUS
 10
6.811200
 20
0.979000
  0
VERTEX
  8
0
  6
CONTINUOUS
 10
6.745200
 20
0.975040
  0
VERTEX
  8
0
  6
CONTINUOUS
 10
6.002920
 20
0.978120
  0
VERTEX
  8
0
  6
CONTINUOUS
 10
6.068920
 20
0.982080
  0
SEQEND
  8
0
  0
SOLID
  8
0
 62
    15
 10
6.130960
 20
0.993080
 11
6.873240
 21
0.990000
 12
6.068920
 22
0.982080
 13
6.811200
 23
0.979000
  0
POLYLINE
  8
0
  6
CONTINUOUS
 66
     1
 40
0.000000
 41
0.000000
  0
VERTEX
  8
0
  6
CONTINUOUS
 10
6.130960
 20
0.993080
  0
VERTEX
  8
0
  6
CONTINUOUS
 10
6.873240
 20
0.990000
  0
VERTEX
  8
0
  6
CONTINUOUS
 10
6.811200
 20
0.979000
  0
VERTEX
  8
0
  6
CONTINUOUS
 10
6.068920
 20
0.982080
  0
VERTEX
  8
0
  6
CONTINUOUS
 10
6.130960
 20
0.993080
  0
SEQEND
  8
0
  0
POLYLINE
  8
0
  6
CONTINUOUS
 66
     1
 40
0.000000
 41
0.000000
  0
VERTEX
  8
0
  6
CONTINUOUS
 10
6.011720
 20
3.173280
  0
VERTEX
  8
0
  6
CONTINUOUS
 10
6.111160
 20
3.168880
  0
VERTEX
  8
0
  6
CONTINUOUS
 10
6.199160
 20
3.157000
  0
VERTEX
  8
0
  6
CONTINUOUS
 10
6.277040
 20
3.139400
  0
VERTEX
  8
0
  6
CONTINUOUS
 10
6.344800
 20
3.116520
  0
VERTEX
  8
0
  6
CONTINUOUS
 10
6.403320
 20
3.088800
  0
VERTEX
  8
0
  6
CONTINUOUS
 10
6.453040
 20
3.058000
  0
VERTEX
  8
0
  6
CONTINUOUS
 10
6.495280
 20
3.024560
  0
VERTEX
  8
0
  6
CONTINUOUS
 10
6.530040
 20
2.988920
  0
VERTEX
  8
0
  6
CONTINUOUS
 10
6.558640
 20
2.952840
  0
VERTEX
  8
0
  6
CONTINUOUS
 10
6.581080
 20
2.916320
  0
VERTEX
  8
0
  6
CONTINUOUS
 10
6.598240
 20
2.880680
  0
VERTEX
  8
0
  6
CONTINUOUS
 10
6.611000
 20
2.846800
  0
VERTEX
  8
0
  6
CONTINUOUS
 10
6.620240
 20
2.815560
  0
VERTEX
  8
0
  6
CONTINUOUS
 10
6.625960
 20
2.787400
  0
VERTEX
  8
0
  6
CONTINUOUS
 10
6.630800
 20
2.745160
  0
VERTEX
  8
0
  6
CONTINUOUS
 10
6.787880
 20
2.745160
  0
VERTEX
  8
0
  6
CONTINUOUS
 10
6.787880
 20
2.218040
  0
VERTEX
  8
0
  6
CONTINUOUS
 10
6.704280
 20
2.193400
  0
VERTEX
  8
0
  6
CONTINUOUS
 10
6.632560
 20
2.167000
  0
VERTEX
  8
0
  6
CONTINUOUS
 10
6.571840
 20
2.138840
  0
VERTEX
  8
0
  6
CONTINUOUS
 10
6.521240
 20
2.108920
  0
VERTEX
  8
0
  6
CONTINUOUS
 10
6.480320
 20
2.077680
  0
VERTEX
  8
0
  6
CONTINUOUS
 10
6.448640
 20
2.045120
  0
VERTEX
  8
0
  6
CONTINUOUS
 10
6.424880
 20
2.011680
  0
VERTEX
  8
0
  6
CONTINUOUS
 10
6.409040
 20
1.977360
  0
VERTEX
  8
0
  6
CONTINUOUS
 10
6.400240
 20
1.942600
  0
VERTEX
  8
0
  6
CONTINUOUS
 10
6.397600
 20
1.906960
  0
VERTEX
  8
0
  6
CONTINUOUS
 10
6.400240
 20
1.870880
  0
VERTEX
  8
0
  6
CONTINUOUS
 10
6.408160
 20
1.834800
  0
VERTEX
  8
0
  6
CONTINUOUS
 10
6.435880
 20
1.762640
  0
VERTEX
  8
0
  6
CONTINUOUS
 10
6.475040
 20
1.691360
  0
VERTEX
  8
0
  6
CONTINUOUS
 10
6.326760
 20
1.559800
  0
VERTEX
  8
0
  6
CONTINUOUS
 10
6.366800
 20
1.513600
  0
VERTEX
  8
0
  6
CONTINUOUS
 10
6.397160
 20
1.465640
  0
VERTEX
  8
0
  6
CONTINUOUS
 10
6.417840
 20
1.416360
  0
VERTEX
  8
0
  6
CONTINUOUS
 10
6.428840
 20
1.367080
  0
VERTEX
  8
0
  6
CONTINUOUS
 10
6.431480
 20
1.317800
  0
VERTEX
  8
0
  6
CONTINUOUS
 10
6.426200
 20
1.269400
  0
VERTEX
  8
0
  6
CONTINUOUS
 10
6.412560
 20
1.222760
  0
VERTEX
  8
0
  6
CONTINUOUS
 10
6.391440
 20
1.178320
  0
VERTEX
  8
0
  6
CONTINUOUS
 10
6.363280
 20
1.136520
  0
VERTEX
  8
0
  6
CONTINUOUS
 10
6.328520
 20
1.098240
  0
VERTEX
  8
0
  6
CONTINUOUS
 10
6.287160
 20
1.064360
  0
VERTEX
  8
0
  6
CONTINUOUS
 10
6.240520
 20
1.034880
  0
VERTEX
  8
0
  6
CONTINUOUS
 10
6.188160
 20
1.011120
  0
VERTEX
  8
0
  6
CONTINUOUS
 10
6.130960
 20
0.993080
  0
VERTEX
  8
0
  6
CONTINUOUS
 10
6.068920
 20
0.982080
  0
VERTEX
  8
0
  6
CONTINUOUS
 10
6.002920
 20
0.978120
  0
VERTEX
  8
0
  6
CONTINUOUS
 10
6.002920
 20
3.173280
  0
VERTEX
  8
0
  6
CONTINUOUS
 10
6.011720
 20
3.173280
  0
SEQEND
  8
0
  0
TEXT
  8
0
 10
6.470200
 20
0.745800
 40
0.138008
  1
BA  385
 41
1.000000
  7
SN0
 71
     0
 72
     5
 11
7.060058
 21
0.745800
  0
TEXT
  8
0
 10
6.314440
 20
0.554400
 40
0.138008
  1
3/4" x 2-1/4"
 41
1.000000
  7
SN0
 71
     0
 72
     5
 11
7.214070
 21
0.554400
  0
ENDSEC
  0
EOF
