  0
SECTION
  2
HEADER
  9
$ACADVER
  1
AC1006
  9
$EXTMIN
 10
2.227280
 20
0.549120
  9
$EXTMAX
 10
7.270120
 20
4.231920
  9
$LTSCALE
 40
0.044000
  9
$PDMODE
 70
    35
  9
$PDSIZE
 40
0.035200
  0
ENDSEC
  0
SECTION
  2
TABLES
  0
TABLE
  2
LTYPE
 70
     9
  0
LTYPE
  2
CONTINUOUS
 70
    64
  3
Solid line
 72
    65
 73
     0
 40
0.000000
  0
LTYPE
  2
DASHED
 70
    64
  3
__ __ __ __ __ __ __ __ __ __ __ __ __ __ __
 72
    65
 73
     2
 40
0.000330
 49
0.000220
 49
-0.000110
  0
LTYPE
  2
HIDDEN
 70
    64
  3
 _ _ _ _ _ _ _ _ _ _ _ _ _ _ _ _ _ _ _ _ _ _
 72
    65
 73
     2
 40
0.000165
 49
0.000110
 49
-0.000055
  0
LTYPE
  2
CENTER
 70
    64
  3
____ _ ____ _ ____ _ ____ _ ____ _ ____ _ ____
 72
    65
 73
     4
 40
0.000880
 49
0.000550
 49
-0.000110
 49
0.000110
 49
-0.000110
  0
LTYPE
  2
PHANTOM
 70
    64
  3
_____ _ _ _____ _ _ _____ _ _ _____ _ _ ____
 72
    65
 73
     6
 40
0.001100
 49
0.000550
 49
-0.000110
 49
0.000110
 49
-0.000110
 49
0.000110
 49
-0.000110
  0
LTYPE
  2
DOT
 70
    64
  3
...............................................
 72
    65
 73
     2
 40
0.000110
 49
0.000000
 49
-0.000110
  0
LTYPE
  2
DASHDOT
 70
    64
  3
__ . __ . __ . __ . __ . __ . __ . __ . __ . __
 72
    65
 73
     4
 40
0.000440
 49
0.000220
 49
-0.000110
 49
0.000000
 49
-0.000110
  0
LTYPE
  2
BORDER
 70
    64
  3
__ __ . __ __ . __ __ . __ __ . __ __ . __ __
 72
    65
 73
     6
 40
0.000770
 49
0.000220
 49
-0.000110
 49
0.000220
 49
-0.000110
 49
0.000000
 49
-0.000110
  0
LTYPE
  2
DIVIDE
 70
    64
  3
__ . . __ . . __ . . __ . . __ . . __ . . __
 72
    65
 73
     6
 40
0.000550
 49
0.000220
 49
-0.000110
 49
0.000000
 49
-0.000110
 49
0.000000
 49
-0.000110
  0
LTYPE
  2
DOTDOT
 70
    64
  3
 . .  . .  . .  . .  . .  . . 
 72
    65
 73
     5
 40
0.000242
 49
-0.000110
 49
0.000000
 49
-0.000110
 49
0.000000
 49
-0.000110
  0
ENDTAB
  0
TABLE
  2
STYLE
 70
     2
  0
STYLE
 70
     0
  2
SN0
 40
0.000000
 41
0.000440
 50
0.000000
 71
     0
 42
0.000000
  3
ROMAND
  0
STYLE
 70
    68
  2
SV0
 40
0.000000
 41
0.000440
 50
0.000000
 71
     0
 42
0.000000
  3
ROMAND
  0
ENDTAB
  0
TABLE
  2
LAYER
 70
     3
  0
LAYER
  2
FOREGROUND
 70
    64
 62
     7
  6
CONTINUOUS
  0
LAYER
  2
BACKGROUND
 70
    65
 62
    -7
  6
CONTINUOUS
  0
LAYER
  2
0
 70
    64
 62
     7
  6
CONTINUOUS
  0
ENDTAB
  0
ENDSEC
  0
SECTION
  2
ENTITIES
  0
POLYLINE
  8
FOREGROUND
  6
CONTINUOUS
 66
     1
 40
0.000000
 41
0.000000
  0
VERTEX
  8
FOREGROUND
  6
CONTINUOUS
 10
0.000000
 20
4.781040
  0
VERTEX
  8
FOREGROUND
  6
CONTINUOUS
 10
8.499920
 20
4.781040
  0
VERTEX
  8
FOREGROUND
  6
CONTINUOUS
 10
8.499920
 20
-6.218960
  0
VERTEX
  8
FOREGROUND
  6
CONTINUOUS
 10
0.000000
 20
-6.218960
  0
VERTEX
  8
FOREGROUND
  6
CONTINUOUS
 10
0.000000
 20
4.781040
  0
SEQEND
  8
0
  0
POLYLINE
  8
0
  6
CONTINUOUS
 66
     1
 40
0.014080
 41
0.014080
  0
VERTEX
  8
0
  6
CONTINUOUS
 10
3.384480
 20
4.122800
  0
VERTEX
  8
0
  6
CONTINUOUS
 10
3.398120
 20
4.148760
  0
VERTEX
  8
0
  6
CONTINUOUS
 10
3.414400
 20
4.169880
  0
VERTEX
  8
0
  6
CONTINUOUS
 10
3.433320
 20
4.185720
  0
VERTEX
  8
0
  6
CONTINUOUS
 10
3.446520
 20
4.193640
  0
VERTEX
  8
0
  6
CONTINUOUS
 10
3.468080
 20
4.200240
  0
VERTEX
  8
0
  6
CONTINUOUS
 10
3.483480
 20
4.202000
  0
VERTEX
  8
0
  6
CONTINUOUS
 10
3.499320
 20
4.201120
  0
VERTEX
  8
0
  6
CONTINUOUS
 10
3.523520
 20
4.194960
  0
VERTEX
  8
0
  6
CONTINUOUS
 10
3.548600
 20
4.183520
  0
VERTEX
  8
0
  6
CONTINUOUS
 10
3.582040
 20
4.158440
  0
VERTEX
  8
0
  6
CONTINUOUS
 10
3.607120
 20
4.132920
  0
VERTEX
  8
0
  6
CONTINUOUS
 10
3.688960
 20
4.033480
  0
VERTEX
  8
0
  6
CONTINUOUS
 10
3.716240
 20
4.005320
  0
VERTEX
  8
0
  6
CONTINUOUS
 10
3.744840
 20
3.981560
  0
VERTEX
  8
0
  6
CONTINUOUS
 10
3.775640
 20
3.962200
  0
VERTEX
  8
0
  6
CONTINUOUS
 10
3.810400
 20
3.947240
  0
VERTEX
  8
0
  6
CONTINUOUS
 10
3.850880
 20
3.936680
  0
VERTEX
  8
0
  6
CONTINUOUS
 10
3.873760
 20
3.933160
  0
VERTEX
  8
0
  6
CONTINUOUS
 10
3.879920
 20
3.813920
  0
VERTEX
  8
0
  6
CONTINUOUS
 10
3.917760
 20
3.813920
  0
VERTEX
  8
0
  6
CONTINUOUS
 10
3.917320
 20
3.814800
  0
VERTEX
  8
0
  6
CONTINUOUS
 10
3.935360
 20
3.830200
  0
VERTEX
  8
0
  6
CONTINUOUS
 10
3.956040
 20
3.841640
  0
VERTEX
  8
0
  6
CONTINUOUS
 10
3.979360
 20
3.849120
  0
VERTEX
  8
0
  6
CONTINUOUS
 10
3.991240
 20
3.851320
  0
VERTEX
  8
0
  6
CONTINUOUS
 10
4.016320
 20
3.851320
  0
VERTEX
  8
0
  6
CONTINUOUS
 10
4.039640
 20
3.846480
  0
VERTEX
  8
0
  6
CONTINUOUS
 10
4.060760
 20
3.837240
  0
VERTEX
  8
0
  6
CONTINUOUS
 10
4.080120
 20
3.824480
  0
VERTEX
  8
0
  6
CONTINUOUS
 10
4.095960
 20
3.808640
  0
VERTEX
  8
0
  6
CONTINUOUS
 10
4.108720
 20
3.789720
  0
VERTEX
  8
0
  6
CONTINUOUS
 10
4.117960
 20
3.768160
  0
VERTEX
  8
0
  6
CONTINUOUS
 10
4.122800
 20
3.745280
  0
VERTEX
  8
0
  6
CONTINUOUS
 10
4.123240
 20
3.692480
  0
VERTEX
  8
0
  6
CONTINUOUS
 10
4.221360
 20
3.692480
  0
VERTEX
  8
0
  6
CONTINUOUS
 10
4.221360
 20
3.605800
  0
VERTEX
  8
0
  6
CONTINUOUS
 10
6.238760
 20
3.605800
  0
VERTEX
  8
0
  6
CONTINUOUS
 10
6.238760
 20
3.674440
  0
VERTEX
  8
0
  6
CONTINUOUS
 10
6.252840
 20
3.677080
  0
VERTEX
  8
0
  6
CONTINUOUS
 10
6.275720
 20
3.687640
  0
VERTEX
  8
0
  6
CONTINUOUS
 10
6.299040
 20
3.705680
  0
VERTEX
  8
0
  6
CONTINUOUS
 10
6.320160
 20
3.729440
  0
VERTEX
  8
0
  6
CONTINUOUS
 10
6.332480
 20
3.748800
  0
VERTEX
  8
0
  6
CONTINUOUS
 10
6.345240
 20
3.780480
  0
VERTEX
  8
0
  6
CONTINUOUS
 10
6.361080
 20
3.844280
  0
VERTEX
  8
0
  6
CONTINUOUS
 10
6.369440
 20
3.861880
  0
VERTEX
  8
0
  6
CONTINUOUS
 10
6.382200
 20
3.876840
  0
VERTEX
  8
0
  6
CONTINUOUS
 10
6.390560
 20
3.883000
  0
VERTEX
  8
0
  6
CONTINUOUS
 10
6.413000
 20
3.892240
  0
VERTEX
  8
0
  6
CONTINUOUS
 10
6.435440
 20
3.896200
  0
VERTEX
  8
0
  6
CONTINUOUS
 10
6.463160
 20
3.897080
  0
VERTEX
  8
0
  6
CONTINUOUS
 10
6.463160
 20
3.960000
  0
VERTEX
  8
0
  6
CONTINUOUS
 10
6.864440
 20
3.960000
  0
VERTEX
  8
0
  6
CONTINUOUS
 10
6.864440
 20
3.897080
  0
VERTEX
  8
0
  6
CONTINUOUS
 10
6.867960
 20
3.880800
  0
VERTEX
  8
0
  6
CONTINUOUS
 10
6.875440
 20
3.870240
  0
VERTEX
  8
0
  6
CONTINUOUS
 10
6.886440
 20
3.863640
  0
VERTEX
  8
0
  6
CONTINUOUS
 10
6.899640
 20
3.859240
  0
VERTEX
  8
0
  6
CONTINUOUS
 10
6.936600
 20
3.850880
  0
VERTEX
  8
0
  6
CONTINUOUS
 10
6.957720
 20
3.839880
  0
VERTEX
  8
0
  6
CONTINUOUS
 10
6.977960
 20
3.821400
  0
VERTEX
  8
0
  6
CONTINUOUS
 10
6.990720
 20
3.802040
  0
VERTEX
  8
0
  6
CONTINUOUS
 10
6.997760
 20
3.774760
  0
VERTEX
  8
0
  6
CONTINUOUS
 10
7.004360
 20
3.720200
  0
VERTEX
  8
0
  6
CONTINUOUS
 10
7.010520
 20
3.696440
  0
VERTEX
  8
0
  6
CONTINUOUS
 10
7.020640
 20
3.675320
  0
VERTEX
  8
0
  6
CONTINUOUS
 10
7.033840
 20
3.656840
  0
VERTEX
  8
0
  6
CONTINUOUS
 10
7.050120
 20
3.641000
  0
VERTEX
  8
0
  6
CONTINUOUS
 10
7.068160
 20
3.629120
  0
VERTEX
  8
0
  6
CONTINUOUS
 10
7.088400
 20
3.620760
  0
VERTEX
  8
0
  6
CONTINUOUS
 10
7.109960
 20
3.616360
  0
VERTEX
  8
0
  6
CONTINUOUS
 10
7.120960
 20
3.615920
  0
VERTEX
  8
0
  6
CONTINUOUS
 10
7.120960
 20
3.486560
  0
VERTEX
  8
0
  6
CONTINUOUS
 10
7.263080
 20
3.486560
  0
VERTEX
  8
0
  6
CONTINUOUS
 10
7.263080
 20
3.093640
  0
VERTEX
  8
0
  6
CONTINUOUS
 10
2.247960
 20
3.093640
  0
VERTEX
  8
0
  6
CONTINUOUS
 10
2.247960
 20
4.224440
  0
VERTEX
  8
0
  6
CONTINUOUS
 10
3.238840
 20
4.224440
  0
VERTEX
  8
0
  6
CONTINUOUS
 10
3.238840
 20
4.121480
  0
VERTEX
  8
0
  6
CONTINUOUS
 10
3.383600
 20
4.121480
  0
VERTEX
  8
0
  6
CONTINUOUS
 10
3.384480
 20
4.122800
  0
SEQEND
  8
0
  0
SOLID
  8
0
 62
    15
 10
6.250200
 20
1.639000
 11
6.247560
 21
2.376880
 12
6.281440
 22
1.661440
 13
6.278800
 23
2.399320
  0
POLYLINE
  8
0
  6
CONTINUOUS
 66
     1
 40
0.000000
 41
0.000000
  0
VERTEX
  8
0
  6
CONTINUOUS
 10
6.250200
 20
1.639000
  0
VERTEX
  8
0
  6
CONTINUOUS
 10
6.247560
 20
2.376880
  0
VERTEX
  8
0
  6
CONTINUOUS
 10
6.278800
 20
2.399320
  0
VERTEX
  8
0
  6
CONTINUOUS
 10
6.281440
 20
1.661440
  0
VERTEX
  8
0
  6
CONTINUOUS
 10
6.250200
 20
1.639000
  0
SEQEND
  8
0
  0
SOLID
  8
0
 62
    15
 10
3.385800
 20
2.112000
 11
3.383160
 21
2.850320
 12
3.409120
 22
2.136640
 13
3.406480
 23
2.874960
  0
POLYLINE
  8
0
  6
CONTINUOUS
 66
     1
 40
0.000000
 41
0.000000
  0
VERTEX
  8
0
  6
CONTINUOUS
 10
3.385800
 20
2.112000
  0
VERTEX
  8
0
  6
CONTINUOUS
 10
3.383160
 20
2.850320
  0
VERTEX
  8
0
  6
CONTINUOUS
 10
3.406480
 20
2.874960
  0
VERTEX
  8
0
  6
CONTINUOUS
 10
3.409120
 20
2.136640
  0
VERTEX
  8
0
  6
CONTINUOUS
 10
3.385800
 20
2.112000
  0
SEQEND
  8
0
  0
SOLID
  8
0
 62
    15
 10
3.409120
 20
2.136640
 11
3.406480
 21
2.874960
 12
3.436400
 22
2.152040
 13
3.433320
 23
2.889920
  0
POLYLINE
  8
0
  6
CONTINUOUS
 66
     1
 40
0.000000
 41
0.000000
  0
VERTEX
  8
0
  6
CONTINUOUS
 10
3.409120
 20
2.136640
  0
VERTEX
  8
0
  6
CONTINUOUS
 10
3.406480
 20
2.874960
  0
VERTEX
  8
0
  6
CONTINUOUS
 10
3.433320
 20
2.889920
  0
VERTEX
  8
0
  6
CONTINUOUS
 10
3.436400
 20
2.152040
  0
VERTEX
  8
0
  6
CONTINUOUS
 10
3.409120
 20
2.136640
  0
SEQEND
  8
0
  0
SOLID
  8
0
 62
    15
 10
3.436400
 20
2.152040
 11
3.433320
 21
2.889920
 12
3.465880
 22
2.157760
 13
3.463240
 23
2.895640
  0
POLYLINE
  8
0
  6
CONTINUOUS
 66
     1
 40
0.000000
 41
0.000000
  0
VERTEX
  8
0
  6
CONTINUOUS
 10
3.436400
 20
2.152040
  0
VERTEX
  8
0
  6
CONTINUOUS
 10
3.433320
 20
2.889920
  0
VERTEX
  8
0
  6
CONTINUOUS
 10
3.463240
 20
2.895640
  0
VERTEX
  8
0
  6
CONTINUOUS
 10
3.465880
 20
2.157760
  0
VERTEX
  8
0
  6
CONTINUOUS
 10
3.436400
 20
2.152040
  0
SEQEND
  8
0
  0
SOLID
  8
0
 62
    15
 10
3.465880
 20
2.157760
 11
3.463240
 21
2.895640
 12
3.497560
 22
2.153360
 13
3.494920
 23
2.891680
  0
POLYLINE
  8
0
  6
CONTINUOUS
 66
     1
 40
0.000000
 41
0.000000
  0
VERTEX
  8
0
  6
CONTINUOUS
 10
3.465880
 20
2.157760
  0
VERTEX
  8
0
  6
CONTINUOUS
 10
3.463240
 20
2.895640
  0
VERTEX
  8
0
  6
CONTINUOUS
 10
3.494920
 20
2.891680
  0
VERTEX
  8
0
  6
CONTINUOUS
 10
3.497560
 20
2.153360
  0
VERTEX
  8
0
  6
CONTINUOUS
 10
3.465880
 20
2.157760
  0
SEQEND
  8
0
  0
SOLID
  8
0
 62
    15
 10
3.497560
 20
2.153360
 11
3.494920
 21
2.891680
 12
3.531000
 22
2.138840
 13
3.528360
 23
2.877160
  0
POLYLINE
  8
0
  6
CONTINUOUS
 66
     1
 40
0.000000
 41
0.000000
  0
VERTEX
  8
0
  6
CONTINUOUS
 10
3.497560
 20
2.153360
  0
VERTEX
  8
0
  6
CONTINUOUS
 10
3.494920
 20
2.891680
  0
VERTEX
  8
0
  6
CONTINUOUS
 10
3.528360
 20
2.877160
  0
VERTEX
  8
0
  6
CONTINUOUS
 10
3.531000
 20
2.138840
  0
VERTEX
  8
0
  6
CONTINUOUS
 10
3.497560
 20
2.153360
  0
SEQEND
  8
0
  0
SOLID
  8
0
 62
    15
 10
3.531000
 20
2.138840
 11
3.528360
 21
2.877160
 12
3.564440
 22
2.114200
 13
3.561800
 23
2.852080
  0
POLYLINE
  8
0
  6
CONTINUOUS
 66
     1
 40
0.000000
 41
0.000000
  0
VERTEX
  8
0
  6
CONTINUOUS
 10
3.531000
 20
2.138840
  0
VERTEX
  8
0
  6
CONTINUOUS
 10
3.528360
 20
2.877160
  0
VERTEX
  8
0
  6
CONTINUOUS
 10
3.561800
 20
2.852080
  0
VERTEX
  8
0
  6
CONTINUOUS
 10
3.564440
 20
2.114200
  0
VERTEX
  8
0
  6
CONTINUOUS
 10
3.531000
 20
2.138840
  0
SEQEND
  8
0
  0
SOLID
  8
0
 62
    15
 10
3.564440
 20
2.114200
 11
3.561800
 21
2.852080
 12
3.597880
 22
2.078120
 13
3.595240
 23
2.816440
  0
POLYLINE
  8
0
  6
CONTINUOUS
 66
     1
 40
0.000000
 41
0.000000
  0
VERTEX
  8
0
  6
CONTINUOUS
 10
3.564440
 20
2.114200
  0
VERTEX
  8
0
  6
CONTINUOUS
 10
3.561800
 20
2.852080
  0
VERTEX
  8
0
  6
CONTINUOUS
 10
3.595240
 20
2.816440
  0
VERTEX
  8
0
  6
CONTINUOUS
 10
3.597880
 20
2.078120
  0
VERTEX
  8
0
  6
CONTINUOUS
 10
3.564440
 20
2.114200
  0
SEQEND
  8
0
  0
SOLID
  8
0
 62
    15
 10
3.597880
 20
2.078120
 11
3.595240
 21
2.816440
 12
3.629120
 22
2.039400
 13
3.626480
 23
2.777280
  0
POLYLINE
  8
0
  6
CONTINUOUS
 66
     1
 40
0.000000
 41
0.000000
  0
VERTEX
  8
0
  6
CONTINUOUS
 10
3.597880
 20
2.078120
  0
VERTEX
  8
0
  6
CONTINUOUS
 10
3.595240
 20
2.816440
  0
VERTEX
  8
0
  6
CONTINUOUS
 10
3.626480
 20
2.777280
  0
VERTEX
  8
0
  6
CONTINUOUS
 10
3.629120
 20
2.039400
  0
VERTEX
  8
0
  6
CONTINUOUS
 10
3.597880
 20
2.078120
  0
SEQEND
  8
0
  0
SOLID
  8
0
 62
    15
 10
3.629120
 20
2.039400
 11
3.626480
 21
2.777280
 12
3.657720
 22
2.004640
 13
3.655080
 23
2.742520
  0
POLYLINE
  8
0
  6
CONTINUOUS
 66
     1
 40
0.000000
 41
0.000000
  0
VERTEX
  8
0
  6
CONTINUOUS
 10
3.629120
 20
2.039400
  0
VERTEX
  8
0
  6
CONTINUOUS
 10
3.626480
 20
2.777280
  0
VERTEX
  8
0
  6
CONTINUOUS
 10
3.655080
 20
2.742520
  0
VERTEX
  8
0
  6
CONTINUOUS
 10
3.657720
 20
2.004640
  0
VERTEX
  8
0
  6
CONTINUOUS
 10
3.629120
 20
2.039400
  0
SEQEND
  8
0
  0
SOLID
  8
0
 62
    15
 10
3.657720
 20
2.004640
 11
3.655080
 21
2.742520
 12
3.712720
 22
1.948320
 13
3.710080
 23
2.686640
  0
POLYLINE
  8
0
  6
CONTINUOUS
 66
     1
 40
0.000000
 41
0.000000
  0
VERTEX
  8
0
  6
CONTINUOUS
 10
3.657720
 20
2.004640
  0
VERTEX
  8
0
  6
CONTINUOUS
 10
3.655080
 20
2.742520
  0
VERTEX
  8
0
  6
CONTINUOUS
 10
3.710080
 20
2.686640
  0
VERTEX
  8
0
  6
CONTINUOUS
 10
3.712720
 20
1.948320
  0
VERTEX
  8
0
  6
CONTINUOUS
 10
3.657720
 20
2.004640
  0
SEQEND
  8
0
  0
SOLID
  8
0
 62
    15
 10
3.712720
 20
1.948320
 11
3.710080
 21
2.686640
 12
3.742200
 22
1.927200
 13
3.739560
 23
2.665080
  0
POLYLINE
  8
0
  6
CONTINUOUS
 66
     1
 40
0.000000
 41
0.000000
  0
VERTEX
  8
0
  6
CONTINUOUS
 10
3.712720
 20
1.948320
  0
VERTEX
  8
0
  6
CONTINUOUS
 10
3.710080
 20
2.686640
  0
VERTEX
  8
0
  6
CONTINUOUS
 10
3.739560
 20
2.665080
  0
VERTEX
  8
0
  6
CONTINUOUS
 10
3.742200
 20
1.927200
  0
VERTEX
  8
0
  6
CONTINUOUS
 10
3.712720
 20
1.948320
  0
SEQEND
  8
0
  0
SOLID
  8
0
 62
    15
 10
3.742200
 20
1.927200
 11
3.739560
 21
2.665080
 12
3.774760
 22
1.910040
 13
3.772120
 23
2.647920
  0
POLYLINE
  8
0
  6
CONTINUOUS
 66
     1
 40
0.000000
 41
0.000000
  0
VERTEX
  8
0
  6
CONTINUOUS
 10
3.742200
 20
1.927200
  0
VERTEX
  8
0
  6
CONTINUOUS
 10
3.739560
 20
2.665080
  0
VERTEX
  8
0
  6
CONTINUOUS
 10
3.772120
 20
2.647920
  0
VERTEX
  8
0
  6
CONTINUOUS
 10
3.774760
 20
1.910040
  0
VERTEX
  8
0
  6
CONTINUOUS
 10
3.742200
 20
1.927200
  0
SEQEND
  8
0
  0
SOLID
  8
0
 62
    15
 10
3.774760
 20
1.910040
 11
3.772120
 21
2.647920
 12
3.812600
 22
1.897280
 13
3.809520
 23
2.635160
  0
POLYLINE
  8
0
  6
CONTINUOUS
 66
     1
 40
0.000000
 41
0.000000
  0
VERTEX
  8
0
  6
CONTINUOUS
 10
3.774760
 20
1.910040
  0
VERTEX
  8
0
  6
CONTINUOUS
 10
3.772120
 20
2.647920
  0
VERTEX
  8
0
  6
CONTINUOUS
 10
3.809520
 20
2.635160
  0
VERTEX
  8
0
  6
CONTINUOUS
 10
3.812600
 20
1.897280
  0
VERTEX
  8
0
  6
CONTINUOUS
 10
3.774760
 20
1.910040
  0
SEQEND
  8
0
  0
SOLID
  8
0
 62
    15
 10
3.812600
 20
1.897280
 11
3.809520
 21
2.635160
 12
3.856160
 22
1.888920
 13
3.853520
 23
2.626800
  0
POLYLINE
  8
0
  6
CONTINUOUS
 66
     1
 40
0.000000
 41
0.000000
  0
VERTEX
  8
0
  6
CONTINUOUS
 10
3.812600
 20
1.897280
  0
VERTEX
  8
0
  6
CONTINUOUS
 10
3.809520
 20
2.635160
  0
VERTEX
  8
0
  6
CONTINUOUS
 10
3.853520
 20
2.626800
  0
VERTEX
  8
0
  6
CONTINUOUS
 10
3.856160
 20
1.888920
  0
VERTEX
  8
0
  6
CONTINUOUS
 10
3.812600
 20
1.897280
  0
SEQEND
  8
0
  0
SOLID
  8
0
 62
    15
 10
3.856160
 20
1.888920
 11
3.853520
 21
2.626800
 12
3.862320
 22
1.769680
 13
3.859680
 23
2.508000
  0
POLYLINE
  8
0
  6
CONTINUOUS
 66
     1
 40
0.000000
 41
0.000000
  0
VERTEX
  8
0
  6
CONTINUOUS
 10
3.856160
 20
1.888920
  0
VERTEX
  8
0
  6
CONTINUOUS
 10
3.853520
 20
2.626800
  0
VERTEX
  8
0
  6
CONTINUOUS
 10
3.859680
 20
2.508000
  0
VERTEX
  8
0
  6
CONTINUOUS
 10
3.862320
 20
1.769680
  0
VERTEX
  8
0
  6
CONTINUOUS
 10
3.856160
 20
1.888920
  0
SEQEND
  8
0
  0
SOLID
  8
0
 62
    15
 10
3.862320
 20
1.769680
 11
3.859680
 21
2.508000
 12
3.900160
 22
1.769680
 13
3.897520
 23
2.508000
  0
POLYLINE
  8
0
  6
CONTINUOUS
 66
     1
 40
0.000000
 41
0.000000
  0
VERTEX
  8
0
  6
CONTINUOUS
 10
3.862320
 20
1.769680
  0
VERTEX
  8
0
  6
CONTINUOUS
 10
3.859680
 20
2.508000
  0
VERTEX
  8
0
  6
CONTINUOUS
 10
3.897520
 20
2.508000
  0
VERTEX
  8
0
  6
CONTINUOUS
 10
3.900160
 20
1.769680
  0
VERTEX
  8
0
  6
CONTINUOUS
 10
3.862320
 20
1.769680
  0
SEQEND
  8
0
  0
SOLID
  8
0
 62
    15
 10
3.900160
 20
1.770120
 11
3.897080
 21
2.508440
 12
3.938440
 22
1.797400
 13
3.935800
 23
2.535720
  0
POLYLINE
  8
0
  6
CONTINUOUS
 66
     1
 40
0.000000
 41
0.000000
  0
VERTEX
  8
0
  6
CONTINUOUS
 10
3.900160
 20
1.770120
  0
VERTEX
  8
0
  6
CONTINUOUS
 10
3.897080
 20
2.508440
  0
VERTEX
  8
0
  6
CONTINUOUS
 10
3.935800
 20
2.535720
  0
VERTEX
  8
0
  6
CONTINUOUS
 10
3.938440
 20
1.797400
  0
VERTEX
  8
0
  6
CONTINUOUS
 10
3.900160
 20
1.770120
  0
SEQEND
  8
0
  0
SOLID
  8
0
 62
    15
 10
3.938440
 20
1.797400
 11
3.935800
 21
2.535720
 12
3.961760
 22
1.804880
 13
3.959120
 23
2.543200
  0
POLYLINE
  8
0
  6
CONTINUOUS
 66
     1
 40
0.000000
 41
0.000000
  0
VERTEX
  8
0
  6
CONTINUOUS
 10
3.938440
 20
1.797400
  0
VERTEX
  8
0
  6
CONTINUOUS
 10
3.935800
 20
2.535720
  0
VERTEX
  8
0
  6
CONTINUOUS
 10
3.959120
 20
2.543200
  0
VERTEX
  8
0
  6
CONTINUOUS
 10
3.961760
 20
1.804880
  0
VERTEX
  8
0
  6
CONTINUOUS
 10
3.938440
 20
1.797400
  0
SEQEND
  8
0
  0
SOLID
  8
0
 62
    15
 10
3.961760
 20
1.804880
 11
3.959120
 21
2.543200
 12
3.986400
 22
1.807520
 13
3.983760
 23
2.545840
  0
POLYLINE
  8
0
  6
CONTINUOUS
 66
     1
 40
0.000000
 41
0.000000
  0
VERTEX
  8
0
  6
CONTINUOUS
 10
3.961760
 20
1.804880
  0
VERTEX
  8
0
  6
CONTINUOUS
 10
3.959120
 20
2.543200
  0
VERTEX
  8
0
  6
CONTINUOUS
 10
3.983760
 20
2.545840
  0
VERTEX
  8
0
  6
CONTINUOUS
 10
3.986400
 20
1.807520
  0
VERTEX
  8
0
  6
CONTINUOUS
 10
3.961760
 20
1.804880
  0
SEQEND
  8
0
  0
SOLID
  8
0
 62
    15
 10
3.986400
 20
1.807520
 11
3.983760
 21
2.545840
 12
4.033040
 22
1.798280
 13
4.030400
 23
2.536160
  0
POLYLINE
  8
0
  6
CONTINUOUS
 66
     1
 40
0.000000
 41
0.000000
  0
VERTEX
  8
0
  6
CONTINUOUS
 10
3.986400
 20
1.807520
  0
VERTEX
  8
0
  6
CONTINUOUS
 10
3.983760
 20
2.545840
  0
VERTEX
  8
0
  6
CONTINUOUS
 10
4.030400
 20
2.536160
  0
VERTEX
  8
0
  6
CONTINUOUS
 10
4.033040
 20
1.798280
  0
VERTEX
  8
0
  6
CONTINUOUS
 10
3.986400
 20
1.807520
  0
SEQEND
  8
0
  0
SOLID
  8
0
 62
    15
 10
4.033040
 20
1.798280
 11
4.030400
 21
2.536160
 12
4.070880
 22
1.772760
 13
4.068240
 23
2.510640
  0
POLYLINE
  8
0
  6
CONTINUOUS
 66
     1
 40
0.000000
 41
0.000000
  0
VERTEX
  8
0
  6
CONTINUOUS
 10
4.033040
 20
1.798280
  0
VERTEX
  8
0
  6
CONTINUOUS
 10
4.030400
 20
2.536160
  0
VERTEX
  8
0
  6
CONTINUOUS
 10
4.068240
 20
2.510640
  0
VERTEX
  8
0
  6
CONTINUOUS
 10
4.070880
 20
1.772760
  0
VERTEX
  8
0
  6
CONTINUOUS
 10
4.033040
 20
1.798280
  0
SEQEND
  8
0
  0
SOLID
  8
0
 62
    15
 10
4.070880
 20
1.772760
 11
4.068240
 21
2.510640
 12
4.096400
 22
1.734920
 13
4.093760
 23
2.472800
  0
POLYLINE
  8
0
  6
CONTINUOUS
 66
     1
 40
0.000000
 41
0.000000
  0
VERTEX
  8
0
  6
CONTINUOUS
 10
4.070880
 20
1.772760
  0
VERTEX
  8
0
  6
CONTINUOUS
 10
4.068240
 20
2.510640
  0
VERTEX
  8
0
  6
CONTINUOUS
 10
4.093760
 20
2.472800
  0
VERTEX
  8
0
  6
CONTINUOUS
 10
4.096400
 20
1.734920
  0
VERTEX
  8
0
  6
CONTINUOUS
 10
4.070880
 20
1.772760
  0
SEQEND
  8
0
  0
SOLID
  8
0
 62
    15
 10
4.203760
 20
1.561560
 11
4.201120
 21
2.299440
 12
6.221160
 22
1.561560
 13
6.218520
 23
2.299440
  0
POLYLINE
  8
0
  6
CONTINUOUS
 66
     1
 40
0.000000
 41
0.000000
  0
VERTEX
  8
0
  6
CONTINUOUS
 10
4.203760
 20
1.561560
  0
VERTEX
  8
0
  6
CONTINUOUS
 10
4.201120
 20
2.299440
  0
VERTEX
  8
0
  6
CONTINUOUS
 10
6.218520
 20
2.299440
  0
VERTEX
  8
0
  6
CONTINUOUS
 10
6.221160
 20
1.561560
  0
VERTEX
  8
0
  6
CONTINUOUS
 10
4.203760
 20
1.561560
  0
SEQEND
  8
0
  0
SOLID
  8
0
 62
    15
 10
4.105640
 20
1.648240
 11
4.103000
 21
2.386560
 12
4.203760
 22
1.648240
 13
4.201120
 23
2.386560
  0
POLYLINE
  8
0
  6
CONTINUOUS
 66
     1
 40
0.000000
 41
0.000000
  0
VERTEX
  8
0
  6
CONTINUOUS
 10
4.105640
 20
1.648240
  0
VERTEX
  8
0
  6
CONTINUOUS
 10
4.103000
 20
2.386560
  0
VERTEX
  8
0
  6
CONTINUOUS
 10
4.201120
 20
2.386560
  0
VERTEX
  8
0
  6
CONTINUOUS
 10
4.203760
 20
1.648240
  0
VERTEX
  8
0
  6
CONTINUOUS
 10
4.105640
 20
1.648240
  0
SEQEND
  8
0
  0
SOLID
  8
0
 62
    15
 10
4.096400
 20
1.734920
 11
4.093760
 21
2.472800
 12
4.105640
 22
1.688720
 13
4.103000
 23
2.426600
  0
POLYLINE
  8
0
  6
CONTINUOUS
 66
     1
 40
0.000000
 41
0.000000
  0
VERTEX
  8
0
  6
CONTINUOUS
 10
4.096400
 20
1.734920
  0
VERTEX
  8
0
  6
CONTINUOUS
 10
4.093760
 20
2.472800
  0
VERTEX
  8
0
  6
CONTINUOUS
 10
4.103000
 20
2.426600
  0
VERTEX
  8
0
  6
CONTINUOUS
 10
4.105640
 20
1.688720
  0
VERTEX
  8
0
  6
CONTINUOUS
 10
4.096400
 20
1.734920
  0
SEQEND
  8
0
  0
SOLID
  8
0
 62
    15
 10
6.221160
 20
1.561560
 11
6.218520
 21
2.299440
 12
6.221160
 22
1.630200
 13
6.218520
 23
2.368080
  0
POLYLINE
  8
0
  6
CONTINUOUS
 66
     1
 40
0.000000
 41
0.000000
  0
VERTEX
  8
0
  6
CONTINUOUS
 10
6.221160
 20
1.561560
  0
VERTEX
  8
0
  6
CONTINUOUS
 10
6.218520
 20
2.299440
  0
VERTEX
  8
0
  6
CONTINUOUS
 10
6.218520
 20
2.368080
  0
VERTEX
  8
0
  6
CONTINUOUS
 10
6.221160
 20
1.630200
  0
VERTEX
  8
0
  6
CONTINUOUS
 10
6.221160
 20
1.561560
  0
SEQEND
  8
0
  0
SOLID
  8
0
 62
    15
 10
6.221160
 20
1.630200
 11
6.218520
 21
2.368080
 12
6.250200
 22
1.639000
 13
6.247560
 23
2.376880
  0
POLYLINE
  8
0
  6
CONTINUOUS
 66
     1
 40
0.000000
 41
0.000000
  0
VERTEX
  8
0
  6
CONTINUOUS
 10
6.221160
 20
1.630200
  0
VERTEX
  8
0
  6
CONTINUOUS
 10
6.218520
 20
2.368080
  0
VERTEX
  8
0
  6
CONTINUOUS
 10
6.247560
 20
2.376880
  0
VERTEX
  8
0
  6
CONTINUOUS
 10
6.250200
 20
1.639000
  0
VERTEX
  8
0
  6
CONTINUOUS
 10
6.221160
 20
1.630200
  0
SEQEND
  8
0
  0
SOLID
  8
0
 62
    15
 10
3.366880
 20
2.078120
 11
3.364240
 21
2.816440
 12
3.385800
 22
2.112000
 13
3.383160
 23
2.850320
  0
POLYLINE
  8
0
  6
CONTINUOUS
 66
     1
 40
0.000000
 41
0.000000
  0
VERTEX
  8
0
  6
CONTINUOUS
 10
3.366880
 20
2.078120
  0
VERTEX
  8
0
  6
CONTINUOUS
 10
3.364240
 20
2.816440
  0
VERTEX
  8
0
  6
CONTINUOUS
 10
3.383160
 20
2.850320
  0
VERTEX
  8
0
  6
CONTINUOUS
 10
3.385800
 20
2.112000
  0
VERTEX
  8
0
  6
CONTINUOUS
 10
3.366880
 20
2.078120
  0
SEQEND
  8
0
  0
SOLID
  8
0
 62
    15
 10
6.281440
 20
1.661440
 11
6.278800
 21
2.399320
 12
6.309160
 22
1.694880
 13
6.306520
 23
2.432760
  0
POLYLINE
  8
0
  6
CONTINUOUS
 66
     1
 40
0.000000
 41
0.000000
  0
VERTEX
  8
0
  6
CONTINUOUS
 10
6.281440
 20
1.661440
  0
VERTEX
  8
0
  6
CONTINUOUS
 10
6.278800
 20
2.399320
  0
VERTEX
  8
0
  6
CONTINUOUS
 10
6.306520
 20
2.432760
  0
VERTEX
  8
0
  6
CONTINUOUS
 10
6.309160
 20
1.694880
  0
VERTEX
  8
0
  6
CONTINUOUS
 10
6.281440
 20
1.661440
  0
SEQEND
  8
0
  0
SOLID
  8
0
 62
    15
 10
6.309160
 20
1.694880
 11
6.306520
 21
2.432760
 12
6.327640
 22
1.736240
 13
6.325000
 23
2.474120
  0
POLYLINE
  8
0
  6
CONTINUOUS
 66
     1
 40
0.000000
 41
0.000000
  0
VERTEX
  8
0
  6
CONTINUOUS
 10
6.309160
 20
1.694880
  0
VERTEX
  8
0
  6
CONTINUOUS
 10
6.306520
 20
2.432760
  0
VERTEX
  8
0
  6
CONTINUOUS
 10
6.325000
 20
2.474120
  0
VERTEX
  8
0
  6
CONTINUOUS
 10
6.327640
 20
1.736240
  0
VERTEX
  8
0
  6
CONTINUOUS
 10
6.309160
 20
1.694880
  0
SEQEND
  8
0
  0
SOLID
  8
0
 62
    15
 10
6.327640
 20
1.736240
 11
6.325000
 21
2.474120
 12
6.337760
 22
1.779800
 13
6.335120
 23
2.518120
  0
POLYLINE
  8
0
  6
CONTINUOUS
 66
     1
 40
0.000000
 41
0.000000
  0
VERTEX
  8
0
  6
CONTINUOUS
 10
6.327640
 20
1.736240
  0
VERTEX
  8
0
  6
CONTINUOUS
 10
6.325000
 20
2.474120
  0
VERTEX
  8
0
  6
CONTINUOUS
 10
6.335120
 20
2.518120
  0
VERTEX
  8
0
  6
CONTINUOUS
 10
6.337760
 20
1.779800
  0
VERTEX
  8
0
  6
CONTINUOUS
 10
6.327640
 20
1.736240
  0
SEQEND
  8
0
  0
SOLID
  8
0
 62
    15
 10
6.337760
 20
1.779800
 11
6.335120
 21
2.518120
 12
6.351840
 22
1.817640
 13
6.349200
 23
2.555520
  0
POLYLINE
  8
0
  6
CONTINUOUS
 66
     1
 40
0.000000
 41
0.000000
  0
VERTEX
  8
0
  6
CONTINUOUS
 10
6.337760
 20
1.779800
  0
VERTEX
  8
0
  6
CONTINUOUS
 10
6.335120
 20
2.518120
  0
VERTEX
  8
0
  6
CONTINUOUS
 10
6.349200
 20
2.555520
  0
VERTEX
  8
0
  6
CONTINUOUS
 10
6.351840
 20
1.817640
  0
VERTEX
  8
0
  6
CONTINUOUS
 10
6.337760
 20
1.779800
  0
SEQEND
  8
0
  0
SOLID
  8
0
 62
    15
 10
6.351840
 20
1.817640
 11
6.349200
 21
2.555520
 12
6.364600
 22
1.832600
 13
6.361960
 23
2.570480
  0
POLYLINE
  8
0
  6
CONTINUOUS
 66
     1
 40
0.000000
 41
0.000000
  0
VERTEX
  8
0
  6
CONTINUOUS
 10
6.351840
 20
1.817640
  0
VERTEX
  8
0
  6
CONTINUOUS
 10
6.349200
 20
2.555520
  0
VERTEX
  8
0
  6
CONTINUOUS
 10
6.361960
 20
2.570480
  0
VERTEX
  8
0
  6
CONTINUOUS
 10
6.364600
 20
1.832600
  0
VERTEX
  8
0
  6
CONTINUOUS
 10
6.351840
 20
1.817640
  0
SEQEND
  8
0
  0
SOLID
  8
0
 62
    15
 10
6.364600
 20
1.832600
 11
6.361960
 21
2.570480
 12
6.383520
 22
1.843600
 13
6.380880
 23
2.581920
  0
POLYLINE
  8
0
  6
CONTINUOUS
 66
     1
 40
0.000000
 41
0.000000
  0
VERTEX
  8
0
  6
CONTINUOUS
 10
6.364600
 20
1.832600
  0
VERTEX
  8
0
  6
CONTINUOUS
 10
6.361960
 20
2.570480
  0
VERTEX
  8
0
  6
CONTINUOUS
 10
6.380880
 20
2.581920
  0
VERTEX
  8
0
  6
CONTINUOUS
 10
6.383520
 20
1.843600
  0
VERTEX
  8
0
  6
CONTINUOUS
 10
6.364600
 20
1.832600
  0
SEQEND
  8
0
  0
SOLID
  8
0
 62
    15
 10
6.383520
 20
1.843600
 11
6.380880
 21
2.581920
 12
6.409920
 22
1.850640
 13
6.407280
 23
2.588960
  0
POLYLINE
  8
0
  6
CONTINUOUS
 66
     1
 40
0.000000
 41
0.000000
  0
VERTEX
  8
0
  6
CONTINUOUS
 10
6.383520
 20
1.843600
  0
VERTEX
  8
0
  6
CONTINUOUS
 10
6.380880
 20
2.581920
  0
VERTEX
  8
0
  6
CONTINUOUS
 10
6.407280
 20
2.588960
  0
VERTEX
  8
0
  6
CONTINUOUS
 10
6.409920
 20
1.850640
  0
VERTEX
  8
0
  6
CONTINUOUS
 10
6.383520
 20
1.843600
  0
SEQEND
  8
0
  0
SOLID
  8
0
 62
    15
 10
6.409920
 20
1.850640
 11
6.407280
 21
2.588960
 12
6.446000
 22
1.852840
 13
6.443360
 23
2.590720
  0
POLYLINE
  8
0
  6
CONTINUOUS
 66
     1
 40
0.000000
 41
0.000000
  0
VERTEX
  8
0
  6
CONTINUOUS
 10
6.409920
 20
1.850640
  0
VERTEX
  8
0
  6
CONTINUOUS
 10
6.407280
 20
2.588960
  0
VERTEX
  8
0
  6
CONTINUOUS
 10
6.443360
 20
2.590720
  0
VERTEX
  8
0
  6
CONTINUOUS
 10
6.446000
 20
1.852840
  0
VERTEX
  8
0
  6
CONTINUOUS
 10
6.409920
 20
1.850640
  0
SEQEND
  8
0
  0
SOLID
  8
0
 62
    15
 10
6.446000
 20
1.852840
 11
6.443360
 21
2.590720
 12
6.446000
 22
1.915760
 13
6.443360
 23
2.653640
  0
POLYLINE
  8
0
  6
CONTINUOUS
 66
     1
 40
0.000000
 41
0.000000
  0
VERTEX
  8
0
  6
CONTINUOUS
 10
6.446000
 20
1.852840
  0
VERTEX
  8
0
  6
CONTINUOUS
 10
6.443360
 20
2.590720
  0
VERTEX
  8
0
  6
CONTINUOUS
 10
6.443360
 20
2.653640
  0
VERTEX
  8
0
  6
CONTINUOUS
 10
6.446000
 20
1.915760
  0
VERTEX
  8
0
  6
CONTINUOUS
 10
6.446000
 20
1.852840
  0
SEQEND
  8
0
  0
SOLID
  8
0
 62
    15
 10
6.850360
 20
1.836560
 11
6.847720
 21
2.574880
 12
6.857840
 22
1.826000
 13
6.855200
 23
2.563880
  0
POLYLINE
  8
0
  6
CONTINUOUS
 66
     1
 40
0.000000
 41
0.000000
  0
VERTEX
  8
0
  6
CONTINUOUS
 10
6.850360
 20
1.836560
  0
VERTEX
  8
0
  6
CONTINUOUS
 10
6.847720
 20
2.574880
  0
VERTEX
  8
0
  6
CONTINUOUS
 10
6.855200
 20
2.563880
  0
VERTEX
  8
0
  6
CONTINUOUS
 10
6.857840
 20
1.826000
  0
VERTEX
  8
0
  6
CONTINUOUS
 10
6.850360
 20
1.836560
  0
SEQEND
  8
0
  0
SOLID
  8
0
 62
    15
 10
6.846840
 20
1.852840
 11
6.844200
 21
2.590720
 12
6.850360
 22
1.836560
 13
6.847720
 23
2.574880
  0
POLYLINE
  8
0
  6
CONTINUOUS
 66
     1
 40
0.000000
 41
0.000000
  0
VERTEX
  8
0
  6
CONTINUOUS
 10
6.846840
 20
1.852840
  0
VERTEX
  8
0
  6
CONTINUOUS
 10
6.844200
 20
2.590720
  0
VERTEX
  8
0
  6
CONTINUOUS
 10
6.847720
 20
2.574880
  0
VERTEX
  8
0
  6
CONTINUOUS
 10
6.850360
 20
1.836560
  0
VERTEX
  8
0
  6
CONTINUOUS
 10
6.846840
 20
1.852840
  0
SEQEND
  8
0
  0
SOLID
  8
0
 62
    15
 10
6.446000
 20
1.915760
 11
6.443360
 21
2.653640
 12
6.846840
 22
1.915760
 13
6.844200
 23
2.653640
  0
POLYLINE
  8
0
  6
CONTINUOUS
 66
     1
 40
0.000000
 41
0.000000
  0
VERTEX
  8
0
  6
CONTINUOUS
 10
6.446000
 20
1.915760
  0
VERTEX
  8
0
  6
CONTINUOUS
 10
6.443360
 20
2.653640
  0
VERTEX
  8
0
  6
CONTINUOUS
 10
6.844200
 20
2.653640
  0
VERTEX
  8
0
  6
CONTINUOUS
 10
6.846840
 20
1.915760
  0
VERTEX
  8
0
  6
CONTINUOUS
 10
6.446000
 20
1.915760
  0
SEQEND
  8
0
  0
SOLID
  8
0
 62
    15
 10
6.857840
 20
1.826000
 11
6.855200
 21
2.563880
 12
6.882040
 22
1.815000
 13
6.879400
 23
2.552880
  0
POLYLINE
  8
0
  6
CONTINUOUS
 66
     1
 40
0.000000
 41
0.000000
  0
VERTEX
  8
0
  6
CONTINUOUS
 10
6.857840
 20
1.826000
  0
VERTEX
  8
0
  6
CONTINUOUS
 10
6.855200
 20
2.563880
  0
VERTEX
  8
0
  6
CONTINUOUS
 10
6.879400
 20
2.552880
  0
VERTEX
  8
0
  6
CONTINUOUS
 10
6.882040
 20
1.815000
  0
VERTEX
  8
0
  6
CONTINUOUS
 10
6.857840
 20
1.826000
  0
SEQEND
  8
0
  0
SOLID
  8
0
 62
    15
 10
6.882040
 20
1.815000
 11
6.879400
 21
2.552880
 12
6.911520
 22
1.808400
 13
6.908880
 23
2.546720
  0
POLYLINE
  8
0
  6
CONTINUOUS
 66
     1
 40
0.000000
 41
0.000000
  0
VERTEX
  8
0
  6
CONTINUOUS
 10
6.882040
 20
1.815000
  0
VERTEX
  8
0
  6
CONTINUOUS
 10
6.879400
 20
2.552880
  0
VERTEX
  8
0
  6
CONTINUOUS
 10
6.908880
 20
2.546720
  0
VERTEX
  8
0
  6
CONTINUOUS
 10
6.911520
 20
1.808400
  0
VERTEX
  8
0
  6
CONTINUOUS
 10
6.882040
 20
1.815000
  0
SEQEND
  8
0
  0
SOLID
  8
0
 62
    15
 10
6.911520
 20
1.808400
 11
6.908880
 21
2.546720
 12
6.940120
 22
1.795640
 13
6.937480
 23
2.533520
  0
POLYLINE
  8
0
  6
CONTINUOUS
 66
     1
 40
0.000000
 41
0.000000
  0
VERTEX
  8
0
  6
CONTINUOUS
 10
6.911520
 20
1.808400
  0
VERTEX
  8
0
  6
CONTINUOUS
 10
6.908880
 20
2.546720
  0
VERTEX
  8
0
  6
CONTINUOUS
 10
6.937480
 20
2.533520
  0
VERTEX
  8
0
  6
CONTINUOUS
 10
6.940120
 20
1.795640
  0
VERTEX
  8
0
  6
CONTINUOUS
 10
6.911520
 20
1.808400
  0
SEQEND
  8
0
  0
SOLID
  8
0
 62
    15
 10
6.940120
 20
1.795640
 11
6.937480
 21
2.533520
 12
6.960360
 22
1.777160
 13
6.957720
 23
2.515040
  0
POLYLINE
  8
0
  6
CONTINUOUS
 66
     1
 40
0.000000
 41
0.000000
  0
VERTEX
  8
0
  6
CONTINUOUS
 10
6.940120
 20
1.795640
  0
VERTEX
  8
0
  6
CONTINUOUS
 10
6.937480
 20
2.533520
  0
VERTEX
  8
0
  6
CONTINUOUS
 10
6.957720
 20
2.515040
  0
VERTEX
  8
0
  6
CONTINUOUS
 10
6.960360
 20
1.777160
  0
VERTEX
  8
0
  6
CONTINUOUS
 10
6.940120
 20
1.795640
  0
SEQEND
  8
0
  0
SOLID
  8
0
 62
    15
 10
6.973120
 20
1.757800
 11
6.970480
 21
2.495680
 12
6.980160
 22
1.730520
 13
6.977520
 23
2.468400
  0
POLYLINE
  8
0
  6
CONTINUOUS
 66
     1
 40
0.000000
 41
0.000000
  0
VERTEX
  8
0
  6
CONTINUOUS
 10
6.973120
 20
1.757800
  0
VERTEX
  8
0
  6
CONTINUOUS
 10
6.970480
 20
2.495680
  0
VERTEX
  8
0
  6
CONTINUOUS
 10
6.977520
 20
2.468400
  0
VERTEX
  8
0
  6
CONTINUOUS
 10
6.980160
 20
1.730520
  0
VERTEX
  8
0
  6
CONTINUOUS
 10
6.973120
 20
1.757800
  0
SEQEND
  8
0
  0
SOLID
  8
0
 62
    15
 10
6.960360
 20
1.777160
 11
6.957720
 21
2.515040
 12
6.973120
 22
1.757800
 13
6.970480
 23
2.495680
  0
POLYLINE
  8
0
  6
CONTINUOUS
 66
     1
 40
0.000000
 41
0.000000
  0
VERTEX
  8
0
  6
CONTINUOUS
 10
6.960360
 20
1.777160
  0
VERTEX
  8
0
  6
CONTINUOUS
 10
6.957720
 20
2.515040
  0
VERTEX
  8
0
  6
CONTINUOUS
 10
6.970480
 20
2.495680
  0
VERTEX
  8
0
  6
CONTINUOUS
 10
6.973120
 20
1.757800
  0
VERTEX
  8
0
  6
CONTINUOUS
 10
6.960360
 20
1.777160
  0
SEQEND
  8
0
  0
SOLID
  8
0
 62
    15
 10
6.980160
 20
1.730520
 11
6.977520
 21
2.468400
 12
6.985000
 22
1.688280
 13
6.982360
 23
2.426600
  0
POLYLINE
  8
0
  6
CONTINUOUS
 66
     1
 40
0.000000
 41
0.000000
  0
VERTEX
  8
0
  6
CONTINUOUS
 10
6.980160
 20
1.730520
  0
VERTEX
  8
0
  6
CONTINUOUS
 10
6.977520
 20
2.468400
  0
VERTEX
  8
0
  6
CONTINUOUS
 10
6.982360
 20
2.426600
  0
VERTEX
  8
0
  6
CONTINUOUS
 10
6.985000
 20
1.688280
  0
VERTEX
  8
0
  6
CONTINUOUS
 10
6.980160
 20
1.730520
  0
SEQEND
  8
0
  0
SOLID
  8
0
 62
    15
 10
6.997760
 20
1.641200
 11
6.994680
 21
2.379080
 12
7.024160
 22
1.604240
 13
7.021520
 23
2.342120
  0
POLYLINE
  8
0
  6
CONTINUOUS
 66
     1
 40
0.000000
 41
0.000000
  0
VERTEX
  8
0
  6
CONTINUOUS
 10
6.997760
 20
1.641200
  0
VERTEX
  8
0
  6
CONTINUOUS
 10
6.994680
 20
2.379080
  0
VERTEX
  8
0
  6
CONTINUOUS
 10
7.021520
 20
2.342120
  0
VERTEX
  8
0
  6
CONTINUOUS
 10
7.024160
 20
1.604240
  0
VERTEX
  8
0
  6
CONTINUOUS
 10
6.997760
 20
1.641200
  0
SEQEND
  8
0
  0
SOLID
  8
0
 62
    15
 10
6.985000
 20
1.688280
 11
6.982360
 21
2.426600
 12
6.997760
 22
1.641200
 13
6.994680
 23
2.379080
  0
POLYLINE
  8
0
  6
CONTINUOUS
 66
     1
 40
0.000000
 41
0.000000
  0
VERTEX
  8
0
  6
CONTINUOUS
 10
6.985000
 20
1.688280
  0
VERTEX
  8
0
  6
CONTINUOUS
 10
6.982360
 20
2.426600
  0
VERTEX
  8
0
  6
CONTINUOUS
 10
6.994680
 20
2.379080
  0
VERTEX
  8
0
  6
CONTINUOUS
 10
6.997760
 20
1.641200
  0
VERTEX
  8
0
  6
CONTINUOUS
 10
6.985000
 20
1.688280
  0
SEQEND
  8
0
  0
SOLID
  8
0
 62
    15
 10
7.024160
 20
1.604240
 11
7.021520
 21
2.342120
 12
7.060680
 22
1.580040
 13
7.058040
 23
2.318360
  0
POLYLINE
  8
0
  6
CONTINUOUS
 66
     1
 40
0.000000
 41
0.000000
  0
VERTEX
  8
0
  6
CONTINUOUS
 10
7.024160
 20
1.604240
  0
VERTEX
  8
0
  6
CONTINUOUS
 10
7.021520
 20
2.342120
  0
VERTEX
  8
0
  6
CONTINUOUS
 10
7.058040
 20
2.318360
  0
VERTEX
  8
0
  6
CONTINUOUS
 10
7.060680
 20
1.580040
  0
VERTEX
  8
0
  6
CONTINUOUS
 10
7.024160
 20
1.604240
  0
SEQEND
  8
0
  0
SOLID
  8
0
 62
    15
 10
7.103360
 20
1.442320
 11
7.100720
 21
2.180200
 12
7.245480
 22
1.442320
 13
7.242840
 23
2.180200
  0
POLYLINE
  8
0
  6
CONTINUOUS
 66
     1
 40
0.000000
 41
0.000000
  0
VERTEX
  8
0
  6
CONTINUOUS
 10
7.103360
 20
1.442320
  0
VERTEX
  8
0
  6
CONTINUOUS
 10
7.100720
 20
2.180200
  0
VERTEX
  8
0
  6
CONTINUOUS
 10
7.242840
 20
2.180200
  0
VERTEX
  8
0
  6
CONTINUOUS
 10
7.245480
 20
1.442320
  0
VERTEX
  8
0
  6
CONTINUOUS
 10
7.103360
 20
1.442320
  0
SEQEND
  8
0
  0
SOLID
  8
0
 62
    15
 10
7.060680
 20
1.580040
 11
7.058040
 21
2.318360
 12
7.103360
 22
1.571680
 13
7.100720
 23
2.309560
  0
POLYLINE
  8
0
  6
CONTINUOUS
 66
     1
 40
0.000000
 41
0.000000
  0
VERTEX
  8
0
  6
CONTINUOUS
 10
7.060680
 20
1.580040
  0
VERTEX
  8
0
  6
CONTINUOUS
 10
7.058040
 20
2.318360
  0
VERTEX
  8
0
  6
CONTINUOUS
 10
7.100720
 20
2.309560
  0
VERTEX
  8
0
  6
CONTINUOUS
 10
7.103360
 20
1.571680
  0
VERTEX
  8
0
  6
CONTINUOUS
 10
7.060680
 20
1.580040
  0
SEQEND
  8
0
  0
SOLID
  8
0
 62
    15
 10
2.230360
 20
1.048960
 11
2.227720
 21
1.787280
 12
2.230360
 22
2.180200
 13
2.227720
 23
2.918080
  0
POLYLINE
  8
0
  6
CONTINUOUS
 66
     1
 40
0.000000
 41
0.000000
  0
VERTEX
  8
0
  6
CONTINUOUS
 10
2.230360
 20
1.048960
  0
VERTEX
  8
0
  6
CONTINUOUS
 10
2.227720
 20
1.787280
  0
VERTEX
  8
0
  6
CONTINUOUS
 10
2.227720
 20
2.918080
  0
VERTEX
  8
0
  6
CONTINUOUS
 10
2.230360
 20
2.180200
  0
VERTEX
  8
0
  6
CONTINUOUS
 10
2.230360
 20
1.048960
  0
SEQEND
  8
0
  0
SOLID
  8
0
 62
    15
 10
3.221240
 20
2.077240
 11
3.218600
 21
2.815120
 12
3.366000
 22
2.077240
 13
3.363360
 23
2.815120
  0
POLYLINE
  8
0
  6
CONTINUOUS
 66
     1
 40
0.000000
 41
0.000000
  0
VERTEX
  8
0
  6
CONTINUOUS
 10
3.221240
 20
2.077240
  0
VERTEX
  8
0
  6
CONTINUOUS
 10
3.218600
 20
2.815120
  0
VERTEX
  8
0
  6
CONTINUOUS
 10
3.363360
 20
2.815120
  0
VERTEX
  8
0
  6
CONTINUOUS
 10
3.366000
 20
2.077240
  0
VERTEX
  8
0
  6
CONTINUOUS
 10
3.221240
 20
2.077240
  0
SEQEND
  8
0
  0
SOLID
  8
0
 62
    15
 10
2.230360
 20
2.180200
 11
2.227720
 21
2.918080
 12
3.221240
 22
2.180200
 13
3.218600
 23
2.918080
  0
POLYLINE
  8
0
  6
CONTINUOUS
 66
     1
 40
0.000000
 41
0.000000
  0
VERTEX
  8
0
  6
CONTINUOUS
 10
2.230360
 20
2.180200
  0
VERTEX
  8
0
  6
CONTINUOUS
 10
2.227720
 20
2.918080
  0
VERTEX
  8
0
  6
CONTINUOUS
 10
3.218600
 20
2.918080
  0
VERTEX
  8
0
  6
CONTINUOUS
 10
3.221240
 20
2.180200
  0
VERTEX
  8
0
  6
CONTINUOUS
 10
2.230360
 20
2.180200
  0
SEQEND
  8
0
  0
SOLID
  8
0
 62
    15
 10
3.366000
 20
2.077240
 11
3.363360
 21
2.815120
 12
3.366880
 22
2.078120
 13
3.364240
 23
2.816440
  0
POLYLINE
  8
0
  6
CONTINUOUS
 66
     1
 40
0.000000
 41
0.000000
  0
VERTEX
  8
0
  6
CONTINUOUS
 10
3.366000
 20
2.077240
  0
VERTEX
  8
0
  6
CONTINUOUS
 10
3.363360
 20
2.815120
  0
VERTEX
  8
0
  6
CONTINUOUS
 10
3.364240
 20
2.816440
  0
VERTEX
  8
0
  6
CONTINUOUS
 10
3.366880
 20
2.078120
  0
VERTEX
  8
0
  6
CONTINUOUS
 10
3.366000
 20
2.077240
  0
SEQEND
  8
0
  0
POLYLINE
  8
0
  6
CONTINUOUS
 66
     1
 40
0.000000
 41
0.000000
  0
VERTEX
  8
0
  6
CONTINUOUS
 10
3.366880
 20
2.078120
  0
VERTEX
  8
0
  6
CONTINUOUS
 10
3.385800
 20
2.112000
  0
VERTEX
  8
0
  6
CONTINUOUS
 10
3.409120
 20
2.136640
  0
VERTEX
  8
0
  6
CONTINUOUS
 10
3.436400
 20
2.152040
  0
VERTEX
  8
0
  6
CONTINUOUS
 10
3.465880
 20
2.157760
  0
VERTEX
  8
0
  6
CONTINUOUS
 10
3.497560
 20
2.153360
  0
VERTEX
  8
0
  6
CONTINUOUS
 10
3.531000
 20
2.138840
  0
VERTEX
  8
0
  6
CONTINUOUS
 10
3.564440
 20
2.114200
  0
VERTEX
  8
0
  6
CONTINUOUS
 10
3.597880
 20
2.078120
  0
VERTEX
  8
0
  6
CONTINUOUS
 10
3.657720
 20
2.004640
  0
VERTEX
  8
0
  6
CONTINUOUS
 10
3.712720
 20
1.948320
  0
VERTEX
  8
0
  6
CONTINUOUS
 10
3.742200
 20
1.927200
  0
VERTEX
  8
0
  6
CONTINUOUS
 10
3.774760
 20
1.910040
  0
VERTEX
  8
0
  6
CONTINUOUS
 10
3.812600
 20
1.897280
  0
VERTEX
  8
0
  6
CONTINUOUS
 10
3.856160
 20
1.888920
  0
VERTEX
  8
0
  6
CONTINUOUS
 10
3.862320
 20
1.769680
  0
VERTEX
  8
0
  6
CONTINUOUS
 10
3.900160
 20
1.770120
  0
VERTEX
  8
0
  6
CONTINUOUS
 10
3.938440
 20
1.797400
  0
VERTEX
  8
0
  6
CONTINUOUS
 10
3.961760
 20
1.804880
  0
VERTEX
  8
0
  6
CONTINUOUS
 10
3.986400
 20
1.807520
  0
VERTEX
  8
0
  6
CONTINUOUS
 10
4.033040
 20
1.798280
  0
VERTEX
  8
0
  6
CONTINUOUS
 10
4.070880
 20
1.772760
  0
VERTEX
  8
0
  6
CONTINUOUS
 10
4.096400
 20
1.734920
  0
VERTEX
  8
0
  6
CONTINUOUS
 10
4.105640
 20
1.688720
  0
VERTEX
  8
0
  6
CONTINUOUS
 10
4.105640
 20
1.648240
  0
VERTEX
  8
0
  6
CONTINUOUS
 10
4.203760
 20
1.648240
  0
VERTEX
  8
0
  6
CONTINUOUS
 10
4.203760
 20
1.561560
  0
VERTEX
  8
0
  6
CONTINUOUS
 10
6.221160
 20
1.561560
  0
VERTEX
  8
0
  6
CONTINUOUS
 10
6.221160
 20
1.630200
  0
VERTEX
  8
0
  6
CONTINUOUS
 10
6.250200
 20
1.639000
  0
VERTEX
  8
0
  6
CONTINUOUS
 10
6.281440
 20
1.661440
  0
VERTEX
  8
0
  6
CONTINUOUS
 10
6.309160
 20
1.694880
  0
VERTEX
  8
0
  6
CONTINUOUS
 10
6.327640
 20
1.736240
  0
VERTEX
  8
0
  6
CONTINUOUS
 10
6.337760
 20
1.779800
  0
VERTEX
  8
0
  6
CONTINUOUS
 10
6.351840
 20
1.817640
  0
VERTEX
  8
0
  6
CONTINUOUS
 10
6.364600
 20
1.832600
  0
VERTEX
  8
0
  6
CONTINUOUS
 10
6.383520
 20
1.843600
  0
VERTEX
  8
0
  6
CONTINUOUS
 10
6.409920
 20
1.850640
  0
VERTEX
  8
0
  6
CONTINUOUS
 10
6.446000
 20
1.852840
  0
VERTEX
  8
0
  6
CONTINUOUS
 10
6.446000
 20
1.915760
  0
VERTEX
  8
0
  6
CONTINUOUS
 10
6.846840
 20
1.915760
  0
VERTEX
  8
0
  6
CONTINUOUS
 10
6.846840
 20
1.852840
  0
VERTEX
  8
0
  6
CONTINUOUS
 10
6.850360
 20
1.836560
  0
VERTEX
  8
0
  6
CONTINUOUS
 10
6.857840
 20
1.826000
  0
VERTEX
  8
0
  6
CONTINUOUS
 10
6.882040
 20
1.815000
  0
VERTEX
  8
0
  6
CONTINUOUS
 10
6.911520
 20
1.808400
  0
VERTEX
  8
0
  6
CONTINUOUS
 10
6.940120
 20
1.795640
  0
VERTEX
  8
0
  6
CONTINUOUS
 10
6.960360
 20
1.777160
  0
VERTEX
  8
0
  6
CONTINUOUS
 10
6.973120
 20
1.757800
  0
VERTEX
  8
0
  6
CONTINUOUS
 10
6.980160
 20
1.730520
  0
VERTEX
  8
0
  6
CONTINUOUS
 10
6.985000
 20
1.688280
  0
VERTEX
  8
0
  6
CONTINUOUS
 10
6.997760
 20
1.641200
  0
VERTEX
  8
0
  6
CONTINUOUS
 10
7.024160
 20
1.604240
  0
VERTEX
  8
0
  6
CONTINUOUS
 10
7.060680
 20
1.580040
  0
VERTEX
  8
0
  6
CONTINUOUS
 10
7.103360
 20
1.571680
  0
VERTEX
  8
0
  6
CONTINUOUS
 10
7.103360
 20
1.442320
  0
VERTEX
  8
0
  6
CONTINUOUS
 10
7.245480
 20
1.442320
  0
VERTEX
  8
0
  6
CONTINUOUS
 10
7.245480
 20
1.048960
  0
VERTEX
  8
0
  6
CONTINUOUS
 10
2.230360
 20
1.048960
  0
VERTEX
  8
0
  6
CONTINUOUS
 10
2.230360
 20
2.180200
  0
VERTEX
  8
0
  6
CONTINUOUS
 10
3.221240
 20
2.180200
  0
VERTEX
  8
0
  6
CONTINUOUS
 10
3.221240
 20
2.077240
  0
VERTEX
  8
0
  6
CONTINUOUS
 10
3.366000
 20
2.077240
  0
VERTEX
  8
0
  6
CONTINUOUS
 10
3.366880
 20
2.078120
  0
SEQEND
  8
0
  0
TEXT
  8
0
 10
4.441360
 20
0.784960
 40
0.137990
  1
BA  384
 41
1.000000
  7
SN0
 71
     0
 72
     5
 11
5.031624
 21
0.784960
  0
TEXT
  8
0
 10
4.354680
 20
0.593120
 40
0.137990
  1
1-1/8" x 5"
 41
1.000000
  7
SN0
 71
     0
 72
     5
 11
5.117410
 21
0.593120
  0
ENDSEC
  0
EOF
