  0
SECTION
  2
HEADER
  9
$ACADVER
  1
AC1006
  9
$EXTMIN
 10
3.088800
 20
0.527560
  9
$EXTMAX
 10
6.894360
 20
2.140600
  9
$LTSCALE
 40
0.044000
  9
$PDMODE
 70
    35
  9
$PDSIZE
 40
0.035200
  0
ENDSEC
  0
SECTION
  2
TABLES
  0
TABLE
  2
LTYPE
 70
     9
  0
LTYPE
  2
CONTINUOUS
 70
    64
  3
Solid line
 72
    65
 73
     0
 40
0.000000
  0
LTYPE
  2
DASHED
 70
    64
  3
__ __ __ __ __ __ __ __ __ __ __ __ __ __ __
 72
    65
 73
     2
 40
0.000330
 49
0.000220
 49
-0.000110
  0
LTYPE
  2
HIDDEN
 70
    64
  3
 _ _ _ _ _ _ _ _ _ _ _ _ _ _ _ _ _ _ _ _ _ _
 72
    65
 73
     2
 40
0.000165
 49
0.000110
 49
-0.000055
  0
LTYPE
  2
CENTER
 70
    64
  3
____ _ ____ _ ____ _ ____ _ ____ _ ____ _ ____
 72
    65
 73
     4
 40
0.000880
 49
0.000550
 49
-0.000110
 49
0.000110
 49
-0.000110
  0
LTYPE
  2
PHANTOM
 70
    64
  3
_____ _ _ _____ _ _ _____ _ _ _____ _ _ ____
 72
    65
 73
     6
 40
0.001100
 49
0.000550
 49
-0.000110
 49
0.000110
 49
-0.000110
 49
0.000110
 49
-0.000110
  0
LTYPE
  2
DOT
 70
    64
  3
...............................................
 72
    65
 73
     2
 40
0.000110
 49
0.000000
 49
-0.000110
  0
LTYPE
  2
DASHDOT
 70
    64
  3
__ . __ . __ . __ . __ . __ . __ . __ . __ . __
 72
    65
 73
     4
 40
0.000440
 49
0.000220
 49
-0.000110
 49
0.000000
 49
-0.000110
  0
LTYPE
  2
BORDER
 70
    64
  3
__ __ . __ __ . __ __ . __ __ . __ __ . __ __
 72
    65
 73
     6
 40
0.000770
 49
0.000220
 49
-0.000110
 49
0.000220
 49
-0.000110
 49
0.000000
 49
-0.000110
  0
LTYPE
  2
DIVIDE
 70
    64
  3
__ . . __ . . __ . . __ . . __ . . __ . . __
 72
    65
 73
     6
 40
0.000550
 49
0.000220
 49
-0.000110
 49
0.000000
 49
-0.000110
 49
0.000000
 49
-0.000110
  0
LTYPE
  2
DOTDOT
 70
    64
  3
 . .  . .  . .  . .  . .  . . 
 72
    65
 73
     5
 40
0.000242
 49
-0.000110
 49
0.000000
 49
-0.000110
 49
0.000000
 49
-0.000110
  0
ENDTAB
  0
TABLE
  2
STYLE
 70
     2
  0
STYLE
 70
     0
  2
SN0
 40
0.000000
 41
0.000440
 50
0.000000
 71
     0
 42
0.000000
  3
ROMAND
  0
STYLE
 70
    68
  2
SV0
 40
0.000000
 41
0.000440
 50
0.000000
 71
     0
 42
0.000000
  3
ROMAND
  0
ENDTAB
  0
TABLE
  2
LAYER
 70
     3
  0
LAYER
  2
FOREGROUND
 70
    64
 62
     7
  6
CONTINUOUS
  0
LAYER
  2
BACKGROUND
 70
    65
 62
    -7
  6
CONTINUOUS
  0
LAYER
  2
0
 70
    64
 62
     7
  6
CONTINUOUS
  0
ENDTAB
  0
ENDSEC
  0
SECTION
  2
ENTITIES
  0
POLYLINE
  8
FOREGROUND
  6
CONTINUOUS
 66
     1
 40
0.000000
 41
0.000000
  0
VERTEX
  8
FOREGROUND
  6
CONTINUOUS
 10
0.000000
 20
2.668160
  0
VERTEX
  8
FOREGROUND
  6
CONTINUOUS
 10
8.499920
 20
2.668160
  0
VERTEX
  8
FOREGROUND
  6
CONTINUOUS
 10
8.499920
 20
-8.331840
  0
VERTEX
  8
FOREGROUND
  6
CONTINUOUS
 10
0.000000
 20
-8.331840
  0
VERTEX
  8
FOREGROUND
  6
CONTINUOUS
 10
0.000000
 20
2.668160
  0
SEQEND
  8
0
  0
SOLID
  8
0
 62
    15
 10
4.200240
 20
1.169520
 11
4.852320
 21
1.543080
 12
4.184840
 22
1.136960
 13
4.836920
 23
1.510520
  0
POLYLINE
  8
0
  6
CONTINUOUS
 66
     1
 40
0.000000
 41
0.000000
  0
VERTEX
  8
0
  6
CONTINUOUS
 10
4.200240
 20
1.169520
  0
VERTEX
  8
0
  6
CONTINUOUS
 10
4.852320
 20
1.543080
  0
VERTEX
  8
0
  6
CONTINUOUS
 10
4.836920
 20
1.510520
  0
VERTEX
  8
0
  6
CONTINUOUS
 10
4.184840
 20
1.136960
  0
VERTEX
  8
0
  6
CONTINUOUS
 10
4.200240
 20
1.169520
  0
SEQEND
  8
0
  0
SOLID
  8
0
 62
    15
 10
4.350280
 20
1.319560
 11
5.002360
 21
1.693120
 12
4.319920
 22
1.300640
 13
4.972000
 23
1.674640
  0
POLYLINE
  8
0
  6
CONTINUOUS
 66
     1
 40
0.000000
 41
0.000000
  0
VERTEX
  8
0
  6
CONTINUOUS
 10
4.350280
 20
1.319560
  0
VERTEX
  8
0
  6
CONTINUOUS
 10
5.002360
 20
1.693120
  0
VERTEX
  8
0
  6
CONTINUOUS
 10
4.972000
 20
1.674640
  0
VERTEX
  8
0
  6
CONTINUOUS
 10
4.319920
 20
1.300640
  0
VERTEX
  8
0
  6
CONTINUOUS
 10
4.350280
 20
1.319560
  0
SEQEND
  8
0
  0
SOLID
  8
0
 62
    15
 10
4.319920
 20
1.300640
 11
4.972000
 21
1.674640
 12
4.264480
 22
1.255320
 13
4.916560
 23
1.628880
  0
POLYLINE
  8
0
  6
CONTINUOUS
 66
     1
 40
0.000000
 41
0.000000
  0
VERTEX
  8
0
  6
CONTINUOUS
 10
4.319920
 20
1.300640
  0
VERTEX
  8
0
  6
CONTINUOUS
 10
4.972000
 20
1.674640
  0
VERTEX
  8
0
  6
CONTINUOUS
 10
4.916560
 20
1.628880
  0
VERTEX
  8
0
  6
CONTINUOUS
 10
4.264480
 20
1.255320
  0
VERTEX
  8
0
  6
CONTINUOUS
 10
4.319920
 20
1.300640
  0
SEQEND
  8
0
  0
SOLID
  8
0
 62
    15
 10
4.264480
 20
1.255320
 11
4.916560
 21
1.628880
 12
4.219160
 22
1.200320
 13
4.871240
 23
1.573880
  0
POLYLINE
  8
0
  6
CONTINUOUS
 66
     1
 40
0.000000
 41
0.000000
  0
VERTEX
  8
0
  6
CONTINUOUS
 10
4.264480
 20
1.255320
  0
VERTEX
  8
0
  6
CONTINUOUS
 10
4.916560
 20
1.628880
  0
VERTEX
  8
0
  6
CONTINUOUS
 10
4.871240
 20
1.573880
  0
VERTEX
  8
0
  6
CONTINUOUS
 10
4.219160
 20
1.200320
  0
VERTEX
  8
0
  6
CONTINUOUS
 10
4.264480
 20
1.255320
  0
SEQEND
  8
0
  0
SOLID
  8
0
 62
    15
 10
4.219160
 20
1.200320
 11
4.871240
 21
1.573880
 12
4.200240
 22
1.169520
 13
4.852320
 23
1.543080
  0
POLYLINE
  8
0
  6
CONTINUOUS
 66
     1
 40
0.000000
 41
0.000000
  0
VERTEX
  8
0
  6
CONTINUOUS
 10
4.219160
 20
1.200320
  0
VERTEX
  8
0
  6
CONTINUOUS
 10
4.871240
 20
1.573880
  0
VERTEX
  8
0
  6
CONTINUOUS
 10
4.852320
 20
1.543080
  0
VERTEX
  8
0
  6
CONTINUOUS
 10
4.200240
 20
1.169520
  0
VERTEX
  8
0
  6
CONTINUOUS
 10
4.219160
 20
1.200320
  0
SEQEND
  8
0
  0
SOLID
  8
0
 62
    15
 10
4.528040
 20
1.753840
 11
5.180120
 21
2.127400
 12
4.528040
 22
1.364440
 13
5.180120
 23
1.738000
  0
POLYLINE
  8
0
  6
CONTINUOUS
 66
     1
 40
0.000000
 41
0.000000
  0
VERTEX
  8
0
  6
CONTINUOUS
 10
4.528040
 20
1.753840
  0
VERTEX
  8
0
  6
CONTINUOUS
 10
5.180120
 20
2.127400
  0
VERTEX
  8
0
  6
CONTINUOUS
 10
5.180120
 20
1.738000
  0
VERTEX
  8
0
  6
CONTINUOUS
 10
4.528040
 20
1.364440
  0
VERTEX
  8
0
  6
CONTINUOUS
 10
4.528040
 20
1.753840
  0
SEQEND
  8
0
  0
SOLID
  8
0
 62
    15
 10
3.089680
 20
1.753840
 11
3.741760
 21
2.127400
 12
4.528040
 22
1.753840
 13
5.180120
 23
2.127400
  0
POLYLINE
  8
0
  6
CONTINUOUS
 66
     1
 40
0.000000
 41
0.000000
  0
VERTEX
  8
0
  6
CONTINUOUS
 10
3.089680
 20
1.753840
  0
VERTEX
  8
0
  6
CONTINUOUS
 10
3.741760
 20
2.127400
  0
VERTEX
  8
0
  6
CONTINUOUS
 10
5.180120
 20
2.127400
  0
VERTEX
  8
0
  6
CONTINUOUS
 10
4.528040
 20
1.753840
  0
VERTEX
  8
0
  6
CONTINUOUS
 10
3.089680
 20
1.753840
  0
SEQEND
  8
0
  0
SOLID
  8
0
 62
    15
 10
4.184840
 20
1.136960
 11
4.836920
 21
1.510520
 12
4.172080
 22
1.102640
 13
4.824160
 23
1.476200
  0
POLYLINE
  8
0
  6
CONTINUOUS
 66
     1
 40
0.000000
 41
0.000000
  0
VERTEX
  8
0
  6
CONTINUOUS
 10
4.184840
 20
1.136960
  0
VERTEX
  8
0
  6
CONTINUOUS
 10
4.836920
 20
1.510520
  0
VERTEX
  8
0
  6
CONTINUOUS
 10
4.824160
 20
1.476200
  0
VERTEX
  8
0
  6
CONTINUOUS
 10
4.172080
 20
1.102640
  0
VERTEX
  8
0
  6
CONTINUOUS
 10
4.184840
 20
1.136960
  0
SEQEND
  8
0
  0
SOLID
  8
0
 62
    15
 10
4.172080
 20
1.102640
 11
4.824160
 21
1.476200
 12
4.162840
 22
1.067000
 13
4.814920
 23
1.440560
  0
POLYLINE
  8
0
  6
CONTINUOUS
 66
     1
 40
0.000000
 41
0.000000
  0
VERTEX
  8
0
  6
CONTINUOUS
 10
4.172080
 20
1.102640
  0
VERTEX
  8
0
  6
CONTINUOUS
 10
4.824160
 20
1.476200
  0
VERTEX
  8
0
  6
CONTINUOUS
 10
4.814920
 20
1.440560
  0
VERTEX
  8
0
  6
CONTINUOUS
 10
4.162840
 20
1.067000
  0
VERTEX
  8
0
  6
CONTINUOUS
 10
4.172080
 20
1.102640
  0
SEQEND
  8
0
  0
SOLID
  8
0
 62
    15
 10
4.162840
 20
1.067000
 11
4.814920
 21
1.440560
 12
4.157560
 22
1.030040
 13
4.809640
 23
1.403600
  0
POLYLINE
  8
0
  6
CONTINUOUS
 66
     1
 40
0.000000
 41
0.000000
  0
VERTEX
  8
0
  6
CONTINUOUS
 10
4.162840
 20
1.067000
  0
VERTEX
  8
0
  6
CONTINUOUS
 10
4.814920
 20
1.440560
  0
VERTEX
  8
0
  6
CONTINUOUS
 10
4.809640
 20
1.403600
  0
VERTEX
  8
0
  6
CONTINUOUS
 10
4.157560
 20
1.030040
  0
VERTEX
  8
0
  6
CONTINUOUS
 10
4.162840
 20
1.067000
  0
SEQEND
  8
0
  0
SOLID
  8
0
 62
    15
 10
4.157560
 20
1.030040
 11
4.809640
 21
1.403600
 12
4.155360
 22
0.991760
 13
4.807440
 23
1.365320
  0
POLYLINE
  8
0
  6
CONTINUOUS
 66
     1
 40
0.000000
 41
0.000000
  0
VERTEX
  8
0
  6
CONTINUOUS
 10
4.157560
 20
1.030040
  0
VERTEX
  8
0
  6
CONTINUOUS
 10
4.809640
 20
1.403600
  0
VERTEX
  8
0
  6
CONTINUOUS
 10
4.807440
 20
1.365320
  0
VERTEX
  8
0
  6
CONTINUOUS
 10
4.155360
 20
0.991760
  0
VERTEX
  8
0
  6
CONTINUOUS
 10
4.157560
 20
1.030040
  0
SEQEND
  8
0
  0
SOLID
  8
0
 62
    15
 10
4.155360
 20
0.991760
 11
4.807440
 21
1.365320
 12
4.155360
 22
0.988680
 13
4.807440
 23
1.362240
  0
POLYLINE
  8
0
  6
CONTINUOUS
 66
     1
 40
0.000000
 41
0.000000
  0
VERTEX
  8
0
  6
CONTINUOUS
 10
4.155360
 20
0.991760
  0
VERTEX
  8
0
  6
CONTINUOUS
 10
4.807440
 20
1.365320
  0
VERTEX
  8
0
  6
CONTINUOUS
 10
4.807440
 20
1.362240
  0
VERTEX
  8
0
  6
CONTINUOUS
 10
4.155360
 20
0.988680
  0
VERTEX
  8
0
  6
CONTINUOUS
 10
4.155360
 20
0.991760
  0
SEQEND
  8
0
  0
POLYLINE
  8
0
  6
CONTINUOUS
 66
     1
 40
0.000000
 41
0.000000
  0
VERTEX
  8
0
  6
CONTINUOUS
 10
4.155360
 20
0.988680
  0
VERTEX
  8
0
  6
CONTINUOUS
 10
3.089680
 20
0.988680
  0
VERTEX
  8
0
  6
CONTINUOUS
 10
3.089680
 20
1.753840
  0
VERTEX
  8
0
  6
CONTINUOUS
 10
4.528040
 20
1.753840
  0
VERTEX
  8
0
  6
CONTINUOUS
 10
4.528040
 20
1.364440
  0
VERTEX
  8
0
  6
CONTINUOUS
 10
4.490200
 20
1.362680
  0
VERTEX
  8
0
  6
CONTINUOUS
 10
4.452800
 20
1.356960
  0
VERTEX
  8
0
  6
CONTINUOUS
 10
4.417160
 20
1.347720
  0
VERTEX
  8
0
  6
CONTINUOUS
 10
4.382840
 20
1.334960
  0
VERTEX
  8
0
  6
CONTINUOUS
 10
4.350280
 20
1.319560
  0
VERTEX
  8
0
  6
CONTINUOUS
 10
4.319920
 20
1.300640
  0
VERTEX
  8
0
  6
CONTINUOUS
 10
4.264480
 20
1.255320
  0
VERTEX
  8
0
  6
CONTINUOUS
 10
4.219160
 20
1.200320
  0
VERTEX
  8
0
  6
CONTINUOUS
 10
4.200240
 20
1.169520
  0
VERTEX
  8
0
  6
CONTINUOUS
 10
4.184840
 20
1.136960
  0
VERTEX
  8
0
  6
CONTINUOUS
 10
4.172080
 20
1.102640
  0
VERTEX
  8
0
  6
CONTINUOUS
 10
4.162840
 20
1.067000
  0
VERTEX
  8
0
  6
CONTINUOUS
 10
4.157560
 20
1.030040
  0
VERTEX
  8
0
  6
CONTINUOUS
 10
4.155360
 20
0.991760
  0
VERTEX
  8
0
  6
CONTINUOUS
 10
4.155360
 20
0.988680
  0
SEQEND
  8
0
  0
TEXT
  8
0
 10
3.840320
 20
0.762080
 40
0.138147
  1
BA  382
 41
1.000000
  7
SN0
 71
     0
 72
     5
 11
4.430753
 21
0.762080
  0
TEXT
  8
0
 10
3.638360
 20
0.570680
 40
0.138147
  1
3/4" x 1-7/16"
 41
1.000000
  7
SN0
 71
     0
 72
     5
 11
4.631421
 21
0.570680
  0
POLYLINE
  8
0
  6
CONTINUOUS
 66
     1
 40
0.014080
 41
0.014080
  0
VERTEX
  8
0
  6
CONTINUOUS
 10
6.514640
 20
2.130040
  0
VERTEX
  8
0
  6
CONTINUOUS
 10
6.515080
 20
2.110680
  0
VERTEX
  8
0
  6
CONTINUOUS
 10
6.516400
 20
2.091760
  0
VERTEX
  8
0
  6
CONTINUOUS
 10
6.519040
 20
2.073280
  0
VERTEX
  8
0
  6
CONTINUOUS
 10
6.522120
 20
2.054800
  0
VERTEX
  8
0
  6
CONTINUOUS
 10
6.526520
 20
2.036760
  0
VERTEX
  8
0
  6
CONTINUOUS
 10
6.531360
 20
2.019160
  0
VERTEX
  8
0
  6
CONTINUOUS
 10
6.537080
 20
2.002000
  0
VERTEX
  8
0
  6
CONTINUOUS
 10
6.544120
 20
1.984840
  0
VERTEX
  8
0
  6
CONTINUOUS
 10
6.551160
 20
1.968560
  0
VERTEX
  8
0
  6
CONTINUOUS
 10
6.559520
 20
1.952280
  0
VERTEX
  8
0
  6
CONTINUOUS
 10
6.568760
 20
1.936880
  0
VERTEX
  8
0
  6
CONTINUOUS
 10
6.578440
 20
1.921480
  0
VERTEX
  8
0
  6
CONTINUOUS
 10
6.588560
 20
1.906960
  0
VERTEX
  8
0
  6
CONTINUOUS
 10
6.599560
 20
1.892880
  0
VERTEX
  8
0
  6
CONTINUOUS
 10
6.611440
 20
1.879240
  0
VERTEX
  8
0
  6
CONTINUOUS
 10
6.623760
 20
1.866480
  0
VERTEX
  8
0
  6
CONTINUOUS
 10
6.636520
 20
1.854160
  0
VERTEX
  8
0
  6
CONTINUOUS
 10
6.650160
 20
1.842280
  0
VERTEX
  8
0
  6
CONTINUOUS
 10
6.664240
 20
1.831280
  0
VERTEX
  8
0
  6
CONTINUOUS
 10
6.678760
 20
1.821160
  0
VERTEX
  8
0
  6
CONTINUOUS
 10
6.694160
 20
1.811480
  0
VERTEX
  8
0
  6
CONTINUOUS
 10
6.709560
 20
1.802240
  0
VERTEX
  8
0
  6
CONTINUOUS
 10
6.725840
 20
1.793880
  0
VERTEX
  8
0
  6
CONTINUOUS
 10
6.742120
 20
1.786840
  0
VERTEX
  8
0
  6
CONTINUOUS
 10
6.759280
 20
1.779800
  0
VERTEX
  8
0
  6
CONTINUOUS
 10
6.776440
 20
1.774080
  0
VERTEX
  8
0
  6
CONTINUOUS
 10
6.794040
 20
1.769240
  0
VERTEX
  8
0
  6
CONTINUOUS
 10
6.812080
 20
1.764840
  0
VERTEX
  8
0
  6
CONTINUOUS
 10
6.830560
 20
1.761760
  0
VERTEX
  8
0
  6
CONTINUOUS
 10
6.849040
 20
1.759120
  0
VERTEX
  8
0
  6
CONTINUOUS
 10
6.867960
 20
1.757800
  0
VERTEX
  8
0
  6
CONTINUOUS
 10
6.887320
 20
1.757360
  0
VERTEX
  8
0
  6
CONTINUOUS
 10
6.887320
 20
1.367960
  0
VERTEX
  8
0
  6
CONTINUOUS
 10
5.448960
 20
1.367960
  0
VERTEX
  8
0
  6
CONTINUOUS
 10
5.448960
 20
2.133120
  0
VERTEX
  8
0
  6
CONTINUOUS
 10
6.514640
 20
2.133120
  0
VERTEX
  8
0
  6
CONTINUOUS
 10
6.514640
 20
2.130040
  0
SEQEND
  8
0
  0
TEXT
  8
0
 10
5.863440
 20
1.139600
 40
0.138147
  1
BA  382
 41
1.000000
  7
SN0
 71
     0
 72
     5
 11
6.453873
 21
1.139600
  0
TEXT
  8
0
 10
5.661480
 20
0.947760
 40
0.138147
  1
3/4" x 1-7/16"
 41
1.000000
  7
SN0
 71
     0
 72
     5
 11
6.654541
 21
0.947760
  0
ENDSEC
  0
EOF
